  0
SECTION
  2
HEADER
  9
$ACADVER
  1
AC1009
  9
$INSBASE
 10
0
 20
0
  9
$EXTMIN
 10
522.4534380355369
 20
-332.98125314682
  9
$EXTMAX
 10
751.1334118957653
 20
-251.798263778888
  9
$LIMMIN
 10
522.4534380355369
 20
-332.98125314682
  9
$LIMMAX
 10
751.1334118957653
 20
-251.798263778888
  9
$VIEWCTR
 10
10
 20
10
  9
$VIEWSIZE
 40
10
  9
$SNAPMODE
 70
0
  9
$SNAPUNIT
 10
1
 20
1
  9
$SNAPBASE
 10
0
 20
0
  9
$SNAPANG
 50
0
  9
$SNAPSTYLE
 70
0
  9
$SNAPISOPAIR
 70
0
  9
$GRIDMODE
 70
0
  9
$GRIDUNIT
 10
0
 20
0
  9
$ORTHOMODE
 70
0
  9
$REGENMODE
 70
1
  9
$FILLMODE
 70
1
  9
$QTEXTMODE
 70
0
  9
$DRAGMODE
 70
2
  9
$LTSCALE
 40
1
  9
$OSMODE
 70
0
  9
$ATTMODE
 70
1
  9
$TEXTSIZE
 40
3.5
  9
$TRACEWID
 40
0.5
  9
$TEXTSTYLE
  7
STANDARD
  9
$CLAYER
  8
0
  9
$CELTYPE
  6
BYLAYER
  9
$CECOLOR
 62
256
  9
$DIMSCALE
 40
1
  9
$DIMASZ
 40
0.18
  9
$DIMEXO
 40
0.0625
  9
$DIMDLI
 40
0.38
  9
$DIMRND
 40
0
  9
$DIMDLE
 40
0
  9
$DIMEXE
 40
0.18
  9
$DIMTP
 40
0
  9
$DIMTM
 40
0
  9
$DIMTXT
 40
0.18
  9
$DIMCEN
 40
0.09
  9
$DIMTSZ
 40
0
  9
$DIMTOL
 70
0
  9
$DIMLIM
 70
0
  9
$DIMTIH
 70
1
  9
$DIMTOH
 70
1
  9
$DIMSE1
 70
0
  9
$DIMSE2
 70
0
  9
$DIMTAD
 70
0
  9
$DIMZIN
 70
0
  9
$DIMBLK
  1

  9
$DIMASO
 70
1
  9
$DIMSHO
 70
1
  9
$DIMPOST
  1

  9
$DIMAPOST
  1

  9
$DIMALT
 70
0
  9
$DIMALTD
 70
2
  9
$DIMALTF
 40
25.4
  9
$DIMLFAC
 40
1
  9
$DIMTOFL
 70
0
  9
$DIMTVP
 40
0
  9
$DIMTIX
 70
0
  9
$DIMSOXD
 70
0
  9
$DIMSAH
 70
0
  9
$DIMBLK1
  1

  9
$DIMBLK2
  1

  9
$DIMSTYLE
  2
*UNNAMED
  9
$DIMCLRD
 70
0
  9
$DIMCLRE
 70
0
  9
$DIMCLRT
 70
0
  9
$DIMTFAC
 40
1
  9
$DIMGAP
 40
0.09
  9
$LUNITS
 70
2
  9
$LUPREC
 70
4
  9
$AXISMODE
 70
0
  9
$AXISUNIT
 10
0
 20
0
  9
$SKETCHINC
 40
0.1
  9
$FILLETRAD
 40
2
  9
$AUNITS
 70
0
  9
$AUPREC
 70
0
  9
$MENU
  1
ACAD
  9
$ELEVATION
 40
0
  9
$THICKNESS
 40
0
  9
$VIEWDIR
 10
0
 20
0
 30
1
  9
$LIMCHECK
 70
0
  9
$BLIPMODE
 70
1
  9
$CHAMFERA
 40
0
  9
$CHAMFERB
 40
0
  9
$FASTZOOM
 70
1
  9
$SKPOLY
 70
0
  9
$ANGBASE
 50
0
  9
$ANGDIR
 70
0
  9
$PDMODE
 70
0
  9
$PDSIZE
 40
0
  9
$PLINEWID
 40
0
  9
$COORDS
 70
2
  0
ENDSEC
  0
SECTION
  2
TABLES
  0
TABLE
  2
DIMSTYLE
 70
0
  0
ENDTAB
  0
TABLE
  2
LTYPE
 70
9
  0
LTYPE
  2
CONTINUOUS
 70
64
  3
Solid line
 72
65
 73
0
 40
0
  0
LTYPE
  2
BORDER
 70
64
  3
__ __ . __ __ .
 72
65
 73
6
 40
10.53131458566841
 49
3.00894702447669
 49
-1.504473512238345
 49
3.00894702447669
 49
-1.504473512238345
 49
0
 49
-1.504473512238345
  0
LTYPE
  2
CENTER
 70
64
  3
____ _ ____ _
 72
65
 73
4
 40
12.03578809790676
 49
7.522367561191724
 49
-1.504473512238345
 49
1.504473512238345
 49
-1.504473512238345
  0
LTYPE
  2
DASHDOT
 70
64
  3
__ . __ . __ .
 72
65
 73
4
 40
6.017894048953379
 49
3.00894702447669
 49
-1.504473512238345
 49
0
 49
-1.504473512238345
  0
LTYPE
  2
DASHED
 70
64
  3
__ __ __ __ __
 72
65
 73
2
 40
4.513420536715034
 49
3.00894702447669
 49
-1.504473512238345
  0
LTYPE
  2
DIVIDE
 70
64
  3
__ . . __ . . 
 72
65
 73
6
 40
7.522367561191724
 49
3.00894702447669
 49
-1.504473512238345
 49
0
 49
-1.504473512238345
 49
0
 49
-1.504473512238345
  0
LTYPE
  2
DOT
 70
64
  3
..............
 72
65
 73
4
 40
3.00894702447669
 49
0
 49
-1.504473512238345
 49
0
 49
-1.504473512238345
  0
LTYPE
  2
HIDDEN
 70
64
  3
_ _ _ _ _ _ _
 72
65
 73
2
 40
2.256710268357517
 49
1.504473512238345
 49
-0.7522367561191724
  0
LTYPE
  2
PHANTOM
 70
64
  3
_____ _ _ _____ _ _ 
 72
65
 73
6
 40
15.04473512238345
 49
7.522367561191724
 49
-1.504473512238345
 49
1.504473512238345
 49
-1.504473512238345
 49
1.504473512238345
 49
-1.504473512238345
  0
ENDTAB
  0
TABLE
  2
LAYER
 70
3
  0
LAYER
  2
1
 70
0
 62
7
  6
CONTINUOUS
  0
LAYER
  2
0
 70
0
 62
7
  6
CONTINUOUS
  0
ENDTAB
  0
TABLE
  2
STYLE
 70
4
  0
STYLE
  2
STANDARD
 70
0
 40
0
 41
1
 50
0
 71
0
 42
3.5
  3
txt
  4

  0
STYLE
  2
SIMPLEX
 70
0
 40
0
 41
1
 50
0
 71
0
 42
3.5
  3
simplex
  4

  0
STYLE
  2
COMPLEX
 70
0
 40
0
 41
1
 50
0
 71
0
 42
3.5
  3
complex
  4

  0
STYLE
  2
ITALIC
 70
0
 40
0
 41
1
 50
0
 71
0
 42
3.5
  3
italic
  4

  0
ENDTAB
  0
TABLE
  2
VIEW
 70
0
  0
ENDTAB
  0
ENDSEC
  0
SECTION
  2
BLOCKS
  0
ENDSEC
  0
SECTION
  2
ENTITIES
  0
LINE
  8
1
 62
7
 10
725.1188482826354
 20
-282.8848880537269
 30
0
 11
747.8688482826357
 21
-282.8844253175544
 31
0
  0
LINE
  8
1
 62
7
 10
719.6188482826354
 20
-282.0844761676833
 30
0
 11
725.1188482826354
 21
-282.0844761676833
 31
0
  0
LINE
  8
1
 62
7
 10
725.1188482826354
 20
-284.8844761676833
 30
0
 11
719.6188482826354
 21
-284.8844761676833
 31
0
  0
LINE
  8
1
 62
7
 10
725.1188482826354
 20
-282.0844761676833
 30
0
 11
725.1188482826354
 21
-284.8844761676833
 31
0
  0
LINE
  8
1
 62
7
 10
724.7724381211217
 20
-281.8844761676833
 30
0
 11
725.1188482826354
 21
-282.0844761676833
 31
0
  0
LINE
  8
1
 62
7
 10
719.9652584441492
 20
-281.8844761676833
 30
0
 11
724.7724381211217
 21
-281.8844761676833
 31
0
  0
LINE
  8
1
 62
7
 10
719.6188482826354
 20
-282.0844761676833
 30
0
 11
719.9652584441492
 21
-281.8844761676833
 31
0
  0
LINE
  8
1
 62
7
 10
719.6188482826354
 20
-284.8844761676833
 30
0
 11
719.6188482826354
 21
-282.0844761676833
 31
0
  0
LINE
  8
1
 62
7
 10
535.1430137582092
 20
-284.484686282155
 30
0
 11
529.6430137582092
 21
-284.484686282155
 31
0
  0
LINE
  8
1
 62
7
 10
529.6430137582092
 20
-284.484686282155
 30
0
 11
529.6430137582092
 21
-284.884686282155
 31
0
  0
LINE
  8
1
 62
7
 10
535.1430137582092
 20
-284.884686282155
 30
0
 11
535.1430137582092
 21
-284.484686282155
 31
0
  0
LINE
  8
1
 62
7
 10
529.6430137582092
 20
-284.884686282155
 30
0
 11
535.3930137582092
 21
-284.884686282155
 31
0
  0
LINE
  8
1
 62
7
 10
535.1430137582092
 20
-284.484686282155
 30
0
 11
529.6430137582092
 21
-284.484686282155
 31
0
  0
LINE
  8
1
 62
7
 10
533.8930137582092
 20
-282.734686282155
 30
0
 11
530.8930137582092
 21
-282.734686282155
 31
0
  0
LINE
  8
1
 62
7
 10
660.3430137582093
 20
-306.884686282155
 30
0
 11
660.83775001701
 21
-306.884686282155
 31
0
  0
LINE
  8
1
 62
7
 10
660.3430137582093
 20
-305.884686282155
 30
0
 11
660.3430137582093
 21
-306.884686282155
 31
0
  0
LINE
  8
1
 62
7
 10
660.83775001701
 20
-305.884686282155
 30
0
 11
660.3430137582093
 21
-305.884686282155
 31
0
  0
LINE
  8
1
 62
3
  6
DASHDOT
 10
643.9404978809
 20
-318.2448766866766
 30
0
 11
646.49452061855
 21
-322.6685738319726
 31
0
  0
LINE
  8
1
 62
3
  6
DASHED
 10
635.5930137582093
 20
-330.034686282155
 30
0
 11
638.5930137582093
 21
-330.0346862821551
 31
0
  0
LINE
  8
1
 62
3
  6
DASHED
 10
635.5930137582093
 20
-327.8846862821551
 30
0
 11
635.5930137582093
 21
-320.4846862821551
 31
0
  0
LINE
  8
1
 62
3
  6
DASHED
 10
635.5930137582093
 20
-320.4846862821551
 30
0
 11
636.1930137582094
 21
-319.8846862821551
 31
0
  0
LINE
  8
1
 62
3
  6
DASHED
 10
636.1930137582094
 20
-319.8846862821551
 30
0
 11
637.9930137582094
 21
-319.884686282155
 31
0
  0
LINE
  8
1
 62
3
  6
DASHED
 10
637.9930137582094
 20
-319.884686282155
 30
0
 11
638.5930137582093
 21
-320.4846862821551
 31
0
  0
LINE
  8
1
 62
3
  6
DASHED
 10
638.5930137582093
 20
-320.4846862821551
 30
0
 11
638.5930137582093
 21
-327.884686282155
 31
0
  0
LINE
  8
1
 62
3
  6
DASHED
 10
635.5930137582093
 20
-320.4846862821551
 30
0
 11
638.5930137582093
 21
-320.4846862821551
 31
0
  0
LINE
  8
1
 62
3
  6
DASHED
 10
636.1930137582094
 20
-319.8846862821551
 30
0
 11
636.1930137582094
 21
-326.3454557976137
 31
0
  0
LINE
  8
1
 62
3
  6
DASHED
 10
636.1930137582094
 20
-326.3454557976137
 30
0
 11
635.5930137582093
 21
-327.3846862821551
 31
0
  0
LINE
  8
1
 62
3
  6
DASHED
 10
637.9930137582094
 20
-319.884686282155
 30
0
 11
637.9930137582094
 21
-326.3454557976137
 31
0
  0
LINE
  8
1
 62
3
  6
DASHED
 10
637.9930137582094
 20
-326.3454557976137
 30
0
 11
638.5930137582093
 21
-327.384686282155
 31
0
  0
LINE
  8
1
 62
3
  6
DASHED
 10
635.5930137582093
 20
-326.3454557976137
 30
0
 11
638.5930137582093
 21
-326.3454557976137
 31
0
  0
LINE
  8
1
 62
3
  6
DASHED
 10
617.155619690717
 20
-314.4314444988236
 30
0
 11
615.0691482185375
 21
-315.2735471028936
 31
0
  0
LINE
  8
1
 62
3
  6
DASHED
 10
640.4069672465814
 20
-329.9023437394127
 30
0
 11
640.0930137582093
 21
-327.6743551381988
 31
0
  0
LINE
  8
1
 62
3
  6
DASHED
 10
638.5930137582095
 20
-282.734686282155
 30
0
 11
635.5930137582095
 21
-282.734686282155
 31
0
  0
LINE
  8
1
 62
3
  6
DASHED
 10
638.5930137582095
 20
-284.884686282155
 30
0
 11
638.5930137582095
 21
-292.284686282155
 31
0
  0
LINE
  8
1
 62
3
  6
DASHED
 10
638.5930137582095
 20
-292.284686282155
 30
0
 11
637.9930137582094
 21
-292.884686282155
 31
0
  0
LINE
  8
1
 62
3
  6
DASHED
 10
637.9930137582094
 20
-292.884686282155
 30
0
 11
636.1930137582094
 21
-292.884686282155
 31
0
  0
LINE
  8
1
 62
3
  6
DASHED
 10
636.1930137582094
 20
-292.884686282155
 30
0
 11
635.5930137582095
 21
-292.284686282155
 31
0
  0
LINE
  8
1
 62
3
  6
DASHED
 10
635.5930137582095
 20
-292.284686282155
 30
0
 11
635.5930137582095
 21
-284.884686282155
 31
0
  0
LINE
  8
1
 62
3
  6
DASHED
 10
638.5930137582095
 20
-292.284686282155
 30
0
 11
635.5930137582095
 21
-292.284686282155
 31
0
  0
LINE
  8
1
 62
3
  6
DASHED
 10
637.9930137582094
 20
-292.884686282155
 30
0
 11
637.9930137582094
 21
-286.4239167666963
 31
0
  0
LINE
  8
1
 62
3
  6
DASHED
 10
637.9930137582094
 20
-286.4239167666963
 30
0
 11
638.5930137582095
 21
-285.384686282155
 31
0
  0
LINE
  8
1
 62
3
  6
DASHED
 10
636.1930137582094
 20
-292.884686282155
 30
0
 11
636.1930137582094
 21
-286.4239167666963
 31
0
  0
LINE
  8
1
 62
3
  6
DASHED
 10
636.1930137582094
 20
-286.4239167666963
 30
0
 11
635.5930137582095
 21
-285.384686282155
 31
0
  0
LINE
  8
1
 62
3
  6
DASHED
 10
638.5930137582095
 20
-286.4239167666963
 30
0
 11
635.5930137582095
 21
-286.4239167666963
 31
0
  0
LINE
  8
1
 62
3
  6
DASHED
 10
657.0304078257016
 20
-298.3379280654864
 30
0
 11
659.116879297881
 21
-297.4958254614165
 31
0
  0
LINE
  8
1
 62
3
  6
DASHED
 10
633.7790602698372
 20
-282.8670288248974
 30
0
 11
634.0930137582093
 21
-285.0950174261113
 31
0
  0
LINE
  8
1
 62
3
  6
DASHDOT
 10
646.49452061855
 20
-290.1007987323375
 30
0
 11
643.9404978809
 21
-294.5244958776335
 31
0
  0
LINE
  8
1
 62
3
  6
DASHED
 10
639.5985077214828
 20
-308.034686282155
 30
0
 11
641.8129184182635
 21
-308.034686282155
 31
0
  0
LINE
  8
1
 62
3
  6
DASHED
 10
641.8129184182635
 20
-304.734686282155
 30
0
 11
639.5985077214828
 21
-304.734686282155
 31
0
  0
LINE
  8
1
 62
3
  6
DASHED
 10
645.9671334328587
 20
-304.884686282155
 30
0
 11
640.6930137582094
 21
-304.884686282155
 31
0
  0
LINE
  8
1
 62
3
  6
DASHED
 10
646.0479006921689
 20
-305.484686282155
 30
0
 11
640.0930137582093
 21
-305.484686282155
 31
0
  0
LINE
  8
1
 62
3
  6
DASHED
 10
640.6930137582094
 20
-307.884686282155
 30
0
 11
645.9671334328587
 21
-307.884686282155
 31
0
  0
LINE
  8
1
 62
3
  6
DASHED
 10
640.0930137582093
 20
-307.284686282155
 30
0
 11
646.0479006921689
 21
-307.284686282155
 31
0
  0
LINE
  8
1
 62
3
  6
DASHED
 10
640.6930137582094
 20
-307.884686282155
 30
0
 11
640.6930137582094
 21
-304.884686282155
 31
0
  0
LINE
  8
1
 62
3
  6
DASHED
 10
640.0930137582093
 20
-305.484686282155
 30
0
 11
640.6930137582094
 21
-304.884686282155
 31
0
  0
LINE
  8
1
 62
3
  6
DASHED
 10
640.0930137582093
 20
-307.284686282155
 30
0
 11
640.0930137582093
 21
-305.484686282155
 31
0
  0
LINE
  8
1
 62
3
  6
DASHED
 10
640.6930137582094
 20
-307.884686282155
 30
0
 11
640.0930137582093
 21
-307.284686282155
 31
0
  0
LINE
  8
1
 62
3
  6
DASHED
 10
645.0930137582093
 20
-305.4043015244257
 30
0
 11
645.0930137582093
 21
-307.3650710398844
 31
0
  0
LINE
  8
1
 62
3
  6
DASHED
 10
644.7930137582093
 20
-304.884686282155
 30
0
 11
645.0930137582093
 21
-305.4043015244257
 31
0
  0
LINE
  8
1
 62
3
  6
DASHED
 10
644.7930137582093
 20
-307.884686282155
 30
0
 11
644.7930137582093
 21
-304.884686282155
 31
0
  0
LINE
  8
1
 62
3
  6
DASHED
 10
645.0930137582093
 20
-307.3650710398844
 30
0
 11
644.7930137582093
 21
-307.884686282155
 31
0
  0
LINE
  8
1
 62
3
  6
DASHED
 10
638.7430137582094
 20
-303.8791923188815
 30
0
 11
638.7430137582094
 21
-301.664781622101
 31
0
  0
LINE
  8
1
 62
3
  6
DASHED
 10
635.4430137582094
 20
-301.664781622101
 30
0
 11
635.4430137582094
 21
-303.8791923188815
 31
0
  0
LINE
  8
1
 62
3
  6
DASHED
 10
635.5930137582093
 20
-297.5105666075056
 30
0
 11
635.5930137582093
 21
-302.784686282155
 31
0
  0
LINE
  8
1
 62
3
  6
DASHED
 10
636.1930137582094
 20
-297.4297993481954
 30
0
 11
636.1930137582094
 21
-303.384686282155
 31
0
  0
LINE
  8
1
 62
3
  6
DASHED
 10
638.5930137582093
 20
-302.784686282155
 30
0
 11
638.5930137582093
 21
-297.5105666075056
 31
0
  0
LINE
  8
1
 62
3
  6
DASHED
 10
637.9930137582094
 20
-303.384686282155
 30
0
 11
637.9930137582094
 21
-297.4297993481954
 31
0
  0
LINE
  8
1
 62
3
  6
DASHED
 10
638.5930137582093
 20
-302.784686282155
 30
0
 11
635.5930137582093
 21
-302.784686282155
 31
0
  0
LINE
  8
1
 62
3
  6
DASHED
 10
636.1930137582094
 20
-303.384686282155
 30
0
 11
635.5930137582093
 21
-302.784686282155
 31
0
  0
LINE
  8
1
 62
3
  6
DASHED
 10
637.9930137582094
 20
-303.384686282155
 30
0
 11
636.1930137582094
 21
-303.384686282155
 31
0
  0
LINE
  8
1
 62
3
  6
DASHED
 10
638.5930137582093
 20
-302.784686282155
 30
0
 11
637.9930137582094
 21
-303.384686282155
 31
0
  0
LINE
  8
1
 62
3
  6
DASHED
 10
636.11262900048
 20
-298.384686282155
 30
0
 11
638.0733985159386
 21
-298.384686282155
 31
0
  0
LINE
  8
1
 62
3
  6
DASHED
 10
635.5930137582093
 20
-298.684686282155
 30
0
 11
636.11262900048
 21
-298.384686282155
 31
0
  0
LINE
  8
1
 62
3
  6
DASHED
 10
638.5930137582093
 20
-298.684686282155
 30
0
 11
635.5930137582093
 21
-298.684686282155
 31
0
  0
LINE
  8
1
 62
3
  6
DASHED
 10
638.0733985159386
 20
-298.384686282155
 30
0
 11
638.5930137582093
 21
-298.684686282155
 31
0
  0
LINE
  8
1
 62
3
  6
DASHDOT
 10
637.0930137582093
 20
-279.78811941749
 30
0
 11
637.0930137582093
 21
-332.98125314682
 31
0
  0
LINE
  8
1
 62
3
  6
DASHDOT
 10
663.6895806228743
 20
-306.384686282155
 30
0
 11
610.4964468935443
 21
-306.384686282155
 31
0
  0
LINE
  8
1
 62
7
 10
536.3930137582092
 20
-295.884686282155
 30
0
 11
539.8930137582092
 21
-295.884686282155
 31
0
  0
LINE
  8
1
 62
7
 10
546.8930137582092
 20
-295.884686282155
 30
0
 11
547.8930137582092
 21
-296.884686282155
 31
0
  0
LINE
  8
1
 62
7
 10
536.3930137582092
 20
-295.884686282155
 30
0
 11
535.3930137582092
 21
-296.884686282155
 31
0
  0
LINE
  8
1
 62
7
 10
563.3930137582095
 20
-301.384686282155
 30
0
 11
564.8930137582095
 21
-301.384686282155
 31
0
  0
LINE
  8
1
 62
7
 10
562.7930137582093
 20
-298.384686282155
 30
0
 11
562.7930137582093
 21
-297.384686282155
 31
0
  0
LINE
  8
1
 62
7
 10
560.9930137582094
 20
-298.384686282155
 30
0
 11
560.9930137582094
 21
-297.384686282155
 31
0
  0
LINE
  8
1
 62
3
 10
563.3930137582095
 20
-298.6846862821549
 30
0
 11
563.3930137582095
 21
-297.384686282155
 31
0
  0
LINE
  8
1
 62
3
 10
560.3930137582095
 20
-298.6846862821549
 30
0
 11
560.3930137582095
 21
-297.384686282155
 31
0
  0
LINE
  8
1
 62
3
 10
560.9930137582094
 20
-298.384686282155
 30
0
 11
560.9930137582094
 21
-303.384686282155
 31
0
  0
LINE
  8
1
 62
3
 10
562.7930137582093
 20
-298.384686282155
 30
0
 11
562.7930137582093
 21
-303.384686282155
 31
0
  0
LINE
  8
1
 62
7
 10
563.3930137582095
 20
-302.784686282155
 30
0
 11
560.3930137582095
 21
-302.784686282155
 31
0
  0
LINE
  8
1
 62
7
 10
560.3930137582095
 20
-302.784686282155
 30
0
 11
560.3930137582095
 21
-298.6846862821549
 31
0
  0
LINE
  8
1
 62
7
 10
560.9930137582094
 20
-303.384686282155
 30
0
 11
560.3930137582095
 21
-302.784686282155
 31
0
  0
LINE
  8
1
 62
7
 10
564.8930137582095
 20
-303.384686282155
 30
0
 11
527.3930137582092
 21
-303.384686282155
 31
0
  0
LINE
  8
1
 62
7
 10
563.3930137582095
 20
-302.784686282155
 30
0
 11
562.7930137582093
 21
-303.384686282155
 31
0
  0
LINE
  8
1
 62
7
 10
563.3930137582095
 20
-298.6846862821549
 30
0
 11
563.3930137582095
 21
-302.784686282155
 31
0
  0
LINE
  8
1
 62
7
 10
560.9126290004799
 20
-298.384686282155
 30
0
 11
562.8733985159388
 21
-298.384686282155
 31
0
  0
LINE
  8
1
 62
7
 10
560.3930137582095
 20
-298.6846862821549
 30
0
 11
560.9126290004799
 21
-298.384686282155
 31
0
  0
LINE
  8
1
 62
7
 10
563.3930137582095
 20
-298.6846862821549
 30
0
 11
560.3930137582095
 21
-298.6846862821549
 31
0
  0
LINE
  8
1
 62
7
 10
562.8733985159388
 20
-298.384686282155
 30
0
 11
563.3930137582095
 21
-298.6846862821549
 31
0
  0
LINE
  8
1
 62
7
 10
551.7930137582093
 20
-286.4239167666963
 30
0
 11
551.7930137582093
 21
-295.384686282155
 31
0
  0
LINE
  8
1
 62
3
 10
549.3930137582095
 20
-293.884686282155
 30
0
 11
549.9930137582094
 21
-294.9239167666963
 31
0
  0
LINE
  8
1
 62
3
 10
552.3930137582095
 20
-293.884686282155
 30
0
 11
551.7930137582093
 21
-294.9239167666963
 31
0
  0
LINE
  8
1
 62
3
 10
549.3930137582095
 20
-293.884686282155
 30
0
 11
549.3930137582095
 21
-285.884686282155
 31
0
  0
LINE
  8
1
 62
3
 10
552.3930137582095
 20
-293.884686282155
 30
0
 11
549.3930137582095
 21
-293.884686282155
 31
0
  0
LINE
  8
1
 62
3
 10
552.3930137582095
 20
-285.884686282155
 30
0
 11
552.3930137582095
 21
-293.884686282155
 31
0
  0
LINE
  8
1
 62
3
  6
DASHDOT
 10
550.8930137582095
 20
-281.2287064632353
 30
0
 11
550.8930137582095
 21
-295.8698977850299
 31
0
  0
LINE
  8
1
 62
3
 10
552.3930137582095
 20
-286.4239167666963
 30
0
 11
549.3930137582095
 21
-286.4239167666963
 31
0
  0
LINE
  8
1
 62
3
 10
549.9930137582094
 20
-286.4239167666963
 30
0
 11
549.3930137582095
 21
-285.384686282155
 31
0
  0
LINE
  8
1
 62
3
 10
551.7930137582093
 20
-286.4239167666963
 30
0
 11
552.3930137582095
 21
-285.384686282155
 31
0
  0
LINE
  8
1
 62
7
 10
552.3930137582095
 20
-292.2846862821551
 30
0
 11
549.3930137582095
 21
-292.2846862821551
 31
0
  0
LINE
  8
1
 62
7
 10
549.3930137582095
 20
-292.2846862821551
 30
0
 11
549.3930137582095
 21
-284.884686282155
 31
0
  0
LINE
  8
1
 62
7
 10
549.9930137582094
 20
-292.884686282155
 30
0
 11
549.3930137582095
 21
-292.2846862821551
 31
0
  0
LINE
  8
1
 62
7
 10
551.7930137582093
 20
-292.884686282155
 30
0
 11
549.9930137582094
 21
-292.884686282155
 31
0
  0
LINE
  8
1
 62
7
 10
552.3930137582095
 20
-292.2846862821551
 30
0
 11
551.7930137582093
 21
-292.884686282155
 31
0
  0
LINE
  8
1
 62
7
 10
552.3930137582095
 20
-284.884686282155
 30
0
 11
552.3930137582095
 21
-292.2846862821551
 31
0
  0
LINE
  8
1
 62
7
 10
549.1930137582094
 20
-284.884686282155
 30
0
 11
549.1930137582094
 21
-285.884686282155
 31
0
  0
LINE
  8
1
 62
7
 10
552.5930137582095
 20
-284.884686282155
 30
0
 11
552.5930137582095
 21
-285.884686282155
 31
0
  0
LINE
  8
1
 62
7
 10
553.8930137582095
 20
-284.884686282155
 30
0
 11
553.8930137582095
 21
-282.884686282155
 31
0
  0
LINE
  8
1
 62
7
 10
547.8930137582095
 20
-284.884686282155
 30
0
 11
553.8930137582095
 21
-284.884686282155
 31
0
  0
LINE
  8
1
 62
7
 10
547.8930137582095
 20
-282.884686282155
 30
0
 11
547.8930137582095
 21
-284.884686282155
 31
0
  0
LINE
  8
1
 62
7
 10
564.8930137582095
 20
-315.384686282155
 30
0
 11
558.8930137582092
 21
-315.384686282155
 31
0
  0
LINE
  8
1
 62
7
 10
558.8930137582092
 20
-315.384686282155
 30
0
 11
558.8930137582092
 21
-311.384686282155
 31
0
  0
LINE
  8
1
 62
7
 10
525.3930137582092
 20
-329.884686282155
 30
0
 11
548.1430137582095
 21
-329.884686282155
 31
0
  0
LINE
  8
1
 62
7
 10
557.8930137582092
 20
-330.134686282155
 30
0
 11
557.8930137582092
 21
-311.384686282155
 31
0
  0
LINE
  8
1
 62
7
 10
549.3930137582095
 20
-285.884686282155
 30
0
 11
533.8930137582092
 21
-285.884686282155
 31
0
  0
LINE
  8
1
 62
7
 10
564.8930137582095
 20
-297.384686282155
 30
0
 11
564.8930137582095
 21
-315.384686282155
 31
0
  0
LINE
  8
1
 62
7
 10
558.8930137582092
 20
-297.384686282155
 30
0
 11
564.8930137582095
 21
-297.384686282155
 31
0
  0
LINE
  8
1
 62
7
 10
558.8930137582092
 20
-301.384686282155
 30
0
 11
558.8930137582092
 21
-297.384686282155
 31
0
  0
LINE
  8
1
 62
7
 10
525.3930137582092
 20
-295.384686282155
 30
0
 11
527.3930137582092
 21
-295.384686282155
 31
0
  0
LINE
  8
1
 62
7
 10
527.3930137582092
 20
-317.884686282155
 30
0
 11
527.3930137582092
 21
-294.884686282155
 31
0
  0
LINE
  8
1
 62
7
 10
527.3930137582092
 20
-294.884686282155
 30
0
 11
528.5430137582093
 21
-294.884686282155
 31
0
  0
LINE
  8
1
 62
7
 10
525.3930137582092
 20
-282.884686282155
 30
0
 11
525.3930137582092
 21
-329.884686282155
 31
0
  0
LINE
  8
1
 62
7
 10
530.6858116117408
 20
-282.884686282155
 30
0
 11
525.3930137582092
 21
-282.884686282155
 31
0
  0
LINE
  8
1
 62
7
 10
527.8930137582092
 20
-285.884686282155
 30
0
 11
527.8930137582092
 21
-282.884686282155
 31
0
  0
LINE
  8
1
 62
7
 10
534.8930137582092
 20
-294.884686282155
 30
0
 11
538.8930137582092
 21
-294.884686282155
 31
0
  0
LINE
  8
1
 62
7
 10
538.8930137582092
 20
-295.884686282155
 30
0
 11
538.8930137582092
 21
-286.384686282155
 31
0
  0
LINE
  8
1
 62
7
 10
538.8930137582092
 20
-286.384686282155
 30
0
 11
534.8930137582092
 21
-286.384686282155
 31
0
  0
LINE
  8
1
 62
7
 10
544.3930137582092
 20
-294.884686282155
 30
0
 11
548.3930137582092
 21
-294.884686282155
 31
0
  0
LINE
  8
1
 62
7
 10
544.3930137582092
 20
-286.384686282155
 30
0
 11
544.3930137582092
 21
-295.884686282155
 31
0
  0
LINE
  8
1
 62
7
 10
548.3930137582092
 20
-286.384686282155
 30
0
 11
544.3930137582092
 21
-286.384686282155
 31
0
  0
LINE
  8
1
 62
7
 10
555.8930137582092
 20
-294.884686282155
 30
0
 11
555.8930137582092
 21
-301.384686282155
 31
0
  0
LINE
  8
1
 62
7
 10
554.7430137582094
 20
-294.884686282155
 30
0
 11
555.8930137582092
 21
-294.884686282155
 31
0
  0
LINE
  8
1
 62
7
 10
548.3930137582092
 20
-285.884686282155
 30
0
 11
548.3930137582092
 21
-294.884686282155
 31
0
  0
LINE
  8
1
 62
7
 10
555.3930137582092
 20
-285.884686282155
 30
0
 11
552.3930137582095
 21
-285.884686282155
 31
0
  0
LINE
  8
1
 62
7
 10
555.3930137582092
 20
-285.884686282155
 30
0
 11
555.3930137582092
 21
-282.634686282155
 31
0
  0
LINE
  8
1
 62
7
 10
557.8930137582092
 20
-301.384686282155
 30
0
 11
557.8930137582092
 21
-282.634686282155
 31
0
  0
LINE
  8
1
 62
3
 10
531.3930137582092
 20
-296.404686282155
 30
0
 11
531.3930137582092
 21
-300.3646862821551
 31
0
  0
LINE
  8
1
 62
3
 10
529.4130137582092
 20
-298.384686282155
 30
0
 11
533.3730137582095
 21
-298.384686282155
 31
0
  0
LINE
  8
1
 62
7
 10
528.9930137582094
 20
-300.184686282155
 30
0
 11
528.9930137582094
 21
-296.584686282155
 31
0
  0
LINE
  8
1
 62
7
 10
533.7930137582093
 20
-300.184686282155
 30
0
 11
533.7930137582093
 21
-296.584686282155
 31
0
  0
LINE
  8
1
 62
7
 10
534.3930137582092
 20
-301.384686282155
 30
0
 11
534.3930137582092
 21
-295.384686282155
 31
0
  0
LINE
  8
1
 62
7
 10
528.3930137582092
 20
-294.884686282155
 30
0
 11
528.3930137582092
 21
-301.384686282155
 31
0
  0
LINE
  8
1
 62
7
 10
532.2930137582093
 20
-299.943532008967
 30
0
 11
534.3930137582092
 21
-299.943532008967
 31
0
  0
LINE
  8
1
 62
7
 10
530.4930137582094
 20
-299.943532008967
 30
0
 11
528.3930137582092
 21
-299.943532008967
 31
0
  0
LINE
  8
1
 62
7
 10
530.4930137582094
 20
-296.8258405553431
 30
0
 11
528.3930137582092
 21
-296.8258405553431
 31
0
  0
LINE
  8
1
 62
7
 10
532.2930137582093
 20
-296.8258405553431
 30
0
 11
534.3930137582092
 21
-296.8258405553431
 31
0
  0
LINE
  8
1
 62
3
 10
551.8930137582092
 20
-296.404686282155
 30
0
 11
551.8930137582092
 21
-300.3646862821551
 31
0
  0
LINE
  8
1
 62
3
 10
549.9130137582092
 20
-298.384686282155
 30
0
 11
553.8730137582095
 21
-298.384686282155
 31
0
  0
LINE
  8
1
 62
7
 10
549.4930137582094
 20
-300.184686282155
 30
0
 11
549.4930137582094
 21
-296.584686282155
 31
0
  0
LINE
  8
1
 62
7
 10
554.2930137582093
 20
-300.184686282155
 30
0
 11
554.2930137582093
 21
-296.584686282155
 31
0
  0
LINE
  8
1
 62
7
 10
548.8930137582092
 20
-295.384686282155
 30
0
 11
548.8930137582092
 21
-301.384686282155
 31
0
  0
LINE
  8
1
 62
7
 10
552.7930137582093
 20
-299.943532008967
 30
0
 11
554.8930137582092
 21
-299.943532008967
 31
0
  0
LINE
  8
1
 62
7
 10
550.9930137582094
 20
-299.943532008967
 30
0
 11
548.8930137582092
 21
-299.943532008967
 31
0
  0
LINE
  8
1
 62
7
 10
550.9930137582094
 20
-296.8258405553431
 30
0
 11
548.8930137582092
 21
-296.8258405553431
 31
0
  0
LINE
  8
1
 62
7
 10
552.7930137582093
 20
-296.8258405553431
 30
0
 11
554.8930137582092
 21
-296.8258405553431
 31
0
  0
LINE
  8
1
 62
7
 10
554.8930137582092
 20
-301.384686282155
 30
0
 11
554.8930137582092
 21
-294.884686282155
 31
0
  0
LINE
  8
1
 62
7
 10
534.3930137582092
 20
-298.384686282155
 30
0
 11
535.3930137582092
 21
-298.384686282155
 31
0
  0
LINE
  8
1
 62
7
 10
539.8930137582092
 20
-286.384686282155
 30
0
 11
539.8930137582092
 21
-295.884686282155
 31
0
  0
LINE
  8
1
 62
7
 10
543.3930137582092
 20
-286.384686282155
 30
0
 11
539.8930137582092
 21
-286.384686282155
 31
0
  0
LINE
  8
1
 62
7
 10
543.3930137582092
 20
-295.884686282155
 30
0
 11
543.3930137582092
 21
-286.384686282155
 31
0
  0
LINE
  8
1
 62
7
 10
543.3930137582092
 20
-295.884686282155
 30
0
 11
546.8930137582092
 21
-295.884686282155
 31
0
  0
LINE
  8
1
 62
7
 10
547.8930137582092
 20
-298.384686282155
 30
0
 11
548.8930137582092
 21
-298.384686282155
 31
0
  0
LINE
  8
1
 62
3
  6
DASHDOT
 10
561.8930137582095
 20
-296.0942517197715
 30
0
 11
561.8930137582095
 21
-311.034686282155
 31
0
  0
LINE
  8
1
 62
7
 10
563.5430137582093
 20
-303.384686282155
 30
0
 11
563.5430137582093
 21
-301.384686282155
 31
0
  0
LINE
  8
1
 62
7
 10
560.2430137582094
 20
-301.384686282155
 30
0
 11
560.2430137582094
 21
-303.384686282155
 31
0
  0
LINE
  8
1
 62
7
 10
527.3930137582092
 20
-301.384686282155
 30
0
 11
560.3930137582095
 21
-301.384686282155
 31
0
  0
LINE
  8
1
 62
3
  6
DASHDOT
 10
522.4534380355369
 20
-306.384686282155
 30
0
 11
568.6897362674285
 21
-306.384686282155
 31
0
  0
LINE
  8
1
 62
7
 10
554.8930137582092
 20
-297.384686282155
 30
0
 11
555.8930137582095
 21
-297.384686282155
 31
0
  0
LINE
  8
1
 62
7
 10
555.8930137582092
 20
-295.384686282155
 30
0
 11
557.8930137582092
 21
-295.384686282155
 31
0
  0
LINE
  8
1
 62
7
 10
527.3930137582092
 20
-297.384686282155
 30
0
 11
528.3930137582092
 21
-297.384686282155
 31
0
  0
LINE
  8
1
 62
7
 10
549.9930137582094
 20
-295.384686282155
 30
0
 11
549.9930137582094
 21
-286.4239167666963
 31
0
  0
LINE
  8
1
 62
7
 10
554.7430137582094
 20
-295.6647999331966
 30
0
 11
554.7430137582094
 21
-294.884686282155
 31
0
  0
LINE
  8
1
 62
7
 10
528.5430137582093
 20
-295.6647999331966
 30
0
 11
528.5430137582093
 21
-294.884686282155
 31
0
  0
LINE
  8
1
 62
7
 10
535.3930137582092
 20
-284.884686282155
 30
0
 11
535.3930137582092
 21
-282.884686282155
 31
0
  0
LINE
  8
1
 62
7
 10
529.3930137582092
 20
-284.884686282155
 30
0
 11
535.1430137582092
 21
-284.884686282155
 31
0
  0
LINE
  8
1
 62
7
 10
529.3930137582092
 20
-282.884686282155
 30
0
 11
529.3930137582092
 21
-284.884686282155
 31
0
  0
LINE
  8
1
 62
7
 10
533.2930137582093
 20
-286.4239167666963
 30
0
 11
533.2930137582093
 21
-295.384686282155
 31
0
  0
LINE
  8
1
 62
3
 10
530.8930137582092
 20
-293.884686282155
 30
0
 11
531.4930137582094
 21
-294.9239167666963
 31
0
  0
LINE
  8
1
 62
3
 10
533.8930137582092
 20
-293.884686282155
 30
0
 11
533.2930137582093
 21
-294.9239167666963
 31
0
  0
LINE
  8
1
 62
3
 10
530.8930137582092
 20
-293.884686282155
 30
0
 11
530.8930137582092
 21
-285.884686282155
 31
0
  0
LINE
  8
1
 62
3
 10
533.8930137582092
 20
-293.884686282155
 30
0
 11
530.8930137582092
 21
-293.884686282155
 31
0
  0
LINE
  8
1
 62
3
 10
533.8930137582092
 20
-285.884686282155
 30
0
 11
533.8930137582092
 21
-293.884686282155
 31
0
  0
LINE
  8
1
 62
3
 10
533.8930137582092
 20
-286.4239167666963
 30
0
 11
530.8930137582092
 21
-286.4239167666963
 31
0
  0
LINE
  8
1
 62
3
 10
531.4930137582094
 20
-286.4239167666963
 30
0
 11
530.8930137582092
 21
-285.384686282155
 31
0
  0
LINE
  8
1
 62
3
 10
533.2930137582093
 20
-286.4239167666963
 30
0
 11
533.8930137582092
 21
-285.384686282155
 31
0
  0
LINE
  8
1
 62
3
 10
533.2930137582093
 20
-292.884686282155
 30
0
 11
533.2930137582093
 21
-286.4239167666963
 31
0
  0
LINE
  8
1
 62
7
 10
533.8930137582092
 20
-292.2846862821551
 30
0
 11
530.8930137582092
 21
-292.2846862821551
 31
0
  0
LINE
  8
1
 62
7
 10
530.8930137582092
 20
-292.2846862821551
 30
0
 11
530.8930137582092
 21
-284.884686282155
 31
0
  0
LINE
  8
1
 62
7
 10
531.4930137582094
 20
-292.884686282155
 30
0
 11
530.8930137582092
 21
-292.2846862821551
 31
0
  0
LINE
  8
1
 62
7
 10
533.2930137582093
 20
-292.884686282155
 30
0
 11
531.4930137582094
 21
-292.884686282155
 31
0
  0
LINE
  8
1
 62
7
 10
533.8930137582092
 20
-292.2846862821551
 30
0
 11
533.2930137582093
 21
-292.884686282155
 31
0
  0
LINE
  8
1
 62
7
 10
533.8930137582092
 20
-284.884686282155
 30
0
 11
533.8930137582092
 21
-292.2846862821551
 31
0
  0
LINE
  8
1
 62
7
 10
530.7930137582093
 20
-284.884686282155
 30
0
 11
530.7930137582093
 21
-285.884686282155
 31
0
  0
LINE
  8
1
 62
7
 10
533.9930137582094
 20
-284.884686282155
 30
0
 11
533.9930137582094
 21
-285.884686282155
 31
0
  0
LINE
  8
1
 62
7
 10
531.4930137582094
 20
-295.384686282155
 30
0
 11
531.4930137582094
 21
-286.4239167666963
 31
0
  0
LINE
  8
1
 62
3
  6
DASHDOT
 10
532.3930137582092
 20
-281.2287064632353
 30
0
 11
532.3930137582092
 21
-295.8698977850299
 31
0
  0
LINE
  8
1
 62
7
 10
530.8930137582092
 20
-285.884686282155
 30
0
 11
527.8930137582092
 21
-285.884686282155
 31
0
  0
LINE
  8
1
 62
7
 10
555.3930137582092
 20
-282.634686282155
 30
0
 11
557.8930137582092
 21
-282.634686282155
 31
0
  0
LINE
  8
1
 62
7
 10
557.8930137582092
 20
-330.134686282155
 30
0
 11
555.3930137582092
 21
-330.134686282155
 31
0
  0
LINE
  8
1
 62
7
 10
539.8930137582092
 20
-316.884686282155
 30
0
 11
536.3930137582092
 21
-316.884686282155
 31
0
  0
LINE
  8
1
 62
7
 10
547.8930137582092
 20
-315.884686282155
 30
0
 11
546.8930137582092
 21
-316.884686282155
 31
0
  0
LINE
  8
1
 62
7
 10
535.3930137582092
 20
-315.884686282155
 30
0
 11
536.3930137582092
 21
-316.884686282155
 31
0
  0
LINE
  8
1
 62
7
 10
551.7930137582093
 20
-317.384686282155
 30
0
 11
551.7930137582093
 21
-326.3454557976137
 31
0
  0
LINE
  8
1
 62
3
 10
549.9930137582094
 20
-317.8454557976137
 30
0
 11
549.3930137582095
 21
-318.884686282155
 31
0
  0
LINE
  8
1
 62
3
 10
551.7930137582093
 20
-317.8454557976137
 30
0
 11
552.3930137582095
 21
-318.884686282155
 31
0
  0
LINE
  8
1
 62
3
 10
549.3930137582095
 20
-326.884686282155
 30
0
 11
549.3930137582095
 21
-318.884686282155
 31
0
  0
LINE
  8
1
 62
3
 10
549.3930137582095
 20
-318.884686282155
 30
0
 11
552.3930137582095
 21
-318.884686282155
 31
0
  0
LINE
  8
1
 62
3
 10
552.3930137582095
 20
-318.884686282155
 30
0
 11
552.3930137582095
 21
-326.884686282155
 31
0
  0
LINE
  8
1
 62
7
 10
527.8930137582092
 20
-326.884686282155
 30
0
 11
549.3930137582095
 21
-326.884686282155
 31
0
  0
LINE
  8
1
 62
3
  6
DASHDOT
 10
550.8930137582095
 20
-316.8994747792801
 30
0
 11
550.8930137582095
 21
-331.5406661010748
 31
0
  0
LINE
  8
1
 62
3
 10
549.3930137582095
 20
-326.3454557976137
 30
0
 11
552.3930137582095
 21
-326.3454557976137
 31
0
  0
LINE
  8
1
 62
3
 10
549.3930137582095
 20
-327.384686282155
 30
0
 11
549.9930137582094
 21
-326.3454557976137
 31
0
  0
LINE
  8
1
 62
3
 10
552.3930137582095
 20
-327.384686282155
 30
0
 11
551.7930137582093
 21
-326.3454557976137
 31
0
  0
LINE
  8
1
 62
3
 10
551.7930137582093
 20
-326.3454557976137
 30
0
 11
551.7930137582093
 21
-319.884686282155
 31
0
  0
LINE
  8
1
 62
7
 10
549.3930137582095
 20
-320.4846862821551
 30
0
 11
552.3930137582095
 21
-320.4846862821551
 31
0
  0
LINE
  8
1
 62
7
 10
549.3930137582095
 20
-327.884686282155
 30
0
 11
549.3930137582095
 21
-320.4846862821551
 31
0
  0
LINE
  8
1
 62
7
 10
549.3930137582095
 20
-320.4846862821551
 30
0
 11
549.9930137582094
 21
-319.884686282155
 31
0
  0
LINE
  8
1
 62
7
 10
549.9930137582094
 20
-319.884686282155
 30
0
 11
551.7930137582093
 21
-319.884686282155
 31
0
  0
LINE
  8
1
 62
7
 10
551.7930137582093
 20
-319.884686282155
 30
0
 11
552.3930137582095
 21
-320.4846862821551
 31
0
  0
LINE
  8
1
 62
7
 10
552.3930137582095
 20
-320.4846862821551
 30
0
 11
552.3930137582095
 21
-327.884686282155
 31
0
  0
LINE
  8
1
 62
7
 10
549.1930137582094
 20
-326.884686282155
 30
0
 11
549.1930137582094
 21
-327.884686282155
 31
0
  0
LINE
  8
1
 62
7
 10
552.5930137582095
 20
-326.884686282155
 30
0
 11
552.5930137582095
 21
-327.884686282155
 31
0
  0
LINE
  8
1
 62
7
 10
553.8930137582095
 20
-329.884686282155
 30
0
 11
553.8930137582095
 21
-327.884686282155
 31
0
  0
LINE
  8
1
 62
7
 10
553.8930137582095
 20
-327.884686282155
 30
0
 11
547.8930137582095
 21
-327.884686282155
 31
0
  0
LINE
  8
1
 62
7
 10
547.8930137582095
 20
-327.884686282155
 30
0
 11
547.8930137582095
 21
-329.884686282155
 31
0
  0
LINE
  8
1
 62
7
 10
528.5430137582093
 20
-317.884686282155
 30
0
 11
527.3930137582092
 21
-317.884686282155
 31
0
  0
LINE
  8
1
 62
7
 10
527.8930137582092
 20
-329.884686282155
 30
0
 11
527.8930137582092
 21
-326.884686282155
 31
0
  0
LINE
  8
1
 62
7
 10
538.8930137582092
 20
-317.884686282155
 30
0
 11
534.8930137582092
 21
-317.884686282155
 31
0
  0
LINE
  8
1
 62
7
 10
538.8930137582092
 20
-326.384686282155
 30
0
 11
538.8930137582092
 21
-316.884686282155
 31
0
  0
LINE
  8
1
 62
7
 10
534.8930137582092
 20
-326.384686282155
 30
0
 11
538.8930137582092
 21
-326.384686282155
 31
0
  0
LINE
  8
1
 62
7
 10
534.8930137582092
 20
-326.884686282155
 30
0
 11
534.8930137582092
 21
-317.884686282155
 31
0
  0
LINE
  8
1
 62
7
 10
548.3930137582092
 20
-317.884686282155
 30
0
 11
544.3930137582092
 21
-317.884686282155
 31
0
  0
LINE
  8
1
 62
7
 10
544.3930137582092
 20
-316.884686282155
 30
0
 11
544.3930137582092
 21
-326.384686282155
 31
0
  0
LINE
  8
1
 62
7
 10
544.3930137582092
 20
-326.384686282155
 30
0
 11
548.3930137582092
 21
-326.384686282155
 31
0
  0
LINE
  8
1
 62
7
 10
555.8930137582095
 20
-311.384686282155
 30
0
 11
555.8930137582092
 21
-317.884686282155
 31
0
  0
LINE
  8
1
 62
7
 10
555.8930137582092
 20
-317.884686282155
 30
0
 11
554.7430137582094
 21
-317.884686282155
 31
0
  0
LINE
  8
1
 62
7
 10
554.8930137582092
 20
-317.884686282155
 30
0
 11
554.8930137582092
 21
-311.384686282155
 31
0
  0
LINE
  8
1
 62
7
 10
552.3930137582095
 20
-326.884686282155
 30
0
 11
555.3930137582092
 21
-326.884686282155
 31
0
  0
LINE
  8
1
 62
7
 10
555.3930137582092
 20
-330.134686282155
 30
0
 11
555.3930137582092
 21
-326.884686282155
 31
0
  0
LINE
  8
1
 62
3
 10
531.3930137582092
 20
-312.404686282155
 30
0
 11
531.3930137582092
 21
-316.3646862821551
 31
0
  0
LINE
  8
1
 62
3
 10
533.3730137582095
 20
-314.384686282155
 30
0
 11
529.4130137582092
 21
-314.384686282155
 31
0
  0
LINE
  8
1
 62
7
 10
528.9930137582094
 20
-316.184686282155
 30
0
 11
528.9930137582094
 21
-312.584686282155
 31
0
  0
LINE
  8
1
 62
7
 10
533.7930137582093
 20
-316.184686282155
 30
0
 11
533.7930137582093
 21
-312.584686282155
 31
0
  0
LINE
  8
1
 62
7
 10
534.3930137582092
 20
-317.384686282155
 30
0
 11
534.3930137582092
 21
-311.384686282155
 31
0
  0
LINE
  8
1
 62
7
 10
528.5430137582093
 20
-317.384686282155
 30
0
 11
535.3930137582092
 21
-317.384686282155
 31
0
  0
LINE
  8
1
 62
7
 10
528.3930137582092
 20
-311.384686282155
 30
0
 11
528.3930137582092
 21
-317.884686282155
 31
0
  0
LINE
  8
1
 62
7
 10
534.3930137582092
 20
-312.8258405553431
 30
0
 11
532.2930137582093
 21
-312.8258405553431
 31
0
  0
LINE
  8
1
 62
7
 10
528.3930137582092
 20
-312.8258405553431
 30
0
 11
530.4930137582094
 21
-312.8258405553431
 31
0
  0
LINE
  8
1
 62
7
 10
528.3930137582092
 20
-315.943532008967
 30
0
 11
530.4930137582094
 21
-315.943532008967
 31
0
  0
LINE
  8
1
 62
7
 10
534.3930137582092
 20
-315.943532008967
 30
0
 11
532.2930137582093
 21
-315.943532008967
 31
0
  0
LINE
  8
1
 62
3
 10
551.8930137582092
 20
-312.404686282155
 30
0
 11
551.8930137582092
 21
-316.3646862821551
 31
0
  0
LINE
  8
1
 62
3
 10
553.8730137582095
 20
-314.384686282155
 30
0
 11
549.9130137582092
 21
-314.384686282155
 31
0
  0
LINE
  8
1
 62
7
 10
549.4930137582094
 20
-316.184686282155
 30
0
 11
549.4930137582094
 21
-312.584686282155
 31
0
  0
LINE
  8
1
 62
7
 10
554.2930137582093
 20
-316.184686282155
 30
0
 11
554.2930137582093
 21
-312.584686282155
 31
0
  0
LINE
  8
1
 62
7
 10
554.8930137582092
 20
-312.8258405553431
 30
0
 11
552.7930137582093
 21
-312.8258405553431
 31
0
  0
LINE
  8
1
 62
7
 10
548.8930137582092
 20
-312.8258405553431
 30
0
 11
550.9930137582094
 21
-312.8258405553431
 31
0
  0
LINE
  8
1
 62
7
 10
548.8930137582092
 20
-315.943532008967
 30
0
 11
550.9930137582094
 21
-315.943532008967
 31
0
  0
LINE
  8
1
 62
7
 10
535.3930137582092
 20
-314.384686282155
 30
0
 11
534.3930137582092
 21
-314.384686282155
 31
0
  0
LINE
  8
1
 62
7
 10
539.8930137582092
 20
-316.884686282155
 30
0
 11
539.8930137582092
 21
-326.384686282155
 31
0
  0
LINE
  8
1
 62
7
 10
539.8930137582092
 20
-326.384686282155
 30
0
 11
543.3930137582092
 21
-326.384686282155
 31
0
  0
LINE
  8
1
 62
7
 10
543.3930137582092
 20
-326.384686282155
 30
0
 11
543.3930137582092
 21
-316.884686282155
 31
0
  0
LINE
  8
1
 62
7
 10
546.8930137582092
 20
-316.884686282155
 30
0
 11
543.3930137582092
 21
-316.884686282155
 31
0
  0
LINE
  8
1
 62
7
 10
548.8930137582092
 20
-314.384686282155
 30
0
 11
547.8930137582092
 21
-314.384686282155
 31
0
  0
LINE
  8
1
 62
7
 10
555.8930137582092
 20
-315.384686282155
 30
0
 11
554.8930137582092
 21
-315.384686282155
 31
0
  0
LINE
  8
1
 62
7
 10
528.3930137582092
 20
-315.384686282155
 30
0
 11
527.3930137582092
 21
-315.384686282155
 31
0
  0
LINE
  8
1
 62
7
 10
549.9930137582094
 20
-326.3454557976137
 30
0
 11
549.9930137582094
 21
-317.384686282155
 31
0
  0
LINE
  8
1
 62
7
 10
554.7430137582094
 20
-317.884686282155
 30
0
 11
554.7430137582094
 21
-317.1045726311135
 31
0
  0
LINE
  8
1
 62
7
 10
547.8930137582092
 20
-317.384686282155
 30
0
 11
554.7430137582094
 21
-317.384686282155
 31
0
  0
LINE
  8
1
 62
7
 10
528.5430137582093
 20
-317.884686282155
 30
0
 11
528.5430137582093
 21
-317.1045726311135
 31
0
  0
LINE
  8
1
 62
7
 10
564.8930137582095
 20
-309.384686282155
 30
0
 11
527.3930137582092
 21
-309.384686282155
 31
0
  0
LINE
  8
1
 62
7
 10
564.8930137582095
 20
-311.384686282155
 30
0
 11
527.3930137582092
 21
-311.384686282155
 31
0
  0
LINE
  8
1
 62
7
 10
527.3930137582092
 20
-317.384686282155
 30
0
 11
525.3930137582092
 21
-317.384686282155
 31
0
  0
LINE
  8
1
 62
7
 10
557.8930137582092
 20
-317.384686282155
 30
0
 11
555.8930137582092
 21
-317.384686282155
 31
0
  0
LINE
  8
1
 62
7
 10
555.2930137582093
 20
-282.884686282155
 30
0
 11
555.2930137582093
 21
-285.884686282155
 31
0
  0
LINE
  8
1
 62
7
 10
555.2930137582093
 20
-282.884686282155
 30
0
 11
553.696766460137
 21
-282.884686282155
 31
0
  0
LINE
  8
1
 62
7
 10
555.2930137582093
 20
-326.884686282155
 30
0
 11
555.2930137582093
 21
-329.884686282155
 31
0
  0
LINE
  8
1
 62
7
 10
547.8930137582092
 20
-294.884686282155
 30
0
 11
547.8930137582092
 21
-298.384686282155
 31
0
  0
LINE
  8
1
 62
7
 10
547.8930137582092
 20
-295.384686282155
 30
0
 11
554.7430137582094
 21
-295.384686282155
 31
0
  0
LINE
  8
1
 62
7
 10
548.3930137582092
 20
-317.884686282155
 30
0
 11
548.3930137582092
 21
-326.884686282155
 31
0
  0
LINE
  8
1
 62
7
 10
547.8930137582092
 20
-317.884686282155
 30
0
 11
547.8930137582092
 21
-314.384686282155
 31
0
  0
LINE
  8
1
 62
7
 10
535.3930137582092
 20
-317.884686282155
 30
0
 11
535.3930137582092
 21
-314.384686282155
 31
0
  0
LINE
  8
1
 62
7
 10
535.3930137582092
 20
-294.884686282155
 30
0
 11
535.3930137582092
 21
-298.384686282155
 31
0
  0
LINE
  8
1
 62
7
 10
534.8930137582092
 20
-294.884686282155
 30
0
 11
534.8930137582092
 21
-285.884686282155
 31
0
  0
LINE
  8
1
 62
7
 10
528.5430137582093
 20
-295.384686282155
 30
0
 11
535.3930137582092
 21
-295.384686282155
 31
0
  0
LINE
  8
1
 62
7
 10
548.1430137582095
 20
-284.884686282155
 30
0
 11
548.1430137582095
 21
-282.084686282155
 31
0
  0
LINE
  8
1
 62
7
 10
548.1430137582095
 20
-282.084686282155
 30
0
 11
548.4894239197231
 21
-281.884686282155
 31
0
  0
LINE
  8
1
 62
7
 10
548.4894239197231
 20
-281.884686282155
 30
0
 11
553.2966035966956
 21
-281.884686282155
 31
0
  0
LINE
  8
1
 62
7
 10
553.2966035966956
 20
-281.884686282155
 30
0
 11
553.6430137582095
 21
-282.084686282155
 31
0
  0
LINE
  8
1
 62
7
 10
548.1430137582095
 20
-282.084686282155
 30
0
 11
553.6430137582095
 21
-282.084686282155
 31
0
  0
LINE
  8
1
 62
7
 10
553.6430137582095
 20
-282.084686282155
 30
0
 11
553.6430137582095
 21
-284.884686282155
 31
0
  0
LINE
  8
1
 62
7
 10
548.1430137582095
 20
-282.884686282155
 30
0
 11
534.1002159046777
 21
-282.884686282155
 31
0
  0
LINE
  8
1
 62
7
 10
553.2966035966956
 20
-330.8846862821551
 30
0
 11
548.4894239197231
 21
-330.8846862821551
 31
0
  0
LINE
  8
1
 62
7
 10
553.6430137582095
 20
-330.6846862821551
 30
0
 11
553.2966035966956
 21
-330.8846862821551
 31
0
  0
LINE
  8
1
 62
7
 10
553.6430137582095
 20
-330.6846862821551
 30
0
 11
548.1430137582095
 21
-330.6846862821551
 31
0
  0
LINE
  8
1
 62
7
 10
548.1430137582095
 20
-330.6846862821551
 30
0
 11
548.1430137582095
 21
-327.8846862821551
 31
0
  0
LINE
  8
1
 62
7
 10
553.6430137582095
 20
-327.884686282155
 30
0
 11
553.6430137582095
 21
-330.6846862821551
 31
0
  0
LINE
  8
1
 62
7
 10
553.6430137582095
 20
-329.884686282155
 30
0
 11
555.2930137582093
 21
-329.884686282155
 31
0
  0
LINE
  8
1
 62
7
 10
548.4894239197231
 20
-330.8846862821551
 30
0
 11
548.1430137582095
 21
-330.6846862821551
 31
0
  0
LINE
  8
1
 62
3
  6
DASHED
 10
634.3430137582093
 20
-284.884686282155
 30
0
 11
634.3430137582093
 21
-282.794434057984
 31
0
  0
LINE
  8
1
 62
7
 10
634.3430137582093
 20
-282.084686282155
 30
0
 11
634.6894239197231
 21
-281.884686282155
 31
0
  0
LINE
  8
1
 62
7
 10
634.6894239197231
 20
-281.884686282155
 30
0
 11
639.4966035966957
 21
-281.884686282155
 31
0
  0
LINE
  8
1
 62
7
 10
639.4966035966957
 20
-281.884686282155
 30
0
 11
639.8430137582093
 21
-282.084686282155
 31
0
  0
LINE
  8
1
 62
7
 10
634.3430137582093
 20
-282.084686282155
 30
0
 11
639.8430137582093
 21
-282.084686282155
 31
0
  0
LINE
  8
1
 62
7
 10
639.8430137582093
 20
-282.084686282155
 30
0
 11
639.8430137582093
 21
-282.794434057984
 31
0
  0
LINE
  8
1
 62
3
  6
DASHED
 10
634.3430137582093
 20
-284.884686282155
 30
0
 11
639.8430137582093
 21
-284.884686282155
 31
0
  0
LINE
  8
1
 62
3
  6
DASHED
 10
635.5930137582093
 20
-330.034686282155
 30
0
 11
638.5930137582093
 21
-330.0346862821551
 31
0
  0
LINE
  8
1
 62
7
 10
634.6894239197231
 20
-330.8846862821551
 30
0
 11
634.3430137582093
 21
-330.684686282155
 31
0
  0
LINE
  8
1
 62
7
 10
639.8430137582093
 20
-330.684686282155
 30
0
 11
639.4966035966957
 21
-330.8846862821551
 31
0
  0
LINE
  8
1
 62
7
 10
639.8430137582093
 20
-330.684686282155
 30
0
 11
634.3430137582093
 21
-330.684686282155
 31
0
  0
LINE
  8
1
 62
7
 10
639.8430137582093
 20
-330.684686282155
 30
0
 11
639.4966035966957
 21
-330.8846862821551
 31
0
  0
LINE
  8
1
 62
7
 10
639.8430137582093
 20
-330.684686282155
 30
0
 11
634.3430137582093
 21
-330.684686282155
 31
0
  0
LINE
  8
1
 62
3
  6
DASHED
 10
640.4069672465814
 20
-329.9023437394127
 30
0
 11
640.0930137582093
 21
-327.6743551381988
 31
0
  0
LINE
  8
1
 62
3
  6
DASHED
 10
635.5930137582093
 20
-330.034686282155
 30
0
 11
638.5930137582093
 21
-330.0346862821551
 31
0
  0
LINE
  8
1
 62
7
 10
634.6894239197231
 20
-330.8846862821551
 30
0
 11
634.3430137582093
 21
-330.684686282155
 31
0
  0
LINE
  8
1
 62
7
 10
639.4966035966957
 20
-330.8846862821551
 30
0
 11
634.6894239197231
 21
-330.8846862821551
 31
0
  0
LINE
  8
1
 62
7
 10
639.8430137582093
 20
-330.684686282155
 30
0
 11
639.4966035966957
 21
-330.8846862821551
 31
0
  0
LINE
  8
1
 62
7
 10
639.8430137582093
 20
-330.684686282155
 30
0
 11
634.3430137582093
 21
-330.684686282155
 31
0
  0
LINE
  8
1
 62
7
 10
639.8430137582093
 20
-330.684686282155
 30
0
 11
639.4966035966957
 21
-330.8846862821551
 31
0
  0
LINE
  8
1
 62
7
 10
639.8430137582093
 20
-330.684686282155
 30
0
 11
634.3430137582093
 21
-330.684686282155
 31
0
  0
LINE
  8
1
 62
3
  6
DASHED
 10
639.8430137582093
 20
-327.8846862821551
 30
0
 11
639.8430137582093
 21
-329.9749385063259
 31
0
  0
LINE
  8
1
 62
7
 10
634.3430137582093
 20
-330.684686282155
 30
0
 11
634.3430137582093
 21
-329.9749385063259
 31
0
  0
LINE
  8
1
 62
3
  6
DASHED
 10
639.8430137582093
 20
-327.8846862821551
 30
0
 11
634.3430137582093
 21
-327.8846862821551
 31
0
  0
LINE
  8
1
 62
3
  6
DASHDOT
 10
711.3688482826354
 20
-309.1777337643803
 30
0
 11
711.3688482826354
 21
-303.7805290476803
 31
0
  0
LINE
  8
1
 62
7
 10
715.3688482826354
 20
-311.38486856302
 30
0
 11
714.3688482826354
 21
-311.38486856302
 31
0
  0
LINE
  8
1
 62
7
 10
714.3688482826354
 20
-301.3849229907735
 30
0
 11
715.3688482826354
 21
-301.3849229907735
 31
0
  0
LINE
  8
1
 62
7
 10
708.3688482826354
 20
-315.3849229907735
 30
0
 11
708.3688482826354
 21
-297.3849229907735
 31
0
  0
LINE
  8
1
 62
7
 10
708.3688482826354
 20
-297.3849229907735
 30
0
 11
714.3688482826354
 21
-297.3849229907735
 31
0
  0
LINE
  8
1
 62
7
 10
714.3688482826354
 20
-297.3849229907735
 30
0
 11
714.3688482826354
 21
-311.38486856302
 31
0
  0
LINE
  8
1
 62
7
 10
714.3688482826354
 20
-315.3849229907735
 30
0
 11
708.3688482826354
 21
-315.3849229907735
 31
0
  0
LINE
  8
1
 62
7
 10
714.3688482826354
 20
-311.3849229907735
 30
0
 11
714.3688482826354
 21
-315.3849229907735
 31
0
  0
LINE
  8
1
 62
7
 10
720.8688482826354
 20
-306.3845588005185
 30
0
 11
718.8688482826354
 21
-306.3845588005185
 31
0
  0
LINE
  8
1
 62
7
 10
718.8688482826354
 20
-301.3845588005185
 30
0
 11
724.8688482826354
 21
-301.3845588005185
 31
0
  0
LINE
  8
1
 62
7
 10
718.8688482826354
 20
-329.2814424707231
 30
0
 11
718.8688482826354
 21
-301.3845588005185
 31
0
  0
LINE
  8
1
 62
7
 10
724.8688482826354
 20
-329.2814424707231
 30
0
 11
718.8688482826354
 21
-329.2814424707231
 31
0
  0
LINE
  8
1
 62
7
 10
724.8688482826354
 20
-301.3845588005185
 30
0
 11
724.8688482826354
 21
-329.2814424707231
 31
0
  0
LINE
  8
1
 62
3
  6
DASHDOT
 10
704.3688482826354
 20
-306.3850355191007
 30
0
 11
708.3688482826354
 21
-306.3849833256021
 31
0
  0
LINE
  8
1
 62
7
 10
715.3688482826357
 20
-282.6350355191006
 30
0
 11
715.3688482826354
 21
-330.1350355191006
 31
0
  0
LINE
  8
1
 62
7
 10
715.3688482826354
 20
-330.1350355191006
 30
0
 11
717.8688482826354
 21
-330.1350355191006
 31
0
  0
LINE
  8
1
 62
7
 10
717.8688482826354
 20
-330.1350355191006
 30
0
 11
717.8688482826357
 21
-282.6350355191006
 31
0
  0
LINE
  8
1
 62
7
 10
717.8688482826357
 20
-282.6350355191006
 30
0
 11
715.3688482826357
 21
-282.6350355191006
 31
0
  0
LINE
  8
1
 62
7
 10
747.8688482826364
 20
-329.8844253175539
 30
0
 11
717.9688482826356
 21
-329.8850334850959
 31
0
  0
LINE
  8
1
 62
7
 10
747.8688482826357
 20
-282.8844253175544
 30
0
 11
747.8688482826364
 21
-329.8844253175539
 31
0
  0
LINE
  8
1
 62
7
 10
745.3688482826357
 20
-282.8844761676833
 30
0
 11
745.3688482826357
 21
-329.8844761676829
 31
0
  0
LINE
  8
1
 62
7
 10
715.3688482826354
 20
-305.884891986937
 30
0
 11
717.8688482826354
 21
-305.884891986937
 31
0
  0
LINE
  8
1
 62
7
 10
717.8688482826354
 20
-306.8848593660856
 30
0
 11
715.3688482826354
 21
-306.8848593660856
 31
0
  0
LINE
  8
1
 62
7
 10
720.6688482826356
 20
-285.8844761676833
 30
0
 11
724.0688482826355
 21
-285.8844761676833
 31
0
  0
LINE
  8
1
 62
7
 10
719.3688482826354
 20
-294.5891823029525
 30
0
 11
719.3688482826354
 21
-282.8844761676833
 31
0
  0
LINE
  8
1
 62
7
 10
719.3688482826354
 20
-284.8844761676833
 30
0
 11
725.3688482826354
 21
-284.8844761676833
 31
0
  0
LINE
  8
1
 62
7
 10
725.3688482826354
 20
-294.5891823029525
 30
0
 11
725.3688482826354
 21
-282.8844761676833
 31
0
  0
LINE
  8
1
 62
3
  6
DASHDOT
 10
722.3688482826354
 20
-299.3169600925248
 30
0
 11
722.3688482826354
 21
-281.5258988836465
 31
0
  0
LINE
  8
1
 62
7
 10
724.0688482826355
 20
-295.4403766944217
 30
0
 11
724.0688482826355
 21
-284.8844761676833
 31
0
  0
LINE
  8
1
 62
7
 10
720.6688482826356
 20
-295.4403766944217
 30
0
 11
720.6688482826356
 21
-284.8844761676833
 31
0
  0
LINE
  8
1
 62
7
 10
720.8688482826354
 20
-285.8844761676833
 30
0
 11
720.8688482826354
 21
-284.8844761676833
 31
0
  0
LINE
  8
1
 62
3
 10
721.1575234172302
 20
-285.8844761676833
 30
0
 11
720.8688482826354
 21
-285.3844761676833
 31
0
  0
LINE
  8
1
 62
3
 10
723.5801731480407
 20
-285.8844761676833
 30
0
 11
723.8688482826354
 21
-285.3844761676833
 31
0
  0
LINE
  8
1
 62
7
 10
723.8688482826354
 20
-285.8844761676833
 30
0
 11
723.8688482826354
 21
-284.8844761676833
 31
0
  0
LINE
  8
1
 62
7
 10
718.8688482826354
 20
-310.5091797386904
 30
0
 11
720.8688482826354
 21
-310.5091797386904
 31
0
  0
LINE
  8
1
 62
7
 10
718.8688482826354
 20
-314.5080139230854
 30
0
 11
720.8688482826354
 21
-314.5080139230854
 31
0
  0
LINE
  8
1
 62
7
 10
718.8688482826354
 20
-318.2600355191008
 30
0
 11
720.8688482826354
 21
-318.2600355191008
 31
0
  0
LINE
  8
1
 62
7
 10
718.8688482826354
 20
-321.651241249156
 30
0
 11
720.8688482826354
 21
-321.651241249156
 31
0
  0
LINE
  8
1
 62
7
 10
718.8688482826354
 20
-324.5785910431765
 30
0
 11
720.8688482826354
 21
-324.5785910431765
 31
0
  0
LINE
  8
1
 62
7
 10
718.8688482826354
 20
-326.9531388589812
 30
0
 11
720.8688482826354
 21
-326.9531388589812
 31
0
  0
LINE
  8
1
 62
7
 10
740.8688332169799
 20
-305.229858715145
 30
0
 11
740.8687978103116
 21
-305.2298791578104
 31
0
  0
LINE
  8
1
 62
7
 10
739.868840750435
 20
-305.807222032465
 30
0
 11
739.8688558171749
 21
-306.961922570746
 31
0
  0
LINE
  8
1
 62
7
 10
739.8688558171749
 20
-306.961922570746
 30
0
 11
740.8687978103116
 21
-307.5392219532251
 31
0
  0
LINE
  8
1
 62
7
 10
740.8688633504597
 20
-307.539259791707
 30
0
 11
741.8688558170046
 21
-306.961896474387
 31
0
  0
LINE
  8
1
 62
7
 10
741.8688558170046
 20
-306.961896474387
 30
0
 11
741.8688407502647
 21
-305.807195936106
 31
0
  0
LINE
  8
1
 62
7
 10
741.8688407502647
 20
-305.807195936106
 30
0
 11
740.8688332169799
 21
-305.229858715145
 31
0
  0
LINE
  8
1
 62
3
  6
DASHDOT
 10
740.8687978103116
 20
-302.5163255163523
 30
0
 11
740.8687978103116
 21
-310.1690325743507
 31
0
  0
LINE
  8
1
 62
7
 10
717.9688482826356
 20
-282.8850334850956
 30
0
 11
719.6188482826354
 21
-282.8849999240106
 31
0
  0
LINE
  8
1
 62
7
 10
717.9688482826356
 20
-282.8850334850956
 30
0
 11
717.9688482826356
 21
-329.8850334850959
 31
0
  0
LINE
  8
1
 62
7
 10
717.8688482826357
 20
-285.8850355191008
 30
0
 11
717.9688482826356
 21
-285.8850355191008
 31
0
  0
LINE
  8
1
 62
7
 10
717.8688482826354
 20
-326.8850355191008
 30
0
 11
717.9688482826356
 21
-326.8850355191008
 31
0
  0
LINE
  8
1
 62
7
 10
634.3430137582093
 20
-282.794434057984
 30
0
 11
634.3430137582093
 21
-282.084686282155
 31
0
  0
LINE
  8
1
 62
3
  6
DASHED
 10
639.8430137582093
 20
-282.794434057984
 30
0
 11
639.8430137582093
 21
-284.884686282155
 31
0
  0
LINE
  8
1
 62
3
  6
DASHED
 10
634.3430137582093
 20
-329.9749385063259
 30
0
 11
634.3430137582093
 21
-327.8846862821551
 31
0
  0
LINE
  8
1
 62
7
 10
639.8430137582093
 20
-329.9749385063259
 30
0
 11
639.8430137582093
 21
-330.684686282155
 31
0
  0
LINE
  8
1
 62
7
 10
548.8930137582092
 20
-317.384686282155
 30
0
 11
548.8930137582092
 21
-311.384686282155
 31
0
  0
LINE
  8
1
 62
7
 10
560.9930137582094
 20
-303.384686282155
 30
0
 11
562.7930137582093
 21
-303.384686282155
 31
0
  0
LINE
  8
1
 62
3
  6
DASHDOT
 10
714.3688482826354
 20
-306.3849050353542
 30
0
 11
724.8688482826354
 21
-306.3847680274204
 31
0
  0
LINE
  8
1
 62
3
  6
DASHDOT
 10
738.1188482839539
 20
-306.3845951364563
 30
0
 11
743.6188482834857
 21
-306.3845233703957
 31
0
  0
LINE
  8
1
 62
3
  6
DASHDOT
 10
709.8688482831892
 20
-306.3849637526992
 30
0
 11
712.8688482826346
 21
-306.3849246082571
 31
0
  0
LINE
  8
1
 62
3
  6
DASHDOT
 10
712.8688482826346
 20
-306.3849246082571
 30
0
 11
714.3688482826354
 21
-306.3849050353542
 31
0
  0
LINE
  8
1
 62
3
  6
DASHDOT
 10
737.8688482851258
 20
-306.3845983979645
 30
0
 11
738.1188482839539
 21
-306.3845951364563
 31
0
  0
LINE
  8
1
 62
3
  6
DASHDOT
 10
743.8688482823138
 20
-306.3845201088876
 30
0
 11
745.3688482826357
 21
-306.3845005357401
 31
0
  0
LINE
  8
1
 62
3
  6
DASHDOT
 10
743.6188482834857
 20
-306.3845233703957
 30
0
 11
743.8688482823138
 21
-306.3845201088876
 31
0
  0
LINE
  8
1
 62
3
  6
DASHDOT
 10
708.3688482826354
 20
-306.3849833256021
 30
0
 11
709.8688482831892
 21
-306.3849637526992
 31
0
  0
LINE
  8
1
 62
3
  6
DASHDOT
 10
724.8688482826354
 20
-306.3847680274204
 30
0
 11
737.8688482851258
 21
-306.3845983979645
 31
0
  0
LINE
  8
1
 62
3
  6
DASHDOT
 10
745.3688482826357
 20
-306.3845005357401
 30
0
 11
751.1334118957653
 21
-306.3844253175544
 31
0
  0
LINE
  8
1
 62
7
 10
740.8687978103116
 20
-305.2298791578104
 30
0
 11
739.868840750435
 21
-305.807222032465
 31
0
  0
LINE
  8
1
 62
7
 10
740.8687978103116
 20
-307.5392219532251
 30
0
 11
740.8688633504597
 21
-307.539259791707
 31
0
  0
ARC
  8
1
 62
7
 10
532.5470123232503
 20
-285.2375424000416
 30
0
 40
3.00000000000007
 50
123.4585005244431
 51
165.4661438916049
  0
ARC
  8
1
 62
7
 10
532.2390151931681
 20
-285.2375424000416
 30
0
 40
3.000000000000003
 50
14.53385610839515
 51
56.54149947555691
  0
ARC
  8
1
 62
7
 10
532.5470123232503
 20
-285.2375424000416
 30
0
 40
3.00000000000007
 50
123.4585005244431
 51
165.4661438916049
  0
ARC
  8
1
 62
7
 10
637.0930137582093
 20
-306.384686282155
 30
0
 40
23.75000000000009
 50
1.206316057529538
 51
358.7936839424705
  0
ARC
  8
1
 62
3
  6
DASHED
 10
637.0930137582093
 20
-306.384686282155
 30
0
 40
21.50000000000001
 50
201.9790671247557
 51
278.0209328752445
  0
ARC
  8
1
 62
3
  6
DASHED
 10
637.0930137582093
 20
-306.384686282155
 30
0
 40
21.49999999999999
 50
21.97906712475554
 51
98.02093287524458
  0
ARC
  8
1
 62
7
 10
628.880052409243
 20
-315.1227499411036
 30
0
 40
6.718903624008734
 50
341.7143921987577
 51
358.8331482335906
  0
ARC
  8
1
 62
7
 10
633.8256226999185
 20
-315.4560832744369
 30
0
 40
1.000000000000069
 50
117.9404367520117
 51
22.44293337505876
  0
ARC
  8
1
 62
7
 10
640.3604048165003
 20
-315.4560832744369
 30
0
 40
1.000000000000062
 50
157.5570666249462
 51
62.05956324799978
  0
ARC
  8
1
 62
7
 10
640.0270714831668
 20
-316.5556984104736
 30
0
 40
2.872948469370049
 50
49.63911261877478
 51
56.35590229487734
  0
ARC
  8
1
 62
7
 10
645.3059751071755
 20
-315.1227499411036
 30
0
 40
6.71890362400846
 50
181.1668517664094
 51
198.2856078012423
  0
ARC
  8
1
 62
7
 10
637.0930137582093
 20
-307.072186282155
 30
0
 40
9.687500000000103
 50
311.2647618018654
 51
228.7352381981357
  0
ARC
  8
1
 62
7
 10
634.1589560332518
 20
-316.5556984104736
 30
0
 40
2.872948469369943
 50
123.6440977051189
 51
130.3608873812252
  0
ARC
  8
1
 62
7
 10
722.3688482826354
 20
-295.4403766944217
 30
0
 40
1.699999999999818
 50
180
 51
0
  0
ARC
  8
1
 62
7
 10
722.3688482826354
 20
-294.5891823029525
 30
0
 40
3
 50
180
 51
0
  0
CIRCLE
  8
1
 62
3
 10
645.0930137582093
 20
-320.241092742706
 30
0
 40
1.50000000000011
  0
CIRCLE
  8
1
 62
7
 10
645.0930137582093
 20
-320.241092742706
 30
0
 40
0.9000000000001327
  0
CIRCLE
  8
1
 62
7
 10
531.3930137582092
 20
-314.384686282155
 30
0
 40
1.799999999999961
  0
CIRCLE
  8
1
 62
7
 10
551.8930137582092
 20
-314.384686282155
 30
0
 40
1.800000000000182
  0
CIRCLE
  8
1
 62
7
 10
551.8930137582092
 20
-298.384686282155
 30
0
 40
1.800000000000075
  0
CIRCLE
  8
1
 62
7
 10
531.3930137582092
 20
-298.384686282155
 30
0
 40
1.800000000000075
  0
CIRCLE
  8
1
 62
7
 10
561.8930137582095
 20
-306.384686282155
 30
0
 40
1.5
  0
CIRCLE
  8
1
 62
3
 10
561.8930137582095
 20
-306.384686282155
 30
0
 40
0.8999999999998067
  0
CIRCLE
  8
1
 62
7
 10
561.8930137582095
 20
-306.384686282155
 30
0
 40
1.649999999999807
  0
CIRCLE
  8
1
 62
3
 10
711.3688482826354
 20
-306.3849229907735
 30
0
 40
0.9000000000001478
  0
CIRCLE
  8
1
 62
7
 10
711.3688482826354
 20
-306.3849229907735
 30
0
 40
1.5
  0
CIRCLE
  8
1
 62
7
 10
645.0930137582093
 20
-292.528279821604
 30
0
 40
0.8999999999998516
  0
CIRCLE
  8
1
 62
3
 10
645.0930137582093
 20
-292.528279821604
 30
0
 40
1.499999999999983
  0
CIRCLE
  8
1
 62
7
 10
637.0930137582093
 20
-306.384686282155
 30
0
 40
11.00000000000003
  0
CIRCLE
  8
1
 62
3
  6
DASHDOT
 10
637.0930137582093
 20
-306.384686282155
 30
0
 40
16.00000000000004
  0
CIRCLE
  8
1
 62
3
 10
621.0930137582093
 20
-306.384686282155
 30
0
 40
1.5
  0
CIRCLE
  8
1
 62
7
 10
621.0930137582093
 20
-306.384686282155
 30
0
 40
0.9000000000000341
  0
CIRCLE
  8
1
 62
7
 10
637.0930137582093
 20
-306.384686282155
 30
0
 40
4.999999999999964
  0
CIRCLE
  8
1
 62
7
 10
637.0930137582093
 20
-306.384686282155
 30
0
 40
3
  0
CIRCLE
  8
1
 62
7
 10
637.0930137582093
 20
-306.384686282155
 30
0
 40
9.00000000000006
  0
CIRCLE
  8
1
 62
7
 10
740.8688482826357
 20
-306.3844761676833
 30
0
 40
3.000000000000069
  0
CIRCLE
  8
1
 62
7
 10
740.8688482837198
 20
-306.384559253426
 30
0
 40
2.75
  0
ARC
  8
1
 62
7
 10
631.5083630524528
 20
-313.4369512224095
 30
0
 40
1.219999999999943
 50
228.7352381981351
 51
310.3608873812242
  0
ARC
  8
1
 62
7
 10
642.677664463966
 20
-313.4369512224095
 30
0
 40
1.220000000000186
 50
229.6391126187677
 51
311.2647618018649
  0
ARC
  8
1
 62
7
 10
533.6730137582094
 20
-300.6646862821551
 30
0
 40
0.7199999999998568
 50
270
 51
0
  0
ARC
  8
1
 62
7
 10
529.1130137582095
 20
-296.104686282155
 30
0
 40
0.7200000000000273
 50
90
 51
180
  0
ARC
  8
1
 62
7
 10
533.6730137582094
 20
-296.104686282155
 30
0
 40
0.7199999999997999
 50
0
 51
90
  0
ARC
  8
1
 62
7
 10
529.1130137582095
 20
-300.6646862821551
 30
0
 40
0.7200000000002547
 50
180
 51
270
  0
ARC
  8
1
 62
7
 10
554.1730137582092
 20
-300.6646862821551
 30
0
 40
0.7199999999998568
 50
270
 51
0
  0
ARC
  8
1
 62
7
 10
549.6130137582095
 20
-296.104686282155
 30
0
 40
0.7200000000000273
 50
90
 51
180
  0
ARC
  8
1
 62
7
 10
554.1730137582092
 20
-296.104686282155
 30
0
 40
0.7200000000000273
 50
0
 51
90
  0
ARC
  8
1
 62
7
 10
549.6130137582095
 20
-300.6646862821551
 30
0
 40
0.7200000000002547
 50
180
 51
270
  0
ARC
  8
1
 62
7
 10
533.6730137582094
 20
-312.104686282155
 30
0
 40
0.7199999999997999
 50
0
 51
90
  0
ARC
  8
1
 62
7
 10
529.1130137582095
 20
-316.664686282155
 30
0
 40
0.7200000000002547
 50
180
 51
270
  0
ARC
  8
1
 62
7
 10
533.6730137582094
 20
-316.664686282155
 30
0
 40
0.7199999999999704
 50
270
 51
0
  0
ARC
  8
1
 62
7
 10
529.1130137582095
 20
-312.104686282155
 30
0
 40
0.7200000000000273
 50
90
 51
180
  0
ARC
  8
1
 62
7
 10
554.1730137582092
 20
-312.104686282155
 30
0
 40
0.7200000000000273
 50
0
 51
90
  0
ARC
  8
1
 62
7
 10
549.6130137582095
 20
-316.664686282155
 30
0
 40
0.7200000000002547
 50
180
 51
270
  0
ARC
  8
1
 62
7
 10
554.1730137582092
 20
-316.664686282155
 30
0
 40
0.7199999999999704
 50
270
 51
0
  0
ARC
  8
1
 62
7
 10
549.6130137582095
 20
-312.104686282155
 30
0
 40
0.7200000000000273
 50
90
 51
180
  0
TEXT
  8
1
 62
3
 10
721.8688482826354
 20
-305.4845588005185
 30
0
 40
2
  1
0
 50
270
 41
0.9
  7
SIMPLEX
 72
1
 11
721.8688482826354
 21
-306.3845588005185
 31
0
  0
TEXT
  8
1
 62
3
 10
721.8688482826354
 20
-320.7576254109847
 30
0
 40
2
  1
4
 50
270
 41
0.9
  7
SIMPLEX
 72
1
 11
721.8688482826354
 21
-321.6576254109847
 31
0
  0
TEXT
  8
1
 62
3
 10
721.8688482826354
 20
-313.6236269790765
 30
0
 40
2
  1
2
 50
270
 41
0.9
  7
SIMPLEX
 72
1
 11
721.8688482826354
 21
-314.5236269790764
 31
0
  0
TEXT
  8
1
 62
3
 10
721.8688482826354
 20
-326.0531732020784
 30
0
 40
2
  1
6
 50
270
 41
0.9
  7
SIMPLEX
 72
1
 11
721.8688482826354
 21
-326.9531732020784
 31
0
  0
TEXT
  8
1
 62
3
 10
525.7441794363209
 20
-254.798263778888
 30
0
 40
3
  1
PHT1.2D
 41
0.9
  7
SIMPLEX
 72
1
 73
2
 11
535.194179436321
 21
-253.298263778888
 31
0
  0
ENDSEC
  0
EOF
