  0
SECTION
  2
HEADER
  9
$ACADVER
  1
AC1009
  9
$INSBASE
 10
0
 20
0
  9
$EXTMIN
 10
319.2963547765431
 20
-3.019004170797246
  9
$EXTMAX
 10
579.6647362058351
 20
97.28114296528128
  9
$LIMMIN
 10
319.2963547765431
 20
-3.019004170797246
  9
$LIMMAX
 10
579.6647362058351
 20
97.28114296528128
  9
$VIEWCTR
 10
10
 20
10
  9
$VIEWSIZE
 40
10
  9
$SNAPMODE
 70
0
  9
$SNAPUNIT
 10
1
 20
1
  9
$SNAPBASE
 10
0
 20
0
  9
$SNAPANG
 50
0
  9
$SNAPSTYLE
 70
0
  9
$SNAPISOPAIR
 70
0
  9
$GRIDMODE
 70
0
  9
$GRIDUNIT
 10
0
 20
0
  9
$ORTHOMODE
 70
0
  9
$REGENMODE
 70
1
  9
$FILLMODE
 70
1
  9
$QTEXTMODE
 70
0
  9
$DRAGMODE
 70
2
  9
$LTSCALE
 40
1
  9
$OSMODE
 70
0
  9
$ATTMODE
 70
1
  9
$TEXTSIZE
 40
3.5
  9
$TRACEWID
 40
0.5
  9
$TEXTSTYLE
  7
STANDARD
  9
$CLAYER
  8
0
  9
$CELTYPE
  6
BYLAYER
  9
$CECOLOR
 62
256
  9
$DIMSCALE
 40
1
  9
$DIMASZ
 40
0.18
  9
$DIMEXO
 40
0.0625
  9
$DIMDLI
 40
0.38
  9
$DIMRND
 40
0
  9
$DIMDLE
 40
0
  9
$DIMEXE
 40
0.18
  9
$DIMTP
 40
0
  9
$DIMTM
 40
0
  9
$DIMTXT
 40
0.18
  9
$DIMCEN
 40
0.09
  9
$DIMTSZ
 40
0
  9
$DIMTOL
 70
0
  9
$DIMLIM
 70
0
  9
$DIMTIH
 70
1
  9
$DIMTOH
 70
1
  9
$DIMSE1
 70
0
  9
$DIMSE2
 70
0
  9
$DIMTAD
 70
0
  9
$DIMZIN
 70
0
  9
$DIMBLK
  1

  9
$DIMASO
 70
1
  9
$DIMSHO
 70
1
  9
$DIMPOST
  1

  9
$DIMAPOST
  1

  9
$DIMALT
 70
0
  9
$DIMALTD
 70
2
  9
$DIMALTF
 40
25.4
  9
$DIMLFAC
 40
1
  9
$DIMTOFL
 70
0
  9
$DIMTVP
 40
0
  9
$DIMTIX
 70
0
  9
$DIMSOXD
 70
0
  9
$DIMSAH
 70
0
  9
$DIMBLK1
  1

  9
$DIMBLK2
  1

  9
$DIMSTYLE
  2
*UNNAMED
  9
$DIMCLRD
 70
0
  9
$DIMCLRE
 70
0
  9
$DIMCLRT
 70
0
  9
$DIMTFAC
 40
1
  9
$DIMGAP
 40
0.09
  9
$LUNITS
 70
2
  9
$LUPREC
 70
4
  9
$AXISMODE
 70
0
  9
$AXISUNIT
 10
0
 20
0
  9
$SKETCHINC
 40
0.1
  9
$FILLETRAD
 40
2
  9
$AUNITS
 70
0
  9
$AUPREC
 70
0
  9
$MENU
  1
ACAD
  9
$ELEVATION
 40
0
  9
$THICKNESS
 40
0
  9
$VIEWDIR
 10
0
 20
0
 30
1
  9
$LIMCHECK
 70
0
  9
$BLIPMODE
 70
1
  9
$CHAMFERA
 40
0
  9
$CHAMFERB
 40
0
  9
$FASTZOOM
 70
1
  9
$SKPOLY
 70
0
  9
$ANGBASE
 50
0
  9
$ANGDIR
 70
0
  9
$PDMODE
 70
0
  9
$PDSIZE
 40
0
  9
$PLINEWID
 40
0
  9
$COORDS
 70
2
  0
ENDSEC
  0
SECTION
  2
TABLES
  0
TABLE
  2
DIMSTYLE
 70
0
  0
ENDTAB
  0
TABLE
  2
LTYPE
 70
9
  0
LTYPE
  2
CONTINUOUS
 70
64
  3
Solid line
 72
65
 73
0
 40
0
  0
LTYPE
  2
BORDER
 70
64
  3
__ __ . __ __ .
 72
65
 73
6
 40
11.99064914477002
 49
3.425899755648578
 49
-1.712949877824289
 49
3.425899755648578
 49
-1.712949877824289
 49
0
 49
-1.712949877824289
  0
LTYPE
  2
CENTER
 70
64
  3
____ _ ____ _
 72
65
 73
4
 40
13.70359902259431
 49
8.564749389121445
 49
-1.712949877824289
 49
1.712949877824289
 49
-1.712949877824289
  0
LTYPE
  2
DASHDOT
 70
64
  3
__ . __ . __ .
 72
65
 73
4
 40
6.851799511297156
 49
3.425899755648578
 49
-1.712949877824289
 49
0
 49
-1.712949877824289
  0
LTYPE
  2
DASHED
 70
64
  3
__ __ __ __ __
 72
65
 73
2
 40
5.138849633472868
 49
3.425899755648578
 49
-1.712949877824289
  0
LTYPE
  2
DIVIDE
 70
64
  3
__ . . __ . . 
 72
65
 73
6
 40
8.564749389121445
 49
3.425899755648578
 49
-1.712949877824289
 49
0
 49
-1.712949877824289
 49
0
 49
-1.712949877824289
  0
LTYPE
  2
DOT
 70
64
  3
..............
 72
65
 73
4
 40
3.425899755648578
 49
0
 49
-1.712949877824289
 49
0
 49
-1.712949877824289
  0
LTYPE
  2
HIDDEN
 70
64
  3
_ _ _ _ _ _ _
 72
65
 73
2
 40
2.569424816736434
 49
1.712949877824289
 49
-0.8564749389121446
  0
LTYPE
  2
PHANTOM
 70
64
  3
_____ _ _ _____ _ _ 
 72
65
 73
6
 40
17.12949877824289
 49
8.564749389121445
 49
-1.712949877824289
 49
1.712949877824289
 49
-1.712949877824289
 49
1.712949877824289
 49
-1.712949877824289
  0
ENDTAB
  0
TABLE
  2
LAYER
 70
3
  0
LAYER
  2
1
 70
0
 62
7
  6
CONTINUOUS
  0
LAYER
  2
0
 70
0
 62
7
  6
CONTINUOUS
  0
ENDTAB
  0
TABLE
  2
STYLE
 70
4
  0
STYLE
  2
STANDARD
 70
0
 40
0
 41
1
 50
0
 71
0
 42
3.5
  3
txt
  4

  0
STYLE
  2
SIMPLEX
 70
0
 40
0
 41
1
 50
0
 71
0
 42
3.5
  3
simplex
  4

  0
STYLE
  2
COMPLEX
 70
0
 40
0
 41
1
 50
0
 71
0
 42
3.5
  3
complex
  4

  0
STYLE
  2
ITALIC
 70
0
 40
0
 41
1
 50
0
 71
0
 42
3.5
  3
italic
  4

  0
ENDTAB
  0
TABLE
  2
VIEW
 70
0
  0
ENDTAB
  0
ENDSEC
  0
SECTION
  2
BLOCKS
  0
BLOCK
  8
1
  2
*X0
 70
1
 10
0
 20
0
 30
0
  0
LINE
  8
1
 62
3
 10
543.0224127692007
 20
30.82756269386985
 30
0
 11
546.0224127692007
 21
30.82756269386985
 31
0
  0
LINE
  8
1
 62
3
 10
543.0224127692007
 20
30.32756269386985
 30
0
 11
546.0224127692007
 21
30.32756269386985
 31
0
  0
LINE
  8
1
 62
3
 10
543.0224127692007
 20
29.82756269386985
 30
0
 11
546.0224127692007
 21
29.82756269386985
 31
0
  0
LINE
  8
1
 62
3
 10
543.0224127692007
 20
29.32756269386985
 30
0
 11
546.0224127692007
 21
29.32756269386985
 31
0
  0
LINE
  8
1
 62
3
 10
543.0224127692007
 20
28.82756269386985
 30
0
 11
546.0224127692007
 21
28.82756269386985
 31
0
  0
LINE
  8
1
 62
3
 10
543.0224127692007
 20
28.32756269386985
 30
0
 11
546.0224127692007
 21
28.32756269386985
 31
0
  0
LINE
  8
1
 62
3
 10
543.0224127692007
 20
27.82756269386985
 30
0
 11
546.0224127692007
 21
27.82756269386985
 31
0
  0
LINE
  8
1
 62
3
 10
543.0224127692007
 20
27.32756269386985
 30
0
 11
546.0224127692007
 21
27.32756269386985
 31
0
  0
LINE
  8
1
 62
3
 10
543.0224127692007
 20
26.82756269386985
 30
0
 11
546.0224127692007
 21
26.82756269386985
 31
0
  0
LINE
  8
1
 62
3
 10
543.0224127692007
 20
26.32756269386985
 30
0
 11
546.0224127692007
 21
26.32756269386985
 31
0
  0
LINE
  8
1
 62
3
 10
543.0224127692007
 20
25.82756269386985
 30
0
 11
546.0224127692007
 21
25.82756269386985
 31
0
  0
LINE
  8
1
 62
3
 10
543.0224127692007
 20
25.32756269386985
 30
0
 11
546.0224127692007
 21
25.32756269386985
 31
0
  0
LINE
  8
1
 62
3
 10
543.0224127692007
 20
24.82756269386985
 30
0
 11
546.0224127692007
 21
24.82756269386985
 31
0
  0
LINE
  8
1
 62
3
 10
543.0224127692007
 20
24.32756269386985
 30
0
 11
546.0224127692007
 21
24.32756269386985
 31
0
  0
LINE
  8
1
 62
3
 10
543.0224127692007
 20
23.82756269386985
 30
0
 11
546.0224127692007
 21
23.82756269386985
 31
0
  0
LINE
  8
1
 62
3
 10
543.0224127692007
 20
23.32756269386985
 30
0
 11
546.0224127692007
 21
23.32756269386985
 31
0
  0
LINE
  8
1
 62
3
 10
543.0224127692007
 20
22.82756269386985
 30
0
 11
546.0224127692007
 21
22.82756269386985
 31
0
  0
LINE
  8
1
 62
3
 10
543.0224127692007
 20
22.32756269386985
 30
0
 11
546.0224127692007
 21
22.32756269386985
 31
0
  0
LINE
  8
1
 62
3
 10
543.0224127692007
 20
21.82756269386985
 30
0
 11
546.0224127692007
 21
21.82756269386985
 31
0
  0
LINE
  8
1
 62
3
 10
543.0224127692007
 20
21.32756269386985
 30
0
 11
546.0224127692007
 21
21.32756269386985
 31
0
  0
LINE
  8
1
 62
3
 10
543.0224127692007
 20
20.82756269386985
 30
0
 11
546.0224127692007
 21
20.82756269386985
 31
0
  0
LINE
  8
1
 62
3
 10
543.0224127692007
 20
20.32756269386985
 30
0
 11
546.0224127692007
 21
20.32756269386985
 31
0
  0
LINE
  8
1
 62
3
 10
543.0224127692007
 20
19.82756269386985
 30
0
 11
546.0224127692007
 21
19.82756269386985
 31
0
  0
LINE
  8
1
 62
3
 10
543.0224127692007
 20
19.32756269386985
 30
0
 11
546.0224127692007
 21
19.32756269386985
 31
0
  0
LINE
  8
1
 62
3
 10
543.0224127692007
 20
18.82756269386985
 30
0
 11
546.0224127692007
 21
18.82756269386985
 31
0
  0
LINE
  8
1
 62
3
 10
543.0224127692007
 20
18.32756269386985
 30
0
 11
546.0224127692007
 21
18.32756269386985
 31
0
  0
LINE
  8
1
 62
3
 10
543.0224127692007
 20
17.82756269386985
 30
0
 11
546.0224127692007
 21
17.82756269386985
 31
0
  0
LINE
  8
1
 62
3
 10
543.0224127692007
 20
17.32756269386985
 30
0
 11
546.0224127692007
 21
17.32756269386985
 31
0
  0
LINE
  8
1
 62
3
 10
543.0224127692007
 20
16.82756269386985
 30
0
 11
546.0224127692007
 21
16.82756269386985
 31
0
  0
LINE
  8
1
 62
3
 10
543.0224127692007
 20
16.32756269386985
 30
0
 11
546.0224127692007
 21
16.32756269386985
 31
0
  0
LINE
  8
1
 62
3
 10
543.0224127692007
 20
15.82756269386985
 30
0
 11
546.0224127692007
 21
15.82756269386985
 31
0
  0
LINE
  8
1
 62
3
 10
543.0224127692007
 20
15.32756269386985
 30
0
 11
546.0224127692007
 21
15.32756269386985
 31
0
  0
LINE
  8
1
 62
3
 10
543.0224127692007
 20
14.82756269386985
 30
0
 11
546.0224127692007
 21
14.82756269386985
 31
0
  0
LINE
  8
1
 62
3
 10
543.0224127692007
 20
14.32756269386985
 30
0
 11
546.0224127692007
 21
14.32756269386985
 31
0
  0
LINE
  8
1
 62
3
 10
543.0224127692007
 20
13.82756269386985
 30
0
 11
546.0224127692007
 21
13.82756269386985
 31
0
  0
LINE
  8
1
 62
3
 10
543.0224127692007
 20
13.32756269386985
 30
0
 11
546.0224127692007
 21
13.32756269386985
 31
0
  0
LINE
  8
1
 62
3
 10
543.0224127692007
 20
12.82756269386985
 30
0
 11
546.0224127692007
 21
12.82756269386985
 31
0
  0
LINE
  8
1
 62
3
 10
543.0224127692007
 20
12.32756269386985
 30
0
 11
546.0224127692007
 21
12.32756269386985
 31
0
  0
LINE
  8
1
 62
3
 10
543.0224127692007
 20
11.82756269386985
 30
0
 11
546.0224127692007
 21
11.82756269386985
 31
0
  0
LINE
  8
1
 62
3
 10
543.0224127692007
 20
11.32756269386985
 30
0
 11
546.0224127692007
 21
11.32756269386985
 31
0
  0
LINE
  8
1
 62
3
 10
543.0224127692007
 20
10.82756269386985
 30
0
 11
546.0224127692007
 21
10.82756269386985
 31
0
  0
LINE
  8
1
 62
3
 10
543.0224127692007
 20
10.32756269386985
 30
0
 11
546.0224127692007
 21
10.32756269386985
 31
0
  0
LINE
  8
1
 62
3
 10
543.0224127692007
 20
9.827562693869851
 30
0
 11
546.0224127692007
 21
9.827562693869851
 31
0
  0
LINE
  8
1
 62
3
 10
543.0224127692007
 20
9.327562693869851
 30
0
 11
546.0224127692007
 21
9.327562693869851
 31
0
  0
LINE
  8
1
 62
3
 10
543.0224127692007
 20
8.827562693869851
 30
0
 11
546.0224127692007
 21
8.827562693869851
 31
0
  0
LINE
  8
1
 62
3
 10
543.0224127692007
 20
8.327562693869851
 30
0
 11
546.0224127692007
 21
8.327562693869851
 31
0
  0
LINE
  8
1
 62
3
 10
543.0224127692007
 20
7.827562693869851
 30
0
 11
546.0224127692007
 21
7.827562693869851
 31
0
  0
LINE
  8
1
 62
3
 10
543.0224127692007
 20
7.327562693869851
 30
0
 11
546.0224127692007
 21
7.327562693869851
 31
0
  0
LINE
  8
1
 62
3
 10
543.0224127692007
 20
6.827562693869851
 30
0
 11
546.0224127692007
 21
6.827562693869851
 31
0
  0
LINE
  8
1
 62
3
 10
543.0224127692007
 20
6.327562693869851
 30
0
 11
546.0224127692007
 21
6.327562693869851
 31
0
  0
LINE
  8
1
 62
3
 10
543.0224127692007
 20
5.827562693869851
 30
0
 11
546.0224127692007
 21
5.827562693869851
 31
0
  0
LINE
  8
1
 62
3
 10
543.0224127692007
 20
5.327562693869851
 30
0
 11
546.0224127692007
 21
5.327562693869851
 31
0
  0
LINE
  8
1
 62
3
 10
543.0224127692007
 20
4.827562693869851
 30
0
 11
546.0224127692007
 21
4.827562693869851
 31
0
  0
LINE
  8
1
 62
3
 10
543.0224127692007
 20
4.327562693869851
 30
0
 11
546.0224127692007
 21
4.327562693869851
 31
0
  0
LINE
  8
1
 62
3
 10
543.0224127692007
 20
3.827562693869851
 30
0
 11
546.0224127692007
 21
3.827562693869851
 31
0
  0
LINE
  8
1
 62
3
 10
543.0224127692007
 20
3.327562693869851
 30
0
 11
546.0224127692007
 21
3.327562693869851
 31
0
  0
LINE
  8
1
 62
3
 10
543.0224127692007
 20
2.827562693869851
 30
0
 11
546.0224127692007
 21
2.827562693869851
 31
0
  0
LINE
  8
1
 62
3
 10
543.0224127692007
 20
2.327562693869851
 30
0
 11
546.0224127692007
 21
2.327562693869851
 31
0
  0
LINE
  8
1
 62
3
 10
543.0224127692007
 20
1.827562693869851
 30
0
 11
546.0224127692007
 21
1.827562693869851
 31
0
  0
ENDBLK
  8
0
  0
BLOCK
  8
1
  2
*X1
 70
1
 10
0
 20
0
 30
0
  0
LINE
  8
1
 62
3
 10
543.0224127692007
 20
61.82756269386984
 30
0
 11
546.0224127692007
 21
61.82756269386984
 31
0
  0
LINE
  8
1
 62
3
 10
543.0224127692007
 20
61.32756269386984
 30
0
 11
546.0224127692007
 21
61.32756269386984
 31
0
  0
LINE
  8
1
 62
3
 10
543.0224127692007
 20
60.82756269386984
 30
0
 11
546.0224127692007
 21
60.82756269386984
 31
0
  0
LINE
  8
1
 62
3
 10
543.0224127692007
 20
60.32756269386984
 30
0
 11
546.0224127692007
 21
60.32756269386984
 31
0
  0
LINE
  8
1
 62
3
 10
543.0224127692007
 20
59.82756269386984
 30
0
 11
546.0224127692007
 21
59.82756269386984
 31
0
  0
LINE
  8
1
 62
3
 10
543.0224127692007
 20
59.32756269386984
 30
0
 11
546.0224127692007
 21
59.32756269386984
 31
0
  0
LINE
  8
1
 62
3
 10
543.0224127692007
 20
58.82756269386984
 30
0
 11
546.0224127692007
 21
58.82756269386984
 31
0
  0
LINE
  8
1
 62
3
 10
543.0224127692007
 20
58.32756269386984
 30
0
 11
546.0224127692007
 21
58.32756269386984
 31
0
  0
LINE
  8
1
 62
3
 10
543.0224127692007
 20
57.82756269386984
 30
0
 11
546.0224127692007
 21
57.82756269386984
 31
0
  0
LINE
  8
1
 62
3
 10
543.0224127692007
 20
57.32756269386984
 30
0
 11
546.0224127692007
 21
57.32756269386984
 31
0
  0
LINE
  8
1
 62
3
 10
543.0224127692007
 20
56.82756269386984
 30
0
 11
546.0224127692007
 21
56.82756269386984
 31
0
  0
LINE
  8
1
 62
3
 10
543.0224127692007
 20
56.32756269386984
 30
0
 11
546.0224127692007
 21
56.32756269386984
 31
0
  0
LINE
  8
1
 62
3
 10
543.0224127692007
 20
55.82756269386984
 30
0
 11
546.0224127692007
 21
55.82756269386984
 31
0
  0
LINE
  8
1
 62
3
 10
543.0224127692007
 20
55.32756269386984
 30
0
 11
546.0224127692007
 21
55.32756269386984
 31
0
  0
LINE
  8
1
 62
3
 10
543.0224127692007
 20
54.82756269386984
 30
0
 11
546.0224127692007
 21
54.82756269386984
 31
0
  0
LINE
  8
1
 62
3
 10
543.0224127692007
 20
54.32756269386984
 30
0
 11
546.0224127692007
 21
54.32756269386984
 31
0
  0
LINE
  8
1
 62
3
 10
543.0224127692007
 20
53.82756269386984
 30
0
 11
546.0224127692007
 21
53.82756269386984
 31
0
  0
LINE
  8
1
 62
3
 10
543.0224127692007
 20
53.32756269386984
 30
0
 11
546.0224127692007
 21
53.32756269386984
 31
0
  0
LINE
  8
1
 62
3
 10
543.0224127692007
 20
52.82756269386984
 30
0
 11
546.0224127692007
 21
52.82756269386984
 31
0
  0
LINE
  8
1
 62
3
 10
543.0224127692007
 20
52.32756269386984
 30
0
 11
546.0224127692007
 21
52.32756269386984
 31
0
  0
LINE
  8
1
 62
3
 10
543.0224127692007
 20
51.82756269386984
 30
0
 11
546.0224127692007
 21
51.82756269386984
 31
0
  0
LINE
  8
1
 62
3
 10
543.0224127692007
 20
51.32756269386984
 30
0
 11
546.0224127692007
 21
51.32756269386984
 31
0
  0
LINE
  8
1
 62
3
 10
543.0224127692007
 20
50.82756269386984
 30
0
 11
546.0224127692007
 21
50.82756269386984
 31
0
  0
LINE
  8
1
 62
3
 10
543.0224127692007
 20
50.32756269386984
 30
0
 11
546.0224127692007
 21
50.32756269386984
 31
0
  0
LINE
  8
1
 62
3
 10
543.0224127692007
 20
49.82756269386984
 30
0
 11
546.0224127692007
 21
49.82756269386984
 31
0
  0
LINE
  8
1
 62
3
 10
543.0224127692007
 20
49.32756269386984
 30
0
 11
546.0224127692007
 21
49.32756269386984
 31
0
  0
LINE
  8
1
 62
3
 10
543.0224127692007
 20
48.82756269386984
 30
0
 11
546.0224127692007
 21
48.82756269386984
 31
0
  0
LINE
  8
1
 62
3
 10
543.0224127692007
 20
48.32756269386984
 30
0
 11
546.0224127692007
 21
48.32756269386984
 31
0
  0
LINE
  8
1
 62
3
 10
543.0224127692007
 20
47.82756269386984
 30
0
 11
546.0224127692007
 21
47.82756269386984
 31
0
  0
LINE
  8
1
 62
3
 10
543.0224127692007
 20
47.32756269386984
 30
0
 11
546.0224127692007
 21
47.32756269386984
 31
0
  0
LINE
  8
1
 62
3
 10
543.0224127692007
 20
46.82756269386984
 30
0
 11
546.0224127692007
 21
46.82756269386984
 31
0
  0
LINE
  8
1
 62
3
 10
543.0224127692007
 20
46.32756269386984
 30
0
 11
546.0224127692007
 21
46.32756269386984
 31
0
  0
LINE
  8
1
 62
3
 10
543.0224127692007
 20
45.82756269386984
 30
0
 11
546.0224127692007
 21
45.82756269386984
 31
0
  0
LINE
  8
1
 62
3
 10
543.0224127692007
 20
45.32756269386984
 30
0
 11
546.0224127692007
 21
45.32756269386984
 31
0
  0
LINE
  8
1
 62
3
 10
543.0224127692007
 20
44.82756269386984
 30
0
 11
546.0224127692007
 21
44.82756269386984
 31
0
  0
LINE
  8
1
 62
3
 10
543.0224127692007
 20
44.32756269386984
 30
0
 11
546.0224127692007
 21
44.32756269386984
 31
0
  0
LINE
  8
1
 62
3
 10
543.0224127692007
 20
43.82756269386984
 30
0
 11
546.0224127692007
 21
43.82756269386984
 31
0
  0
LINE
  8
1
 62
3
 10
543.0224127692007
 20
43.32756269386984
 30
0
 11
546.0224127692007
 21
43.32756269386984
 31
0
  0
LINE
  8
1
 62
3
 10
543.0224127692007
 20
42.82756269386984
 30
0
 11
546.0224127692007
 21
42.82756269386984
 31
0
  0
LINE
  8
1
 62
3
 10
543.0224127692007
 20
42.32756269386984
 30
0
 11
546.0224127692007
 21
42.32756269386984
 31
0
  0
LINE
  8
1
 62
3
 10
543.0224127692007
 20
41.82756269386984
 30
0
 11
546.0224127692007
 21
41.82756269386984
 31
0
  0
LINE
  8
1
 62
3
 10
543.0224127692007
 20
41.32756269386984
 30
0
 11
546.0224127692007
 21
41.32756269386984
 31
0
  0
LINE
  8
1
 62
3
 10
543.0224127692007
 20
40.82756269386984
 30
0
 11
546.0224127692007
 21
40.82756269386984
 31
0
  0
LINE
  8
1
 62
3
 10
543.0224127692007
 20
40.32756269386984
 30
0
 11
546.0224127692007
 21
40.32756269386984
 31
0
  0
LINE
  8
1
 62
3
 10
543.0224127692007
 20
39.82756269386984
 30
0
 11
546.0224127692007
 21
39.82756269386984
 31
0
  0
LINE
  8
1
 62
3
 10
543.0224127692007
 20
39.32756269386984
 30
0
 11
546.0224127692007
 21
39.32756269386984
 31
0
  0
LINE
  8
1
 62
3
 10
543.0224127692007
 20
38.82756269386984
 30
0
 11
546.0224127692007
 21
38.82756269386984
 31
0
  0
LINE
  8
1
 62
3
 10
543.0224127692007
 20
38.32756269386984
 30
0
 11
546.0224127692007
 21
38.32756269386984
 31
0
  0
LINE
  8
1
 62
3
 10
543.0224127692007
 20
37.82756269386984
 30
0
 11
546.0224127692007
 21
37.82756269386984
 31
0
  0
LINE
  8
1
 62
3
 10
543.0224127692007
 20
37.32756269386984
 30
0
 11
546.0224127692007
 21
37.32756269386984
 31
0
  0
LINE
  8
1
 62
3
 10
543.0224127692007
 20
36.82756269386984
 30
0
 11
546.0224127692007
 21
36.82756269386984
 31
0
  0
LINE
  8
1
 62
3
 10
543.0224127692007
 20
36.32756269386984
 30
0
 11
546.0224127692007
 21
36.32756269386984
 31
0
  0
LINE
  8
1
 62
3
 10
543.0224127692007
 20
35.82756269386984
 30
0
 11
546.0224127692007
 21
35.82756269386984
 31
0
  0
LINE
  8
1
 62
3
 10
543.0224127692007
 20
35.32756269386984
 30
0
 11
546.0224127692007
 21
35.32756269386984
 31
0
  0
LINE
  8
1
 62
3
 10
543.0224127692007
 20
34.82756269386984
 30
0
 11
546.0224127692007
 21
34.82756269386984
 31
0
  0
LINE
  8
1
 62
3
 10
543.0224127692007
 20
34.32756269386984
 30
0
 11
546.0224127692007
 21
34.32756269386984
 31
0
  0
LINE
  8
1
 62
3
 10
543.0224127692007
 20
33.82756269386984
 30
0
 11
546.0224127692007
 21
33.82756269386984
 31
0
  0
LINE
  8
1
 62
3
 10
543.0224127692007
 20
33.32756269386984
 30
0
 11
546.0224127692007
 21
33.32756269386984
 31
0
  0
LINE
  8
1
 62
3
 10
543.0224127692007
 20
32.82756269386984
 30
0
 11
546.0224127692007
 21
32.82756269386984
 31
0
  0
ENDBLK
  8
0
  0
ENDSEC
  0
SECTION
  2
ENTITIES
  0
INSERT
  8
1
  2
*X0
 10
0
 20
0
 30
0
  0
INSERT
  8
1
  2
*X1
 10
0
 20
0
 30
0
  0
LINE
  8
1
 62
3
  6
DASHDOT
 10
460.6851438637949
 20
12.3199402060456
 30
0
 11
458.0864887978858
 21
16.82094281154588
 31
0
  0
LINE
  8
1
 62
7
 10
452.1724127692008
 20
1.702822031083713
 30
0
 11
452.1724127692008
 21
1.027562693867878
 31
0
  0
LINE
  8
1
 62
3
  6
DASHED
 10
446.6724127692008
 20
1.702822031083713
 30
0
 11
446.6724127692008
 21
3.827562693867833
 31
0
  0
LINE
  8
1
 62
3
  6
DASHED
 10
452.4224127692008
 20
3.827562693867833
 30
0
 11
446.6724127692008
 21
3.827562693867833
 31
0
  0
LINE
  8
1
 62
3
  6
DASHED
 10
447.9224127692008
 20
3.827562693868003
 30
0
 11
447.9224127692008
 21
11.22756269386798
 31
0
  0
LINE
  8
1
 62
3
  6
DASHED
 10
450.9224127692008
 20
11.22756269386798
 30
0
 11
450.9224127692008
 21
3.827562693868003
 31
0
  0
LINE
  8
1
 62
3
  6
DASHED
 10
448.5224127692007
 20
5.366793178409296
 30
0
 11
447.9224127692008
 21
4.327562693868003
 31
0
  0
LINE
  8
1
 62
3
  6
DASHED
 10
450.3224127692007
 20
5.366793178409296
 30
0
 11
450.9224127692008
 21
4.327562693868003
 31
0
  0
LINE
  8
1
 62
3
  6
DASHED
 10
447.9224127692008
 20
5.366793178409296
 30
0
 11
450.9224127692008
 21
5.366793178409296
 31
0
  0
LINE
  8
1
 62
3
  6
DASHED
 10
447.9224127692008
 20
11.22756269386798
 30
0
 11
448.5224127692007
 21
11.82756269386795
 31
0
  0
LINE
  8
1
 62
3
  6
DASHED
 10
448.5224127692007
 20
11.82756269386795
 30
0
 11
450.3224127692007
 21
11.82756269386795
 31
0
  0
LINE
  8
1
 62
3
  6
DASHED
 10
450.3224127692007
 20
11.82756269386795
 30
0
 11
450.9224127692008
 21
11.22756269386798
 31
0
  0
LINE
  8
1
 62
3
  6
DASHED
 10
447.9224127692008
 20
11.22756269386798
 30
0
 11
450.9224127692008
 21
11.22756269386798
 31
0
  0
LINE
  8
1
 62
3
  6
DASHED
 10
450.3224127692007
 20
5.366793178409296
 30
0
 11
450.3224127692007
 21
11.82756269386795
 31
0
  0
LINE
  8
1
 62
3
  6
DASHED
 10
448.5224127692007
 20
5.366793178409296
 30
0
 11
448.5224127692007
 21
11.82756269386795
 31
0
  0
LINE
  8
1
 62
3
  6
DASHED
 10
452.4224127692008
 20
1.726690613477899
 30
0
 11
452.4224127692008
 21
3.827562693867833
 31
0
  0
LINE
  8
1
 62
7
 10
452.1724127692008
 20
1.027562693867878
 30
0
 11
451.826002607687
 21
0.8275626938678329
 31
0
  0
LINE
  8
1
 62
7
 10
451.826002607687
 20
0.8275626938678329
 30
0
 11
447.0188229307144
 21
0.8275626938678329
 31
0
  0
LINE
  8
1
 62
7
 10
447.0188229307144
 20
0.8275626938678329
 30
0
 11
446.6724127692008
 21
1.027562693867878
 31
0
  0
LINE
  8
1
 62
7
 10
452.1724127692008
 20
1.027562693867878
 30
0
 11
446.6724127692008
 21
1.027562693867878
 31
0
  0
LINE
  8
1
 62
3
  6
DASHED
 10
452.1724127692008
 20
3.827562693867833
 30
0
 11
452.1724127692008
 21
1.702822031083713
 31
0
  0
LINE
  8
1
 62
7
 10
452.1724127692008
 20
1.027562693867878
 30
0
 11
451.826002607687
 21
0.8275626938678329
 31
0
  0
LINE
  8
1
 62
7
 10
452.1724127692008
 20
1.027562693867878
 30
0
 11
446.6724127692008
 21
1.027562693867878
 31
0
  0
LINE
  8
1
 62
7
 10
446.6724127692008
 20
1.027562693867878
 30
0
 11
446.6724127692008
 21
1.702822031083713
 31
0
  0
LINE
  8
1
 62
3
  6
DASHED
 10
421.8542928715172
 20
19.37520286502615
 30
0
 11
423.9979805550011
 21
20.09733479388353
 31
0
  0
LINE
  8
1
 62
7
 10
446.6724127692008
 20
61.95230335665195
 30
0
 11
446.6724127692008
 21
62.62756269386779
 31
0
  0
LINE
  8
1
 62
3
  6
DASHED
 10
452.1724127692008
 20
61.95230335665195
 30
0
 11
452.1724127692008
 21
59.82756269386783
 31
0
  0
LINE
  8
1
 62
3
  6
DASHED
 10
446.4224127692008
 20
59.82756269386783
 30
0
 11
452.1724127692008
 21
59.82756269386783
 31
0
  0
LINE
  8
1
 62
7
 10
479.1724127692008
 20
31.32756269386783
 30
0
 11
479.6682802555204
 21
31.32756269386783
 31
0
  0
LINE
  8
1
 62
7
 10
479.1724127692008
 20
32.32756269386783
 30
0
 11
479.1724127692008
 21
31.32756269386783
 31
0
  0
LINE
  8
1
 62
7
 10
479.6682802555204
 20
32.32756269386783
 30
0
 11
479.1724127692008
 21
32.32756269386783
 31
0
  0
LINE
  8
1
 62
3
  6
DASHED
 10
450.9224127692008
 20
37.63703771317893
 30
0
 11
450.9224127692008
 21
34.42563890522121
 31
0
  0
LINE
  8
1
 62
3
  6
DASHED
 10
450.3224127692008
 20
37.75967867385339
 30
0
 11
450.3224127692008
 21
34.68938029811869
 31
0
  0
LINE
  8
1
 62
3
  6
DASHED
 10
448.5224127692009
 20
37.75967867385339
 30
0
 11
448.5224127692009
 21
34.68938029811869
 31
0
  0
LINE
  8
1
 62
3
  6
DASHED
 10
447.9224127692008
 20
37.63703771317893
 30
0
 11
447.9224127692008
 21
34.42563890522121
 31
0
  0
LINE
  8
1
 62
3
  6
DASHDOT
 10
458.1493174802367
 20
46.94300504619426
 30
0
 11
460.7033402178871
 21
51.36670219149033
 31
0
  0
LINE
  8
1
 62
3
  6
DASHDOT
 10
414.6821356370684
 20
31.82756269386783
 30
0
 11
484.0189796338657
 21
31.82756269386782
 31
0
  0
LINE
  8
1
 62
3
  6
DASHDOT
 10
449.4224127692008
 20
66.17342702896804
 30
0
 11
449.4224127692008
 21
-3.019004170797246
 31
0
  0
LINE
  8
1
 62
3
  6
DASHED
 10
450.9224127692008
 20
59.82756269386772
 30
0
 11
450.9224127692008
 21
52.42756269386774
 31
0
  0
LINE
  8
1
 62
3
  6
DASHED
 10
447.9224127692008
 20
52.42756269386774
 30
0
 11
447.9224127692008
 21
59.82756269386772
 31
0
  0
LINE
  8
1
 62
3
  6
DASHED
 10
450.3224127692008
 20
58.28833220932637
 30
0
 11
450.9224127692008
 21
59.32756269386772
 31
0
  0
LINE
  8
1
 62
3
  6
DASHED
 10
448.5224127692009
 20
58.28833220932637
 30
0
 11
447.9224127692008
 21
59.32756269386772
 31
0
  0
LINE
  8
1
 62
3
  6
DASHED
 10
450.9224127692008
 20
58.28833220932637
 30
0
 11
447.9224127692008
 21
58.28833220932637
 31
0
  0
LINE
  8
1
 62
3
  6
DASHED
 10
450.9224127692008
 20
52.42756269386774
 30
0
 11
450.3224127692008
 21
51.82756269386772
 31
0
  0
LINE
  8
1
 62
3
  6
DASHED
 10
450.3224127692008
 20
51.82756269386772
 30
0
 11
448.5224127692009
 21
51.82756269386772
 31
0
  0
LINE
  8
1
 62
3
  6
DASHED
 10
448.5224127692009
 20
51.82756269386772
 30
0
 11
447.9224127692008
 21
52.42756269386774
 31
0
  0
LINE
  8
1
 62
3
  6
DASHED
 10
450.9224127692008
 20
52.42756269386774
 30
0
 11
447.9224127692008
 21
52.42756269386774
 31
0
  0
LINE
  8
1
 62
3
  6
DASHED
 10
448.5224127692009
 20
58.28833220932637
 30
0
 11
448.5224127692009
 21
51.82756269386772
 31
0
  0
LINE
  8
1
 62
3
  6
DASHED
 10
450.3224127692008
 20
58.28833220932637
 30
0
 11
450.3224127692008
 21
51.82756269386772
 31
0
  0
LINE
  8
1
 62
3
  6
DASHED
 10
446.4224127692008
 20
61.92843477425782
 30
0
 11
446.4224127692008
 21
59.82756269386783
 31
0
  0
LINE
  8
1
 62
3
  6
DASHED
 10
476.9905326668844
 20
44.27992252270957
 30
0
 11
474.8468449834003
 21
43.55779059385219
 31
0
  0
LINE
  8
1
 62
7
 10
450.4027975269302
 20
38.82756269386783
 30
0
 11
450.9224127692008
 21
38.52756269386788
 31
0
  0
LINE
  8
1
 62
7
 10
450.9224127692008
 20
38.52756269386788
 30
0
 11
447.9224127692008
 21
38.52756269386788
 31
0
  0
LINE
  8
1
 62
7
 10
447.9224127692008
 20
38.52756269386788
 30
0
 11
448.4420280114715
 21
38.82756269386783
 31
0
  0
LINE
  8
1
 62
7
 10
448.4420280114715
 20
38.82756269386783
 30
0
 11
450.4027975269302
 21
38.82756269386783
 31
0
  0
LINE
  8
1
 62
7
 10
450.9224127692008
 20
38.52756269386788
 30
0
 11
450.9224127692008
 21
37.63703771317893
 31
0
  0
LINE
  8
1
 62
3
  6
DASHED
 10
450.9224127692008
 20
35.42756269386786
 30
0
 11
450.3224127692008
 21
34.82756269386783
 31
0
  0
LINE
  8
1
 62
3
  6
DASHED
 10
450.3224127692008
 20
34.82756269386783
 30
0
 11
448.5224127692009
 21
34.82756269386783
 31
0
  0
LINE
  8
1
 62
3
  6
DASHED
 10
448.5224127692009
 20
34.82756269386783
 30
0
 11
447.9224127692008
 21
35.42756269386786
 31
0
  0
LINE
  8
1
 62
3
  6
DASHED
 10
450.9224127692008
 20
35.42756269386786
 30
0
 11
447.9224127692008
 21
35.42756269386786
 31
0
  0
LINE
  8
1
 62
3
 10
450.3224127692006
 20
38.82756269386782
 30
0
 11
450.3224127692008
 21
37.75967867385339
 31
0
  0
LINE
  8
1
 62
3
 10
448.5224127692007
 20
38.82756269386782
 30
0
 11
448.5224127692009
 21
37.75967867385339
 31
0
  0
LINE
  8
1
 62
7
 10
447.9224127692008
 20
37.63703771317893
 30
0
 11
447.9224127692008
 21
38.52756269386788
 31
0
  0
LINE
  8
1
 62
3
  6
DASHED
 10
455.2318877885119
 20
30.32756269386789
 30
0
 11
452.0204889805542
 21
30.32756269386789
 31
0
  0
LINE
  8
1
 62
3
  6
DASHED
 10
455.3545287491863
 20
30.92756269386791
 30
0
 11
452.2842303734518
 21
30.92756269386791
 31
0
  0
LINE
  8
1
 62
3
  6
DASHED
 10
455.3545287491863
 20
32.72756269386781
 30
0
 11
452.2842303734518
 21
32.72756269386781
 31
0
  0
LINE
  8
1
 62
3
  6
DASHED
 10
455.2318877885119
 20
33.32756269386783
 30
0
 11
452.0204889805542
 21
33.32756269386789
 31
0
  0
LINE
  8
1
 62
7
 10
456.4224127692008
 20
30.84717793613862
 30
0
 11
456.1224127692007
 21
30.32756269386795
 31
0
  0
LINE
  8
1
 62
7
 10
456.1224127692007
 20
30.32756269386795
 30
0
 11
456.1224127692007
 21
33.32756269386789
 31
0
  0
LINE
  8
1
 62
7
 10
456.1224127692007
 20
33.32756269386789
 30
0
 11
456.4224127692008
 21
32.80794745159727
 31
0
  0
LINE
  8
1
 62
7
 10
456.4224127692008
 20
32.80794745159727
 30
0
 11
456.4224127692008
 21
30.84717793613862
 31
0
  0
LINE
  8
1
 62
7
 10
456.1224127692007
 20
30.32756269386795
 30
0
 11
455.2318877885119
 21
30.32756269386789
 31
0
  0
LINE
  8
1
 62
3
  6
DASHED
 10
453.0224127692009
 20
30.32756269386795
 30
0
 11
452.4224127692008
 21
30.92756269386797
 31
0
  0
LINE
  8
1
 62
3
  6
DASHED
 10
452.4224127692008
 20
30.92756269386797
 30
0
 11
452.4224127692008
 21
32.72756269386792
 31
0
  0
LINE
  8
1
 62
3
  6
DASHED
 10
452.4224127692008
 20
32.72756269386792
 30
0
 11
453.0224127692009
 21
33.32756269386795
 31
0
  0
LINE
  8
1
 62
3
  6
DASHED
 10
453.0224127692009
 20
30.32756269386795
 30
0
 11
453.0224127692009
 21
33.32756269386795
 31
0
  0
LINE
  8
1
 62
3
 10
456.4224127692008
 20
30.92756269386797
 30
0
 11
455.3545287491863
 21
30.92756269386791
 31
0
  0
LINE
  8
1
 62
3
 10
456.4224127692008
 20
32.72756269386792
 30
0
 11
455.3545287491863
 21
32.72756269386781
 31
0
  0
LINE
  8
1
 62
7
 10
455.2318877885119
 20
33.32756269386783
 30
0
 11
456.1224127692007
 21
33.32756269386789
 31
0
  0
LINE
  8
1
 62
7
 10
446.6724127692008
 20
62.62756269386779
 30
0
 11
447.0188229307146
 21
62.82756269386783
 31
0
  0
LINE
  8
1
 62
7
 10
447.0188229307146
 20
62.82756269386783
 30
0
 11
451.8260026076871
 21
62.82756269386783
 31
0
  0
LINE
  8
1
 62
7
 10
451.8260026076871
 20
62.82756269386783
 30
0
 11
452.1724127692008
 21
62.62756269386779
 31
0
  0
LINE
  8
1
 62
7
 10
446.6724127692008
 20
62.62756269386779
 30
0
 11
452.1724127692008
 21
62.62756269386779
 31
0
  0
LINE
  8
1
 62
3
  6
DASHED
 10
446.6724127692008
 20
59.82756269386783
 30
0
 11
446.6724127692008
 21
61.95230335665195
 31
0
  0
LINE
  8
1
 62
7
 10
446.6724127692008
 20
62.62756269386779
 30
0
 11
447.0188229307146
 21
62.82756269386783
 31
0
  0
LINE
  8
1
 62
7
 10
446.6724127692008
 20
62.62756269386779
 30
0
 11
452.1724127692008
 21
62.62756269386779
 31
0
  0
LINE
  8
1
 62
7
 10
452.1724127692008
 20
62.62756269386779
 30
0
 11
452.1724127692008
 21
61.95230335665195
 31
0
  0
LINE
  8
1
 62
7
 10
332.0224127692007
 20
18.78756269386783
 30
0
 11
332.0224127692007
 21
25.82756269386782
 31
0
  0
LINE
  8
1
 62
7
 10
345.4224127692007
 20
18.00781914628304
 30
0
 11
345.4224127692007
 21
17.32756269386783
 31
0
  0
LINE
  8
1
 62
7
 10
345.4224127692007
 20
17.82756269386784
 30
0
 11
352.0624127692008
 21
17.82756269386782
 31
0
  0
LINE
  8
1
 62
7
 10
345.4224127692007
 20
45.82756269386781
 30
0
 11
352.8724127692008
 21
45.82756269386781
 31
0
  0
LINE
  8
1
 62
7
 10
331.6224127692008
 20
18.00781914628314
 30
0
 11
331.6224127692008
 21
17.32756269386784
 31
0
  0
LINE
  8
1
 62
7
 10
331.6224127692008
 20
46.32756269386781
 30
0
 11
331.6224127692008
 21
45.6473062414525
 31
0
  0
LINE
  8
1
 62
7
 10
331.1224127692008
 20
46.32756269386781
 30
0
 11
331.1224127692008
 21
58.32756269386781
 31
0
  0
LINE
  8
1
 62
7
 10
324.7424127692005
 20
45.82756269386781
 30
0
 11
331.6224127692008
 21
45.82756269386789
 31
0
  0
LINE
  8
1
 62
7
 10
345.9224127692007
 20
17.32756269386784
 30
0
 11
345.9224127692007
 21
5.327562693867829
 31
0
  0
LINE
  8
1
 62
7
 10
345.0224127692007
 20
44.86756269386782
 30
0
 11
345.0224127692007
 21
37.82756269386782
 31
0
  0
LINE
  8
1
 62
7
 10
345.4224127692007
 20
46.32756269386783
 30
0
 11
345.4224127692007
 21
45.64730624145248
 31
0
  0
LINE
  8
1
 62
7
 10
546.0224127692007
 20
32.32756269386785
 30
0
 11
546.0224127692007
 21
31.32756269386785
 31
0
  0
LINE
  8
1
 62
7
 10
546.0224127692007
 20
31.32756269386785
 30
0
 11
546.0224127692007
 21
1.577562693867847
 31
0
  0
LINE
  8
1
 62
7
 10
543.0224127692007
 20
31.32756269386785
 30
0
 11
543.0224127692007
 21
32.32756269386785
 31
0
  0
LINE
  8
1
 62
7
 10
543.0224127692007
 20
32.32756269386785
 30
0
 11
543.0224127692007
 21
62.07756269386784
 31
0
  0
LINE
  8
1
 62
7
 10
543.0224127692007
 20
31.32756269386785
 30
0
 11
546.0224127692007
 21
31.32756269386785
 31
0
  0
LINE
  8
1
 62
7
 10
543.0224127692007
 20
32.32756269386785
 30
0
 11
546.0224127692007
 21
32.32756269386785
 31
0
  0
LINE
  8
1
 62
7
 10
546.1224127692008
 20
61.82756269386784
 30
0
 11
546.1224127692008
 21
1.827562693867847
 31
0
  0
LINE
  8
1
 62
7
 10
352.9224127692007
 20
1.82756269386784
 30
0
 11
351.2724127692007
 21
1.82756269386784
 31
0
  0
LINE
  8
1
 62
7
 10
352.9224127692007
 20
5.327562693867833
 30
0
 11
352.9224127692007
 21
1.82756269386784
 31
0
  0
LINE
  8
1
 62
7
 10
352.9224127692007
 20
61.82756269386781
 30
0
 11
352.9224127692007
 21
58.32756269386781
 31
0
  0
LINE
  8
1
 62
7
 10
547.0224127692007
 20
5.630294229388544
 30
0
 11
549.0224127692007
 21
5.630294229388544
 31
0
  0
LINE
  8
1
 62
7
 10
547.0224127692007
 20
8.654718289518726
 30
0
 11
549.0224127692007
 21
8.654718289518726
 31
0
  0
LINE
  8
1
 62
7
 10
547.0224127692007
 20
12.38323750085
 30
0
 11
549.0224127692007
 21
12.38323750085
 31
0
  0
LINE
  8
1
 62
7
 10
547.0224127692007
 20
16.70256269386781
 30
0
 11
549.0224127692007
 21
16.70256269386781
 31
0
  0
LINE
  8
1
 62
7
 10
547.0224127692007
 20
21.48145335826633
 30
0
 11
549.0224127692007
 21
21.48145335826633
 31
0
  0
LINE
  8
1
 62
7
 10
547.0224127692007
 20
26.57470531944317
 30
0
 11
549.0224127692007
 21
26.57470531944317
 31
0
  0
LINE
  8
1
 62
3
 10
549.5997630383904
 20
58.32756269386784
 30
0
 11
549.0224127692007
 21
59.32756269386784
 31
0
  0
LINE
  8
1
 62
3
 10
551.4450625000111
 20
58.32756269386784
 30
0
 11
552.0224127692007
 21
59.32756269386784
 31
0
  0
LINE
  8
1
 62
7
 10
549.0224127692007
 20
58.32756269386784
 30
0
 11
549.0224127692007
 21
59.82756269386784
 31
0
  0
LINE
  8
1
 62
7
 10
547.7724127692007
 20
61.82756269386784
 30
0
 11
546.1224127692008
 21
61.82756269386784
 31
0
  0
LINE
  8
1
 62
3
  6
DASHDOT
 10
550.5224127692007
 20
64.66845224703663
 30
0
 11
550.5224127692007
 21
41.73975274510022
 31
0
  0
LINE
  8
1
 62
7
 10
552.0224127692007
 20
59.82756269386784
 30
0
 11
552.0224127692007
 21
58.32756269386784
 31
0
  0
LINE
  8
1
 62
7
 10
571.5224127692007
 20
32.40491296305747
 30
0
 11
570.5224127692007
 21
32.98226323224709
 31
0
  0
LINE
  8
1
 62
7
 10
571.5224127692007
 20
31.25021242467822
 30
0
 11
571.5224127692007
 21
32.40491296305747
 31
0
  0
LINE
  8
1
 62
7
 10
570.5224127692007
 20
30.6728621554886
 30
0
 11
571.5224127692007
 21
31.25021242467822
 31
0
  0
LINE
  8
1
 62
7
 10
569.5224127692007
 20
31.25021242467822
 30
0
 11
570.5224127692007
 21
30.6728621554886
 31
0
  0
LINE
  8
1
 62
7
 10
569.5224127692007
 20
32.40491296305747
 30
0
 11
569.5224127692007
 21
31.25021242467822
 31
0
  0
LINE
  8
1
 62
7
 10
570.5224127692007
 20
32.98226323224709
 30
0
 11
569.5224127692007
 21
32.40491296305747
 31
0
  0
LINE
  8
1
 62
3
  6
DASHDOT
 10
570.5224127692007
 20
25.63460207142683
 30
0
 11
570.5224127692007
 21
37.61800911900111
 31
0
  0
LINE
  8
1
 62
7
 10
553.5224127692007
 20
59.82756269386784
 30
0
 11
547.5224127692007
 21
59.82756269386784
 31
0
  0
LINE
  8
1
 62
7
 10
552.2224127692008
 20
58.32756269386784
 30
0
 11
548.8224127692008
 21
58.32756269386784
 31
0
  0
LINE
  8
1
 62
7
 10
548.8224127692008
 20
46.05531950743434
 30
0
 11
548.8224127692008
 21
59.82756269386784
 31
0
  0
LINE
  8
1
 62
7
 10
552.2224127692008
 20
46.05531950743434
 30
0
 11
552.2224127692008
 21
59.82756269386784
 31
0
  0
LINE
  8
1
 62
7
 10
547.5224127692007
 20
47.15429803911388
 30
0
 11
547.5224127692007
 21
61.82756269386784
 31
0
  0
LINE
  8
1
 62
7
 10
553.5224127692007
 20
47.15429803911388
 30
0
 11
553.5224127692007
 21
61.82756269386784
 31
0
  0
LINE
  8
1
 62
7
 10
575.0224127692007
 20
1.827562693867847
 30
0
 11
575.0224127692007
 21
61.82756269386784
 31
0
  0
LINE
  8
1
 62
7
 10
578.0224127692007
 20
61.82756269386784
 30
0
 11
578.0224127692007
 21
1.827562693867847
 31
0
  0
LINE
  8
1
 62
7
 10
578.0224127692007
 20
1.827562693867847
 30
0
 11
546.1224127692008
 21
1.827562693867847
 31
0
  0
LINE
  8
1
 62
7
 10
347.0224127692007
 20
5.32756269386784
 30
0
 11
324.0224127692007
 21
5.32756269386784
 31
0
  0
LINE
  8
1
 62
3
  6
DASHDOT
 10
534.0224127692007
 20
31.82756269386785
 30
0
 11
579.6647362058351
 21
31.82756269386785
 31
0
  0
LINE
  8
1
 62
7
 10
334.0224127692007
 20
44.82756269386781
 30
0
 11
333.0224127692007
 21
43.82756269386782
 31
0
  0
LINE
  8
1
 62
7
 10
332.0224127692007
 20
41.82756269386782
 30
0
 11
333.0224127692007
 21
41.82756269386782
 31
0
  0
LINE
  8
1
 62
7
 10
333.0224127692007
 20
41.82756269386782
 30
0
 11
333.0224127692007
 21
43.82756269386782
 31
0
  0
LINE
  8
1
 62
7
 10
334.0224127692007
 20
44.82756269386781
 30
0
 11
336.5224127692007
 21
44.82756269386781
 31
0
  0
LINE
  8
1
 62
7
 10
336.5224127692007
 20
57.82756269386781
 30
0
 11
336.5224127692007
 21
44.82756269386781
 31
0
  0
LINE
  8
1
 62
7
 10
340.5224127692007
 20
57.82756269386781
 30
0
 11
336.5224127692007
 21
57.82756269386781
 31
0
  0
LINE
  8
1
 62
7
 10
340.5224127692007
 20
44.82756269386781
 30
0
 11
343.0224127692007
 21
44.82756269386781
 31
0
  0
LINE
  8
1
 62
7
 10
344.0224127692007
 20
43.82756269386782
 30
0
 11
344.0224127692007
 21
41.82756269386782
 31
0
  0
LINE
  8
1
 62
7
 10
344.0224127692007
 20
41.82756269386782
 30
0
 11
345.0224127692007
 21
41.82756269386782
 31
0
  0
LINE
  8
1
 62
7
 10
344.0224127692007
 20
43.82756269386782
 30
0
 11
343.0224127692007
 21
44.82756269386781
 31
0
  0
LINE
  8
1
 62
3
  6
DASHDOT
 10
360.0224127692007
 20
40.27612667554175
 30
0
 11
360.0224127692007
 21
29.24530221175697
 31
0
  0
LINE
  8
1
 62
7
 10
363.0224127692007
 20
37.82756269386782
 30
0
 11
361.5224127692007
 21
37.82756269386782
 31
0
  0
LINE
  8
1
 62
7
 10
323.0224127692007
 20
34.82756269386782
 30
0
 11
363.0224127692007
 21
34.82756269386782
 31
0
  0
LINE
  8
1
 62
7
 10
363.0224127692007
 20
37.82756269386782
 30
0
 11
363.0224127692007
 21
25.82756269386782
 31
0
  0
LINE
  8
1
 62
3
 10
358.5224127692007
 20
34.82756269386782
 30
0
 11
358.5224127692006
 21
35.42756269386782
 31
0
  0
LINE
  8
1
 62
7
 10
352.8724127692008
 20
45.38282961498715
 30
0
 11
352.8724127692008
 21
46.52756269386783
 31
0
  0
LINE
  8
1
 62
7
 10
352.2224127692006
 20
39.4275626938678
 30
0
 11
352.2224127692006
 21
44.22756269386782
 31
0
  0
LINE
  8
1
 62
7
 10
345.8224127692008
 20
39.4275626938678
 30
0
 11
345.8224127692008
 21
44.22756269386782
 31
0
  0
LINE
  8
1
 62
7
 10
347.8224127692008
 20
39.74910172478518
 30
0
 11
345.0224127692007
 21
39.74910172478518
 31
0
  0
LINE
  8
1
 62
7
 10
350.2224127692006
 20
39.74910172478515
 30
0
 11
353.0224127692006
 21
39.74910172478515
 31
0
  0
LINE
  8
1
 62
7
 10
350.2224127692006
 20
43.90602366295048
 30
0
 11
353.0224127692006
 21
43.90602366295048
 31
0
  0
LINE
  8
1
 62
7
 10
347.8224127692008
 20
43.90602366295045
 30
0
 11
345.0224127692007
 21
43.90602366295045
 31
0
  0
LINE
  8
1
 62
7
 10
354.2224127692006
 20
43.52756269386783
 30
0
 11
353.0224127692007
 21
43.52756269386783
 31
0
  0
LINE
  8
1
 62
7
 10
354.2224127692006
 20
46.52756269386783
 30
0
 11
354.2224127692006
 21
37.82756269386782
 31
0
  0
LINE
  8
1
 62
7
 10
353.0224127692007
 20
58.32756269386781
 30
0
 11
353.0224127692007
 21
62.07756269386781
 31
0
  0
LINE
  8
1
 62
7
 10
353.0224127692007
 20
62.07756269386781
 30
0
 11
356.0224127692007
 21
62.07756269386781
 31
0
  0
LINE
  8
1
 62
7
 10
352.8724127692008
 20
46.52756269386783
 30
0
 11
354.2224127692006
 21
46.52756269386783
 31
0
  0
LINE
  8
1
 62
7
 10
345.9224127692007
 20
58.32756269386781
 30
0
 11
345.9224127692007
 21
46.32756269386781
 31
0
  0
LINE
  8
1
 62
7
 10
354.2224127692006
 20
45.82756269386782
 30
0
 11
356.0224127692007
 21
45.82756269386781
 31
0
  0
LINE
  8
1
 62
7
 10
341.9224127692007
 20
57.82756269386781
 30
0
 11
341.9224127692007
 21
44.8275626938678
 31
0
  0
LINE
  8
1
 62
7
 10
345.9224127692007
 20
57.82756269386781
 30
0
 11
341.9224127692007
 21
57.82756269386781
 31
0
  0
LINE
  8
1
 62
7
 10
345.9224127692007
 20
46.32756269386781
 30
0
 11
341.9224127692007
 21
46.32756269386781
 31
0
  0
LINE
  8
1
 62
7
 10
323.0224127692007
 20
37.82756269386782
 30
0
 11
323.0224127692007
 21
25.82756269386782
 31
0
  0
LINE
  8
1
 62
7
 10
356.0224127692007
 20
37.82756269386782
 30
0
 11
356.0224127692007
 21
62.07756269386781
 31
0
  0
LINE
  8
1
 62
7
 10
353.0224127692007
 20
37.82756269386782
 30
0
 11
353.0224127692007
 21
46.52756269386783
 31
0
  0
LINE
  8
1
 62
7
 10
324.1724127692007
 20
46.52756269386783
 30
0
 11
324.1724127692007
 21
45.38282961498715
 31
0
  0
LINE
  8
1
 62
7
 10
324.8224127692008
 20
44.22756269386782
 30
0
 11
324.8224127692008
 21
39.4275626938678
 31
0
  0
LINE
  8
1
 62
7
 10
331.2224127692007
 20
44.22756269386782
 30
0
 11
331.2224127692007
 21
39.4275626938678
 31
0
  0
LINE
  8
1
 62
7
 10
332.0224127692007
 20
39.74910172478515
 30
0
 11
329.2224127692007
 21
39.74910172478515
 31
0
  0
LINE
  8
1
 62
7
 10
324.0224127692007
 20
39.74910172478518
 30
0
 11
326.8224127692008
 21
39.74910172478518
 31
0
  0
LINE
  8
1
 62
7
 10
324.0224127692007
 20
43.90602366295045
 30
0
 11
326.8224127692008
 21
43.90602366295045
 31
0
  0
LINE
  8
1
 62
7
 10
332.0224127692007
 20
43.90602366295048
 30
0
 11
329.2224127692007
 21
43.90602366295048
 31
0
  0
LINE
  8
1
 62
7
 10
324.0224127692007
 20
43.52756269386783
 30
0
 11
322.8224127692008
 21
43.52756269386783
 31
0
  0
LINE
  8
1
 62
7
 10
324.0224127692007
 20
46.52756269386783
 30
0
 11
324.0224127692007
 21
37.82756269386782
 31
0
  0
LINE
  8
1
 62
7
 10
324.0224127692007
 20
61.82756269386781
 30
0
 11
324.0224127692007
 21
58.32756269386781
 31
0
  0
LINE
  8
1
 62
7
 10
322.8224127692008
 20
46.52756269386783
 30
0
 11
324.1724127692007
 21
46.52756269386783
 31
0
  0
LINE
  8
1
 62
7
 10
324.7424127692005
 20
45.82756269386781
 30
0
 11
324.1724127692007
 21
45.82756269386781
 31
0
  0
LINE
  8
1
 62
7
 10
321.0224127692006
 20
45.82756269386781
 30
0
 11
322.8224127692008
 21
45.82756269386782
 31
0
  0
LINE
  8
1
 62
7
 10
335.1224127692008
 20
57.82756269386781
 30
0
 11
331.1224127692008
 21
57.82756269386781
 31
0
  0
LINE
  8
1
 62
7
 10
335.1224127692008
 20
46.32756269386781
 30
0
 11
331.1224127692008
 21
46.32756269386781
 31
0
  0
LINE
  8
1
 62
7
 10
322.8224127692008
 20
46.52756269386783
 30
0
 11
322.8224127692008
 21
17.12756269386782
 31
0
  0
LINE
  8
1
 62
7
 10
335.1224127692008
 20
44.82756269386781
 30
0
 11
335.1224127692008
 21
57.82756269386781
 31
0
  0
LINE
  8
1
 62
7
 10
332.0224127692007
 20
37.82756269386782
 30
0
 11
332.0224127692007
 21
44.8675626938678
 31
0
  0
LINE
  8
1
 62
7
 10
345.7724127692007
 20
61.82756269386781
 30
0
 11
330.2296149156692
 21
61.82756269386781
 31
0
  0
LINE
  8
1
 62
7
 10
347.6224127692008
 20
45.82756269386781
 30
0
 11
347.6224127692008
 21
58.32756269386781
 31
0
  0
LINE
  8
1
 62
7
 10
349.4224127692007
 20
58.32756269386781
 30
0
 11
349.4224127692007
 21
45.82756269386782
 31
0
  0
LINE
  8
1
 62
3
 10
347.0224127692007
 20
50.32756269386781
 30
0
 11
347.0224127692007
 21
58.32756269386781
 31
0
  0
LINE
  8
1
 62
3
 10
350.0224127692007
 20
50.32756269386781
 30
0
 11
347.0224127692007
 21
50.32756269386781
 31
0
  0
LINE
  8
1
 62
3
 10
350.0224127692007
 20
58.32756269386781
 30
0
 11
350.0224127692007
 21
50.32756269386781
 31
0
  0
LINE
  8
1
 62
3
 10
347.6224127692008
 20
49.28833220932649
 30
0
 11
347.0224127692007
 21
50.32756269386781
 31
0
  0
LINE
  8
1
 62
3
 10
349.4224127692007
 20
49.28833220932649
 30
0
 11
350.0224127692007
 21
50.32756269386781
 31
0
  0
LINE
  8
1
 62
3
  6
DASHDOT
 10
348.5224127692007
 20
45.28002434932546
 30
0
 11
348.5224127692007
 21
63.23401890082746
 31
0
  0
LINE
  8
1
 62
7
 10
347.0224127692007
 20
58.32756269386781
 30
0
 11
330.0224127692007
 21
58.32756269386781
 31
0
  0
LINE
  8
1
 62
7
 10
349.4224127692007
 20
50.32756269386781
 30
0
 11
347.6224127692008
 21
50.32756269386781
 31
0
  0
LINE
  8
1
 62
7
 10
350.0224127692007
 20
59.82756269386781
 30
0
 11
350.0224127692007
 21
52.42756269386781
 31
0
  0
LINE
  8
1
 62
7
 10
350.0224127692007
 20
52.42756269386781
 30
0
 11
349.4224127692007
 21
51.82756269386781
 31
0
  0
LINE
  8
1
 62
7
 10
349.4224127692007
 20
51.82756269386781
 30
0
 11
347.6224127692008
 21
51.82756269386781
 31
0
  0
LINE
  8
1
 62
7
 10
347.6224127692008
 20
51.82756269386781
 30
0
 11
347.0224127692007
 21
52.42756269386781
 31
0
  0
LINE
  8
1
 62
7
 10
347.0224127692007
 20
52.42756269386781
 30
0
 11
347.0224127692007
 21
59.82756269386781
 31
0
  0
LINE
  8
1
 62
7
 10
350.0224127692007
 20
52.42756269386781
 30
0
 11
347.0224127692007
 21
52.42756269386781
 31
0
  0
LINE
  8
1
 62
3
 10
349.4224127692007
 20
58.28833220932648
 30
0
 11
350.0224127692007
 21
59.32756269386781
 31
0
  0
LINE
  8
1
 62
3
 10
347.6224127692008
 20
58.28833220932648
 30
0
 11
347.0224127692007
 21
59.32756269386781
 31
0
  0
LINE
  8
1
 62
3
 10
350.0224127692007
 20
58.28833220932648
 30
0
 11
347.0224127692007
 21
58.28833220932648
 31
0
  0
LINE
  8
1
 62
7
 10
351.2724127692007
 20
61.82756269386781
 30
0
 11
352.9224127692007
 21
61.82756269386781
 31
0
  0
LINE
  8
1
 62
7
 10
350.0224127692007
 20
58.32756269386781
 30
0
 11
353.0224127692007
 21
58.32756269386781
 31
0
  0
LINE
  8
1
 62
7
 10
345.5224127692007
 20
61.82756269386781
 30
0
 11
345.5224127692007
 21
59.82756269386781
 31
0
  0
LINE
  8
1
 62
7
 10
345.5224127692007
 20
59.82756269386781
 30
0
 11
351.5224127692007
 21
59.82756269386781
 31
0
  0
LINE
  8
1
 62
7
 10
351.5224127692007
 20
61.82756269386781
 30
0
 11
351.5224127692007
 21
59.82756269386781
 31
0
  0
LINE
  8
1
 62
7
 10
324.0224127692007
 20
58.32756269386781
 30
0
 11
327.0224127692007
 21
58.32756269386781
 31
0
  0
LINE
  8
1
 62
3
  6
DASHDOT
 10
319.2963547765431
 20
31.82756269386782
 30
0
 11
365.6829518599391
 21
31.82756269386782
 31
0
  0
LINE
  8
1
 62
7
 10
333.0224127692007
 20
19.82756269386782
 30
0
 11
334.0224127692007
 21
18.82756269386782
 31
0
  0
LINE
  8
1
 62
7
 10
333.0224127692007
 20
21.82756269386782
 30
0
 11
332.0224127692007
 21
21.82756269386782
 31
0
  0
LINE
  8
1
 62
7
 10
333.0224127692007
 20
19.82756269386782
 30
0
 11
333.0224127692007
 21
21.82756269386782
 31
0
  0
LINE
  8
1
 62
7
 10
336.5224127692007
 20
18.82756269386782
 30
0
 11
334.0224127692007
 21
18.82756269386782
 31
0
  0
LINE
  8
1
 62
7
 10
336.5224127692007
 20
5.827562693867822
 30
0
 11
340.5224127692007
 21
5.827562693867822
 31
0
  0
LINE
  8
1
 62
7
 10
340.5224127692007
 20
5.827562693867822
 30
0
 11
340.5224127692007
 21
18.82756269386782
 31
0
  0
LINE
  8
1
 62
7
 10
343.0224127692007
 20
18.82756269386782
 30
0
 11
340.5224127692007
 21
18.82756269386782
 31
0
  0
LINE
  8
1
 62
7
 10
344.0224127692007
 20
21.82756269386782
 30
0
 11
344.0224127692007
 21
19.82756269386782
 31
0
  0
LINE
  8
1
 62
7
 10
345.0224127692007
 20
21.82756269386782
 30
0
 11
344.0224127692007
 21
21.82756269386782
 31
0
  0
LINE
  8
1
 62
7
 10
345.0224127692007
 20
25.82756269386782
 30
0
 11
345.0224127692007
 21
21.82756269386782
 31
0
  0
LINE
  8
1
 62
7
 10
343.0224127692007
 20
18.82756269386782
 30
0
 11
344.0224127692007
 21
19.82756269386782
 31
0
  0
LINE
  8
1
 62
7
 10
323.0224127692007
 20
25.82756269386782
 30
0
 11
363.0224127692007
 21
25.82756269386782
 31
0
  0
LINE
  8
1
 62
7
 10
363.0224127692007
 20
28.82756269386782
 30
0
 11
323.0224127692007
 21
28.82756269386782
 31
0
  0
LINE
  8
1
 62
7
 10
352.8724127692008
 20
17.12756269386782
 30
0
 11
352.8724127692008
 21
18.2722957727485
 31
0
  0
LINE
  8
1
 62
7
 10
352.2224127692006
 20
19.42756269386783
 30
0
 11
352.2224127692006
 21
24.22756269386784
 31
0
  0
LINE
  8
1
 62
7
 10
345.8224127692008
 20
19.42756269386783
 30
0
 11
345.8224127692008
 21
24.22756269386784
 31
0
  0
LINE
  8
1
 62
7
 10
345.0224127692007
 20
23.90602366295047
 30
0
 11
347.8224127692008
 21
23.90602366295047
 31
0
  0
LINE
  8
1
 62
7
 10
353.0224127692006
 20
23.90602366295049
 30
0
 11
350.2224127692006
 21
23.90602366295049
 31
0
  0
LINE
  8
1
 62
7
 10
353.0224127692006
 20
19.74910172478517
 30
0
 11
350.2224127692006
 21
19.74910172478517
 31
0
  0
LINE
  8
1
 62
7
 10
345.0224127692007
 20
19.74910172478518
 30
0
 11
347.8224127692008
 21
19.74910172478518
 31
0
  0
LINE
  8
1
 62
7
 10
353.0224127692007
 20
20.12756269386782
 30
0
 11
354.2224127692006
 21
20.12756269386782
 31
0
  0
LINE
  8
1
 62
7
 10
354.2224127692006
 20
25.82756269386782
 30
0
 11
354.2224127692006
 21
17.12756269386782
 31
0
  0
LINE
  8
1
 62
7
 10
353.0224127692007
 20
1.577562693867833
 30
0
 11
353.0224127692007
 21
5.327562693867833
 31
0
  0
LINE
  8
1
 62
7
 10
356.0224127692007
 20
1.577562693867833
 30
0
 11
353.0224127692007
 21
1.577562693867833
 31
0
  0
LINE
  8
1
 62
7
 10
345.0224127692007
 20
25.82756269386782
 30
0
 11
345.0224127692007
 21
18.78756269386783
 31
0
  0
LINE
  8
1
 62
7
 10
356.0224127692007
 20
1.577562693867833
 30
0
 11
356.0224127692007
 21
25.82756269386782
 31
0
  0
LINE
  8
1
 62
7
 10
356.0224127692007
 20
17.82756269386784
 30
0
 11
354.2224127692006
 21
17.82756269386784
 31
0
  0
LINE
  8
1
 62
7
 10
341.9224127692007
 20
18.82756269386782
 30
0
 11
341.9224127692007
 21
5.82756269386784
 31
0
  0
LINE
  8
1
 62
7
 10
341.9224127692007
 20
5.82756269386784
 30
0
 11
345.9224127692007
 21
5.82756269386784
 31
0
  0
LINE
  8
1
 62
7
 10
341.9224127692007
 20
17.32756269386784
 30
0
 11
345.9224127692007
 21
17.32756269386784
 31
0
  0
LINE
  8
1
 62
7
 10
353.0224127692007
 20
17.12756269386782
 30
0
 11
353.0224127692007
 21
25.82756269386782
 31
0
  0
LINE
  8
1
 62
7
 10
324.1724127692007
 20
18.2722957727485
 30
0
 11
324.1724127692007
 21
17.12756269386782
 31
0
  0
LINE
  8
1
 62
7
 10
324.8224127692008
 20
24.22756269386784
 30
0
 11
324.8224127692008
 21
19.42756269386783
 31
0
  0
LINE
  8
1
 62
7
 10
331.2224127692007
 20
24.22756269386784
 30
0
 11
331.2224127692007
 21
19.42756269386783
 31
0
  0
LINE
  8
1
 62
7
 10
329.2224127692007
 20
23.90602366295049
 30
0
 11
332.0224127692007
 21
23.90602366295049
 31
0
  0
LINE
  8
1
 62
7
 10
326.8224127692008
 20
23.90602366295047
 30
0
 11
324.0224127692007
 21
23.90602366295047
 31
0
  0
LINE
  8
1
 62
7
 10
326.8224127692008
 20
19.74910172478518
 30
0
 11
324.0224127692007
 21
19.74910172478518
 31
0
  0
LINE
  8
1
 62
7
 10
329.2224127692007
 20
19.74910172478517
 30
0
 11
332.0224127692007
 21
19.74910172478517
 31
0
  0
LINE
  8
1
 62
7
 10
322.8224127692008
 20
20.12756269386782
 30
0
 11
324.0224127692007
 21
20.12756269386782
 31
0
  0
LINE
  8
1
 62
7
 10
324.0224127692007
 20
25.82756269386782
 30
0
 11
324.0224127692007
 21
17.12756269386782
 31
0
  0
LINE
  8
1
 62
7
 10
324.0224127692007
 20
5.32756269386784
 30
0
 11
324.0224127692007
 21
1.82756269386784
 31
0
  0
LINE
  8
1
 62
7
 10
324.1724127692007
 20
17.12756269386782
 30
0
 11
322.8224127692008
 21
17.12756269386782
 31
0
  0
LINE
  8
1
 62
7
 10
324.1724127692007
 20
17.82756269386784
 30
0
 11
331.6224127692008
 21
17.82756269386784
 31
0
  0
LINE
  8
1
 62
7
 10
321.0224127692007
 20
1.82756269386784
 30
0
 11
321.0224127692007
 21
61.82756269386781
 31
0
  0
LINE
  8
1
 62
7
 10
331.1224127692008
 20
5.32756269386784
 30
0
 11
331.1224127692008
 21
17.32756269386784
 31
0
  0
LINE
  8
1
 62
7
 10
322.8224127692008
 20
17.82756269386784
 30
0
 11
321.0224127692006
 21
17.82756269386784
 31
0
  0
LINE
  8
1
 62
7
 10
331.1224127692008
 20
5.82756269386784
 30
0
 11
335.1224127692008
 21
5.82756269386784
 31
0
  0
LINE
  8
1
 62
7
 10
331.1224127692008
 20
17.32756269386784
 30
0
 11
335.1224127692008
 21
17.32756269386784
 31
0
  0
LINE
  8
1
 62
7
 10
335.1224127692008
 20
5.82756269386784
 30
0
 11
335.1224127692008
 21
18.82756269386782
 31
0
  0
LINE
  8
1
 62
7
 10
345.7724127692007
 20
1.82756269386784
 30
0
 11
321.0224127692007
 21
1.82756269386784
 31
0
  0
LINE
  8
1
 62
7
 10
347.6224127692008
 20
5.32756269386784
 30
0
 11
347.6224127692008
 21
17.82756269386784
 31
0
  0
LINE
  8
1
 62
7
 10
349.4224127692007
 20
17.82756269386784
 30
0
 11
349.4224127692007
 21
5.327562693867844
 31
0
  0
LINE
  8
1
 62
3
 10
347.0224127692007
 20
5.32756269386784
 30
0
 11
347.0224127692007
 21
13.32756269386784
 31
0
  0
LINE
  8
1
 62
3
 10
347.0224127692007
 20
13.32756269386784
 30
0
 11
350.0224127692007
 21
13.32756269386784
 31
0
  0
LINE
  8
1
 62
3
 10
350.0224127692007
 20
13.32756269386784
 30
0
 11
350.0224127692007
 21
5.32756269386784
 31
0
  0
LINE
  8
1
 62
3
 10
347.0224127692007
 20
13.32756269386784
 30
0
 11
347.6224127692008
 21
14.36679317840916
 31
0
  0
LINE
  8
1
 62
3
 10
350.0224127692007
 20
13.32756269386784
 30
0
 11
349.4224127692007
 21
14.36679317840916
 31
0
  0
LINE
  8
1
 62
3
  6
DASHDOT
 10
348.5224127692007
 20
0.421106486908192
 30
0
 11
348.5224127692007
 21
18.37510103841018
 31
0
  0
LINE
  8
1
 62
7
 10
347.6224127692008
 20
13.32756269386783
 30
0
 11
349.4224127692007
 21
13.32756269386783
 31
0
  0
LINE
  8
1
 62
7
 10
350.0224127692007
 20
11.22756269386784
 30
0
 11
350.0224127692007
 21
3.82756269386784
 31
0
  0
LINE
  8
1
 62
7
 10
349.4224127692007
 20
11.82756269386784
 30
0
 11
350.0224127692007
 21
11.22756269386784
 31
0
  0
LINE
  8
1
 62
7
 10
347.6224127692008
 20
11.82756269386784
 30
0
 11
349.4224127692007
 21
11.82756269386784
 31
0
  0
LINE
  8
1
 62
7
 10
347.0224127692007
 20
11.22756269386784
 30
0
 11
347.6224127692008
 21
11.82756269386784
 31
0
  0
LINE
  8
1
 62
7
 10
347.0224127692007
 20
3.82756269386784
 30
0
 11
347.0224127692007
 21
11.22756269386784
 31
0
  0
LINE
  8
1
 62
7
 10
347.0224127692007
 20
11.22756269386784
 30
0
 11
350.0224127692007
 21
11.22756269386784
 31
0
  0
LINE
  8
1
 62
3
 10
350.0224127692007
 20
4.32756269386784
 30
0
 11
349.4224127692007
 21
5.366793178409171
 31
0
  0
LINE
  8
1
 62
3
 10
347.0224127692007
 20
4.32756269386784
 30
0
 11
347.6224127692008
 21
5.366793178409171
 31
0
  0
LINE
  8
1
 62
3
 10
347.0224127692007
 20
5.366793178409171
 30
0
 11
350.0224127692007
 21
5.366793178409171
 31
0
  0
LINE
  8
1
 62
7
 10
353.0224127692007
 20
5.327562693867833
 30
0
 11
350.0224127692007
 21
5.32756269386784
 31
0
  0
LINE
  8
1
 62
7
 10
345.5224127692007
 20
3.82756269386784
 30
0
 11
345.5224127692007
 21
1.82756269386784
 31
0
  0
LINE
  8
1
 62
7
 10
351.5224127692007
 20
3.82756269386784
 30
0
 11
345.5224127692007
 21
3.82756269386784
 31
0
  0
LINE
  8
1
 62
7
 10
351.5224127692007
 20
3.82756269386784
 30
0
 11
351.5224127692007
 21
1.82756269386784
 31
0
  0
LINE
  8
1
 62
7
 10
536.0224127692007
 20
25.82756269386785
 30
0
 11
543.0224127692007
 21
25.82756269386785
 31
0
  0
LINE
  8
1
 62
7
 10
536.0224127692007
 20
25.82756269386785
 30
0
 11
536.0224127692007
 21
37.82756269386785
 31
0
  0
LINE
  8
1
 62
7
 10
546.0224127692007
 20
1.577562693867847
 30
0
 11
543.0224127692007
 21
1.577562693867847
 31
0
  0
LINE
  8
1
 62
7
 10
543.0224127692007
 20
1.577562693867847
 30
0
 11
543.0224127692007
 21
31.32756269386785
 31
0
  0
LINE
  8
1
 62
7
 10
543.0224127692007
 20
62.07756269386784
 30
0
 11
546.0224127692007
 21
62.07756269386784
 31
0
  0
LINE
  8
1
 62
7
 10
578.0224127692007
 20
61.82756269386784
 30
0
 11
553.2724127692007
 21
61.82756269386784
 31
0
  0
LINE
  8
1
 62
7
 10
546.0224127692007
 20
62.07756269386784
 30
0
 11
546.0224127692007
 21
32.32756269386785
 31
0
  0
LINE
  8
1
 62
7
 10
543.0224127692007
 20
37.82756269386785
 30
0
 11
536.0224127692007
 21
37.82756269386785
 31
0
  0
LINE
  8
1
 62
3
  6
DASHDOT
 10
539.0224127692007
 20
29.01787063074694
 30
0
 11
539.0224127692007
 21
34.40982317597873
 31
0
  0
LINE
  8
1
 62
7
 10
547.0224127692007
 20
35.82756269386785
 30
0
 11
547.0224127692007
 21
2.612753898064469
 31
0
  0
LINE
  8
1
 62
7
 10
547.0224127692007
 20
2.612753898064469
 30
0
 11
553.0224127692007
 21
2.612753898064469
 31
0
  0
LINE
  8
1
 62
7
 10
553.0224127692007
 20
2.612753898064469
 30
0
 11
553.0224127692007
 21
35.82756269386784
 31
0
  0
LINE
  8
1
 62
7
 10
553.0224127692007
 20
35.82756269386784
 30
0
 11
547.0224127692007
 21
35.82756269386785
 31
0
  0
LINE
  8
1
 62
7
 10
547.0224127692007
 20
31.82756269386785
 30
0
 11
549.0224127692007
 21
31.82756269386785
 31
0
  0
LINE
  8
1
 62
7
 10
325.5224127692007
 20
58.32756269386781
 30
0
 11
327.0224127692007
 21
58.32756269386781
 31
0
  0
LINE
  8
1
 62
7
 10
331.2724127692007
 20
59.82756269386781
 30
0
 11
331.2724127692007
 21
60.22756269386779
 31
0
  0
LINE
  8
1
 62
7
 10
331.2724127692007
 20
60.22756269386779
 30
0
 11
325.7724127692007
 21
60.22756269386779
 31
0
  0
LINE
  8
1
 62
7
 10
325.7724127692007
 20
60.22756269386779
 30
0
 11
325.7724127692007
 21
59.82756269386781
 31
0
  0
LINE
  8
1
 62
7
 10
330.0224127692009
 20
61.97756269386781
 30
0
 11
327.0224127692007
 21
61.97756269386779
 31
0
  0
LINE
  8
1
 62
7
 10
330.0224127692007
 20
59.82756269386781
 30
0
 11
330.0224127692007
 21
52.42756269386781
 31
0
  0
LINE
  8
1
 62
7
 10
330.0224127692007
 20
52.42756269386781
 30
0
 11
329.4224127692007
 21
51.82756269386781
 31
0
  0
LINE
  8
1
 62
7
 10
329.4224127692007
 20
51.82756269386781
 30
0
 11
327.6224127692008
 21
51.82756269386781
 31
0
  0
LINE
  8
1
 62
7
 10
327.6224127692008
 20
51.82756269386781
 30
0
 11
327.0224127692007
 21
52.42756269386781
 31
0
  0
LINE
  8
1
 62
7
 10
327.0224127692007
 20
52.42756269386781
 30
0
 11
327.0224127692007
 21
59.82756269386781
 31
0
  0
LINE
  8
1
 62
7
 10
330.0224127692007
 20
52.42756269386781
 30
0
 11
327.0224127692007
 21
52.42756269386781
 31
0
  0
LINE
  8
1
 62
3
 10
329.4224127692007
 20
58.28833220932648
 30
0
 11
330.0224127692007
 21
59.32756269386781
 31
0
  0
LINE
  8
1
 62
3
 10
327.6224127692008
 20
58.28833220932648
 30
0
 11
327.0224127692007
 21
59.32756269386781
 31
0
  0
LINE
  8
1
 62
3
 10
330.0224127692007
 20
58.28833220932648
 30
0
 11
327.0224127692007
 21
58.28833220932648
 31
0
  0
LINE
  8
1
 62
7
 10
325.5224127692007
 20
61.82756269386781
 30
0
 11
325.5224127692007
 21
59.82756269386781
 31
0
  0
LINE
  8
1
 62
7
 10
325.5224127692007
 20
59.82756269386781
 30
0
 11
331.5224127692007
 21
59.82756269386781
 31
0
  0
LINE
  8
1
 62
7
 10
331.5224127692007
 20
61.82756269386781
 30
0
 11
331.5224127692007
 21
59.82756269386781
 31
0
  0
LINE
  8
1
 62
3
 10
327.0224127692007
 20
50.32756269386781
 30
0
 11
327.0224127692007
 21
58.32756269386781
 31
0
  0
LINE
  8
1
 62
3
 10
330.0224127692007
 20
50.32756269386781
 30
0
 11
327.0224127692007
 21
50.32756269386781
 31
0
  0
LINE
  8
1
 62
3
 10
330.0224127692007
 20
58.32756269386781
 30
0
 11
330.0224127692007
 21
50.32756269386781
 31
0
  0
LINE
  8
1
 62
3
 10
327.6224127692008
 20
49.28833220932649
 30
0
 11
327.0224127692007
 21
50.32756269386781
 31
0
  0
LINE
  8
1
 62
3
 10
329.4224127692007
 20
49.28833220932649
 30
0
 11
330.0224127692007
 21
50.32756269386781
 31
0
  0
LINE
  8
1
 62
7
 10
329.4224127692007
 20
50.32756269386781
 30
0
 11
327.6224127692008
 21
50.32756269386781
 31
0
  0
LINE
  8
1
 62
7
 10
330.0224127692007
 20
52.42756269386781
 30
0
 11
329.4224127692007
 21
51.82756269386781
 31
0
  0
LINE
  8
1
 62
7
 10
329.4224127692007
 20
51.82756269386781
 30
0
 11
327.6224127692008
 21
51.82756269386781
 31
0
  0
LINE
  8
1
 62
7
 10
327.6224127692008
 20
51.82756269386781
 30
0
 11
327.0224127692007
 21
52.42756269386781
 31
0
  0
LINE
  8
1
 62
7
 10
330.0224127692007
 20
52.42756269386781
 30
0
 11
327.0224127692007
 21
52.42756269386781
 31
0
  0
LINE
  8
1
 62
3
 10
330.0224127692007
 20
58.28833220932648
 30
0
 11
327.0224127692007
 21
58.28833220932648
 31
0
  0
LINE
  8
1
 62
7
 10
329.4224127692007
 20
58.32756269386782
 30
0
 11
329.4224127692007
 21
45.8901364063157
 31
0
  0
LINE
  8
1
 62
7
 10
326.8152106227323
 20
61.82756269386781
 30
0
 11
321.0224127692007
 21
61.82756269386781
 31
0
  0
LINE
  8
1
 62
7
 10
327.6224127692008
 20
45.82756269386781
 30
0
 11
327.6224127692008
 21
58.32756269386782
 31
0
  0
LINE
  8
1
 62
3
  6
DASHDOT
 10
328.5224127692007
 20
45.29592063049226
 30
0
 11
328.5224127692007
 21
63.23401890082746
 31
0
  0
LINE
  8
1
 62
7
 10
361.0027975269301
 20
38.82756269386782
 30
0
 11
361.5224127692006
 21
38.52756269386782
 31
0
  0
LINE
  8
1
 62
7
 10
361.5224127692006
 20
38.52756269386782
 30
0
 11
358.5224127692006
 21
38.52756269386782
 31
0
  0
LINE
  8
1
 62
7
 10
358.5224127692006
 20
38.52756269386782
 30
0
 11
359.0420280114714
 21
38.82756269386782
 31
0
  0
LINE
  8
1
 62
7
 10
359.0420280114714
 20
38.82756269386782
 30
0
 11
361.0027975269301
 21
38.82756269386782
 31
0
  0
LINE
  8
1
 62
7
 10
361.5224127692006
 20
38.52756269386782
 30
0
 11
361.5224127692006
 21
35.42756269386782
 31
0
  0
LINE
  8
1
 62
7
 10
361.5224127692006
 20
35.42756269386782
 30
0
 11
360.9224127692007
 21
34.82756269386782
 31
0
  0
LINE
  8
1
 62
7
 10
360.9224127692007
 20
34.82756269386782
 30
0
 11
359.1224127692008
 21
34.82756269386782
 31
0
  0
LINE
  8
1
 62
7
 10
359.1224127692008
 20
34.82756269386782
 30
0
 11
358.5224127692006
 21
35.42756269386782
 31
0
  0
LINE
  8
1
 62
7
 10
361.5224127692006
 20
35.42756269386782
 30
0
 11
358.5224127692006
 21
35.42756269386782
 31
0
  0
LINE
  8
1
 62
3
 10
360.9224127692007
 20
38.82756269386782
 30
0
 11
360.9224127692007
 21
34.82756269386782
 31
0
  0
LINE
  8
1
 62
3
 10
359.1224127692008
 20
38.82756269386782
 30
0
 11
359.1224127692008
 21
34.82756269386782
 31
0
  0
LINE
  8
1
 62
7
 10
358.5224127692007
 20
37.82756269386782
 30
0
 11
323.0224127692007
 21
37.82756269386782
 31
0
  0
LINE
  8
1
 62
7
 10
358.5224127692006
 20
38.52756269386782
 30
0
 11
358.5224127692006
 21
35.42756269386782
 31
0
  0
LINE
  8
1
 62
3
 10
361.5224127692006
 20
35.42756269386782
 30
0
 11
361.5224127692007
 21
34.82756269386782
 31
0
  0
LINE
  8
1
 62
7
 10
345.7724127692007
 20
59.8275626938678
 30
0
 11
345.7724127692007
 21
62.6275626938678
 31
0
  0
LINE
  8
1
 62
7
 10
345.7724127692007
 20
62.6275626938678
 30
0
 11
346.1188229307145
 21
62.8275626938678
 31
0
  0
LINE
  8
1
 62
7
 10
346.1188229307145
 20
62.8275626938678
 30
0
 11
350.9260026076869
 21
62.8275626938678
 31
0
  0
LINE
  8
1
 62
7
 10
350.9260026076869
 20
62.8275626938678
 30
0
 11
351.2724127692007
 21
62.6275626938678
 31
0
  0
LINE
  8
1
 62
7
 10
351.2724127692007
 20
62.6275626938678
 30
0
 11
351.2724127692007
 21
59.8275626938678
 31
0
  0
LINE
  8
1
 62
7
 10
345.7724127692007
 20
62.6275626938678
 30
0
 11
351.2724127692007
 21
62.6275626938678
 31
0
  0
LINE
  8
1
 62
7
 10
346.1188229307145
 20
0.8275626938678328
 30
0
 11
345.7724127692007
 21
1.027562693867836
 31
0
  0
LINE
  8
1
 62
7
 10
350.9260026076869
 20
0.8275626938678328
 30
0
 11
346.1188229307145
 21
0.8275626938678328
 31
0
  0
LINE
  8
1
 62
7
 10
351.2724127692007
 20
1.027562693867836
 30
0
 11
350.9260026076869
 21
0.8275626938678328
 31
0
  0
LINE
  8
1
 62
7
 10
351.2724127692007
 20
1.027562693867836
 30
0
 11
345.7724127692007
 21
1.027562693867836
 31
0
  0
LINE
  8
1
 62
7
 10
345.7724127692007
 20
1.027562693867836
 30
0
 11
345.7724127692007
 21
3.827562693867832
 31
0
  0
LINE
  8
1
 62
7
 10
351.2724127692007
 20
1.027562693867836
 30
0
 11
350.9260026076869
 21
0.8275626938678328
 31
0
  0
LINE
  8
1
 62
7
 10
351.2724127692007
 20
3.827562693867832
 30
0
 11
351.2724127692007
 21
1.027562693867836
 31
0
  0
LINE
  8
1
 62
7
 10
351.2724127692007
 20
1.027562693867836
 30
0
 11
345.7724127692007
 21
1.027562693867836
 31
0
  0
LINE
  8
1
 62
7
 10
547.7724127692007
 20
62.62756269386784
 30
0
 11
548.1188229307146
 21
62.82756269386784
 31
0
  0
LINE
  8
1
 62
7
 10
548.1188229307146
 20
62.82756269386784
 30
0
 11
552.9260026076869
 21
62.82756269386784
 31
0
  0
LINE
  8
1
 62
7
 10
552.9260026076869
 20
62.82756269386784
 30
0
 11
553.2724127692007
 21
62.62756269386784
 31
0
  0
LINE
  8
1
 62
7
 10
547.7724127692007
 20
62.62756269386784
 30
0
 11
553.2724127692007
 21
62.62756269386784
 31
0
  0
LINE
  8
1
 62
7
 10
553.2724127692007
 20
62.62756269386784
 30
0
 11
553.2724127692007
 21
59.82756269386784
 31
0
  0
LINE
  8
1
 62
7
 10
547.7724127692007
 20
59.82756269386784
 30
0
 11
547.7724127692007
 21
62.62756269386784
 31
0
  0
LINE
  8
1
 62
7
 10
340.5224127692007
 20
44.82756269386781
 30
0
 11
340.5224127692007
 21
57.82756269386781
 31
0
  0
LINE
  8
1
 62
7
 10
336.5224127692007
 20
18.82756269386782
 30
0
 11
336.5224127692007
 21
5.827562693867822
 31
0
  0
LINE
  8
1
 62
7
 10
352.8724127692008
 20
17.12756269386782
 30
0
 11
354.2224127692006
 21
17.12756269386782
 31
0
  0
ARC
  8
1
 62
3
  6
DASHED
 10
449.4224127692008
 20
31.82756269386783
 30
0
 40
28.00000000000007
 50
204.7674757797356
 51
270
  0
ARC
  8
1
 62
3
  6
DASHED
 10
449.4224127692008
 20
31.82756269386783
 30
0
 40
27.99999999999994
 50
24.76747577973588
 51
90
  0
ARC
  8
1
 62
7
 10
449.4224127692008
 20
31.82756269386783
 30
0
 40
30.25000000000013
 50
0.9470808058364361
 51
180
  0
ARC
  8
1
 62
7
 10
449.4224127692008
 20
31.82756269386783
 30
0
 40
30.25
 50
180
 51
359.0529191941636
  0
ARC
  8
1
 62
7
 10
452.8936755678358
 20
20.29863791526464
 30
0
 40
1.560000000000002
 50
90
 51
180
  0
ARC
  8
1
 62
7
 10
445.951149970566
 20
20.29863791526464
 30
0
 40
1.560000000000002
 50
0
 51
90
  0
ARC
  8
1
 62
7
 10
452.8936755678358
 20
17.99304853275157
 30
0
 40
3.865589382513003
 50
50.87673995298526
 51
90
  0
ARC
  8
1
 62
7
 10
445.951149970566
 20
17.99304853275157
 30
0
 40
3.865589382513072
 50
90
 51
129.1232600470148
  0
ARC
  8
1
 62
7
 10
449.4224127692008
 20
31.00256269386784
 30
0
 40
12.52500000000005
 50
306.6859416250185
 51
233.3140583749822
  0
ARC
  8
1
 62
7
 10
457.6773521008777
 20
20.29863791526464
 30
0
 40
6.343676533041901
 50
180
 51
201.0182959499479
  0
ARC
  8
1
 62
7
 10
441.1674734375237
 20
20.29863791526464
 30
0
 40
6.343676533042183
 50
338.9817040500527
 51
0
  0
ARC
  8
1
 62
7
 10
550.5224127692007
 20
46.05531950743434
 30
0
 40
1.699999999999932
 50
180
 51
0
  0
ARC
  8
1
 62
7
 10
550.5224127692007
 20
47.15429803911388
 30
0
 40
3
 50
180
 51
0
  0
ARC
  8
1
 62
3
 10
360.0224127692007
 20
31.82756269386782
 30
0
 40
1.5
 50
0
 51
180
  0
ARC
  8
1
 62
7
 10
360.0224127692007
 20
31.82756269386782
 30
0
 40
0.9000000000000341
 50
0
 51
180
  0
ARC
  8
1
 62
3
 10
360.0224127692007
 20
31.82756269386782
 30
0
 40
1.5
 50
180
 51
0
  0
ARC
  8
1
 62
7
 10
360.0224127692007
 20
31.82756269386782
 30
0
 40
0.8999999999998636
 50
180
 51
0
  0
ARC
  8
1
 62
7
 10
539.0224127692007
 20
31.82756269386785
 30
0
 40
1.5
 50
180
 51
0
  0
ARC
  8
1
 62
3
 10
539.0224127692007
 20
31.82756269386785
 30
0
 40
0.900000000000091
 50
180
 51
0
  0
ARC
  8
1
 62
7
 10
539.0224127692007
 20
31.82756269386785
 30
0
 40
1.5
 50
0
 51
180
  0
ARC
  8
1
 62
3
 10
539.0224127692007
 20
31.82756269386785
 30
0
 40
0.8999999999998636
 50
0
 51
180
  0
ARC
  8
1
 62
7
 10
328.3684142041598
 20
59.47470657598129
 30
0
 40
2.999999999999757
 50
14.53385610839426
 51
56.54149947555602
  0
ARC
  8
1
 62
7
 10
328.6764113342418
 20
59.47470657598129
 30
0
 40
2.999999999999981
 50
123.4585005244442
 51
165.4661438916068
  0
CIRCLE
  8
1
 62
7
 10
449.4224127692008
 20
31.82756269386783
 30
0
 40
6
  0
CIRCLE
  8
1
 62
3
 10
459.422412769201
 20
49.14807076955646
 30
0
 40
1.499999999999926
  0
CIRCLE
  8
1
 62
7
 10
459.422412769201
 20
49.14807076955646
 30
0
 40
0.8999999999997305
  0
CIRCLE
  8
1
 62
3
 10
459.4224127692008
 20
14.50705461817898
 30
0
 40
1.499999999999926
  0
CIRCLE
  8
1
 62
7
 10
459.4224127692008
 20
14.50705461817898
 30
0
 40
0.8999999999999696
  0
CIRCLE
  8
1
 62
3
 10
429.4224127692008
 20
31.82756269386783
 30
0
 40
1.500000000000004
  0
CIRCLE
  8
1
 62
7
 10
429.4224127692008
 20
31.82756269386783
 30
0
 40
0.9000000000000874
  0
CIRCLE
  8
1
 62
3
  6
DASHDOT
 10
449.4224127692008
 20
31.82756269386783
 30
0
 40
20
  0
CIRCLE
  8
1
 62
7
 10
449.4224127692008
 20
31.82756269386783
 30
0
 40
14
  0
CIRCLE
  8
1
 62
7
 10
453.227008901169
 20
19.96530458193132
 30
0
 40
1
  0
CIRCLE
  8
1
 62
7
 10
445.6178166372326
 20
19.96530458193132
 30
0
 40
1
  0
CIRCLE
  8
1
 62
7
 10
449.4224127692008
 20
31.82756269386783
 30
0
 40
2.999999999999989
  0
CIRCLE
  8
1
 62
7
 10
570.5224127692007
 20
31.82756269386784
 30
0
 40
2.75
  0
CIRCLE
  8
1
 62
7
 10
570.5224127692007
 20
31.82756269386784
 30
0
 40
3
  0
CIRCLE
  8
1
 62
7
 10
349.0224127692007
 20
41.82756269386782
 30
0
 40
2.400000000000034
  0
CIRCLE
  8
1
 62
7
 10
328.0224127692007
 20
41.82756269386782
 30
0
 40
2.399999999999864
  0
CIRCLE
  8
1
 62
7
 10
349.0224127692007
 20
21.82756269386782
 30
0
 40
2.400000000000034
  0
CIRCLE
  8
1
 62
7
 10
328.0224127692007
 20
21.82756269386782
 30
0
 40
2.399999999999864
  0
ARC
  8
1
 62
7
 10
456.1404951425193
 20
21.98494692109796
 30
0
 40
1.279999999999965
 50
230.8767399529884
 51
306.6859416250158
  0
ARC
  8
1
 62
7
 10
442.7043303958822
 20
21.98494692109796
 30
0
 40
1.279999999999869
 50
233.3140583749923
 51
309.1232600470235
  0
ARC
  8
1
 62
7
 10
352.0624127692008
 20
38.7875626938678
 30
0
 40
0.9599999999999795
 50
270
 51
0
  0
ARC
  8
1
 62
7
 10
345.9824127692007
 20
38.7875626938678
 30
0
 40
0.9600000000000364
 50
180
 51
270
  0
ARC
  8
1
 62
7
 10
345.9824127692007
 20
44.86756269386782
 30
0
 40
0.9599999999999938
 50
90
 51
180
  0
ARC
  8
1
 62
7
 10
352.0624127692008
 20
44.86756269386782
 30
0
 40
0.9599999999998659
 50
0
 51
90
  0
ARC
  8
1
 62
7
 10
324.9824127692007
 20
38.7875626938678
 30
0
 40
0.9600000000000364
 50
180
 51
270
  0
ARC
  8
1
 62
7
 10
331.0624127692008
 20
38.7875626938678
 30
0
 40
0.9599999999999795
 50
270
 51
0
  0
ARC
  8
1
 62
7
 10
331.0624127692008
 20
44.8675626938678
 30
0
 40
0.9599999999998659
 50
0
 51
90
  0
ARC
  8
1
 62
7
 10
324.9824127692007
 20
44.8675626938678
 30
0
 40
0.9600000000000151
 50
90
 51
180
  0
ARC
  8
1
 62
7
 10
352.0624127692008
 20
24.86756269386783
 30
0
 40
0.9599999999998659
 50
0
 51
90
  0
ARC
  8
1
 62
7
 10
345.9824127692007
 20
24.86756269386783
 30
0
 40
0.9599999999999902
 50
90
 51
180
  0
ARC
  8
1
 62
7
 10
345.9824127692007
 20
18.78756269386783
 30
0
 40
0.9600000000000364
 50
180
 51
270
  0
ARC
  8
1
 62
7
 10
352.0624127692008
 20
18.78756269386783
 30
0
 40
0.9600000000000115
 50
270
 51
0
  0
ARC
  8
1
 62
7
 10
324.9824127692007
 20
24.86756269386783
 30
0
 40
0.9599999999999902
 50
90
 51
180
  0
ARC
  8
1
 62
7
 10
331.0624127692008
 20
24.86756269386783
 30
0
 40
0.9599999999998659
 50
0
 51
90
  0
ARC
  8
1
 62
7
 10
331.0624127692008
 20
18.78756269386783
 30
0
 40
0.9600000000000115
 50
270
 51
0
  0
ARC
  8
1
 62
7
 10
324.9824127692007
 20
18.78756269386783
 30
0
 40
0.9600000000000364
 50
180
 51
270
  0
TEXT
  8
1
 62
3
 10
549.7189511714678
 20
33.08756269386785
 30
0
 40
2.8
  1
0
 50
270
 41
0.9
  7
SIMPLEX
 72
1
 73
2
 11
551.1189511714678
 21
31.82756269386785
 31
0
  0
TEXT
  8
1
 62
3
 10
549.7189511714678
 20
22.74140374607324
 30
0
 40
2.8
  1
2
 50
270
 41
0.9
  7
SIMPLEX
 72
1
 73
2
 11
551.1189511714678
 21
21.48140374607324
 31
0
  0
TEXT
  8
1
 62
3
 10
549.7189511714678
 20
13.64315661248198
 30
0
 40
2.8
  1
4
 50
270
 41
0.9
  7
SIMPLEX
 72
1
 73
2
 11
551.1189511714678
 21
12.38315661248198
 31
0
  0
TEXT
  8
1
 62
3
 10
549.7189511714678
 20
6.89021503543264
 30
0
 40
2.8
  1
6
 50
270
 41
0.9
  7
SIMPLEX
 72
1
 73
2
 11
551.1189511714678
 21
5.630215035432641
 31
0
  0
TEXT
  8
1
 62
7
 10
321.9470566682778
 20
94.28114296528128
 30
0
 40
3
  1
PHT 2.5D
 41
0.8910000000000001
  7
SIMPLEX
  0
ENDSEC
  0
EOF
