  0
SECTION
  2
HEADER
  9
$ACADVER
  1
AC1009
  9
$INSBASE
 10
0.0
 20
0.0
 30
0.0
  9
$EXTMIN
 10
-20.431750394497652
 20
-233.52600000000001
 30
0.0
  9
$EXTMAX
 10
272.42500000000001
 20
-44.494018788621588
 30
0.0
  9
$LIMMIN
 10
-20.431750394497652
 20
-233.52600000000001
  9
$LIMMAX
 10
272.42500000000001
 20
-44.494018788621588
  9
$ORTHOMODE
 70
     0
  9
$REGENMODE
 70
     1
  9
$FILLMODE
 70
     1
  9
$QTEXTMODE
 70
     0
  9
$MIRRTEXT
 70
     1
  9
$DRAGMODE
 70
     2
  9
$LTSCALE
 40
1.0
  9
$OSMODE
 70
    37
  9
$ATTMODE
 70
     1
  9
$TEXTSIZE
 40
3.5
  9
$TRACEWID
 40
0.5
  9
$TEXTSTYLE
  7
STANDARD
  9
$CLAYER
  8
0
  9
$CELTYPE
  6
BYLAYER
  9
$CECOLOR
 62
   256
  9
$DIMSCALE
 40
1.0
  9
$DIMASZ
 40
0.18
  9
$DIMEXO
 40
0.0625
  9
$DIMDLI
 40
0.38
  9
$DIMRND
 40
0.0
  9
$DIMDLE
 40
0.0
  9
$DIMEXE
 40
0.18
  9
$DIMTP
 40
0.0
  9
$DIMTM
 40
0.0
  9
$DIMTXT
 40
0.18
  9
$DIMCEN
 40
0.09
  9
$DIMTSZ
 40
0.0
  9
$DIMTOL
 70
     0
  9
$DIMLIM
 70
     0
  9
$DIMTIH
 70
     1
  9
$DIMTOH
 70
     1
  9
$DIMSE1
 70
     0
  9
$DIMSE2
 70
     0
  9
$DIMTAD
 70
     0
  9
$DIMZIN
 70
     0
  9
$DIMBLK
  1

  9
$DIMASO
 70
     1
  9
$DIMSHO
 70
     1
  9
$DIMPOST
  1

  9
$DIMAPOST
  1

  9
$DIMALT
 70
     0
  9
$DIMALTD
 70
     2
  9
$DIMALTF
 40
25.399999999999999
  9
$DIMLFAC
 40
1.0
  9
$DIMTOFL
 70
     0
  9
$DIMTVP
 40
0.0
  9
$DIMTIX
 70
     0
  9
$DIMSOXD
 70
     0
  9
$DIMSAH
 70
     0
  9
$DIMBLK1
  1

  9
$DIMBLK2
  1

  9
$DIMSTYLE
  2
STANDARD
  9
$DIMCLRD
 70
     0
  9
$DIMCLRE
 70
     0
  9
$DIMCLRT
 70
     0
  9
$DIMTFAC
 40
1.0
  9
$DIMGAP
 40
0.09
  9
$LUNITS
 70
     2
  9
$LUPREC
 70
     4
  9
$SKETCHINC
 40
0.1
  9
$FILLETRAD
 40
2.0
  9
$AUNITS
 70
     0
  9
$AUPREC
 70
     0
  9
$MENU
  1
ACAD
  9
$ELEVATION
 40
0.0
  9
$PELEVATION
 40
0.0
  9
$THICKNESS
 40
0.0
  9
$LIMCHECK
 70
     0
  9
$BLIPMODE
 70
     0
  9
$CHAMFERA
 40
0.0
  9
$CHAMFERB
 40
0.0
  9
$SKPOLY
 70
     0
  9
$TDCREATE
 40
2452095.3416606481
  9
$TDUPDATE
 40
2452095.342176273
  9
$TDINDWG
 40
0.0005231481
  9
$TDUSRTIMER
 40
0.0005231481
  9
$USRTIMER
 70
     1
  9
$ANGBASE
 50
0.0
  9
$ANGDIR
 70
     0
  9
$PDMODE
 70
     0
  9
$PDSIZE
 40
0.0
  9
$PLINEWID
 40
0.0
  9
$COORDS
 70
     1
  9
$SPLFRAME
 70
     0
  9
$SPLINETYPE
 70
     6
  9
$SPLINESEGS
 70
     8
  9
$ATTDIA
 70
     0
  9
$ATTREQ
 70
     1
  9
$HANDLING
 70
 10241
  9
$HANDSEED
  5
BD
  9
$SURFTAB1
 70
     6
  9
$SURFTAB2
 70
     6
  9
$SURFTYPE
 70
     6
  9
$SURFU
 70
     6
  9
$SURFV
 70
     6
  9
$UCSNAME
  2

  9
$UCSORG
 10
0.0
 20
0.0
 30
0.0
  9
$UCSXDIR
 10
1.0
 20
0.0
 30
0.0
  9
$UCSYDIR
 10
0.0
 20
1.0
 30
0.0
  9
$PUCSNAME
  2

  9
$PUCSORG
 10
0.0
 20
0.0
 30
0.0
  9
$PUCSXDIR
 10
1.0
 20
0.0
 30
0.0
  9
$PUCSYDIR
 10
0.0
 20
1.0
 30
0.0
  9
$USERI1
 70
     0
  9
$USERI2
 70
     0
  9
$USERI3
 70
     0
  9
$USERI4
 70
     0
  9
$USERI5
 70
     0
  9
$USERR1
 40
0.0
  9
$USERR2
 40
0.0
  9
$USERR3
 40
0.0
  9
$USERR4
 40
0.0
  9
$USERR5
 40
0.0
  9
$WORLDVIEW
 70
     1
  9
$SHADEDGE
 70
     3
  9
$SHADEDIF
 70
    70
  9
$TILEMODE
 70
     1
  9
$MAXACTVP
 70
    64
  9
$PLIMCHECK
 70
     0
  9
$PEXTMIN
 10
1.0000000000000000E+020
 20
1.0000000000000000E+020
 30
1.0000000000000000E+020
  9
$PEXTMAX
 10
-1.0000000000000000E+020
 20
-1.0000000000000000E+020
 30
-1.0000000000000000E+020
  9
$PLIMMIN
 10
0.0
 20
0.0
  9
$PLIMMAX
 10
12.0
 20
9.0
  9
$UNITMODE
 70
     0
  9
$VISRETAIN
 70
     1
  9
$PLINEGEN
 70
     0
  9
$PSLTSCALE
 70
     1
  0
ENDSEC
  0
SECTION
  2
TABLES
  0
TABLE
  2
VPORT
 70
     2
  0
VPORT
  2
*ACTIVE
 70
     0
 10
0.0
 20
0.0
 11
1.0
 21
1.0
 12
2.9225533625558491
 22
-48.75186653057898
 13
0.0
 23
0.0
 14
1.0
 24
1.0
 15
0.0
 25
0.0
 16
0.0
 26
0.0
 36
1.0
 17
0.0
 27
0.0
 37
0.0
 40
9.0000000348687763
 41
2.4144144144144142
 42
50.0
 43
0.0
 44
0.0
 50
0.0
 51
0.0
 71
     0
 72
   100
 73
     1
 74
     1
 75
     0
 76
     0
 77
     0
 78
     0
  0
ENDTAB
  0
TABLE
  2
LTYPE
 70
     9
  0
LTYPE
  2
CONTINUOUS
 70
     0
  3
Solid line
 72
    65
 73
     0
 40
0.0
  0
LTYPE
  2
BORDER
 70
     0
  3
__ __ . __ __ .
 72
    65
 73
     6
 40
13.486824031325551
 49
3.8533782946644428
 49
-1.926689147332221
 49
3.8533782946644428
 49
-1.926689147332221
 49
0.0
 49
-1.926689147332221
  0
LTYPE
  2
CENTER
 70
     0
  3
____ _ ____ _
 72
    65
 73
     4
 40
15.413513178657761
 49
9.6334457366611073
 49
-1.926689147332221
 49
1.926689147332221
 49
-1.926689147332221
  0
LTYPE
  2
DASHDOT
 70
     0
  3
__ . __ . __ .
 72
    65
 73
     4
 40
7.7067565893288874
 49
3.8533782946644428
 49
-1.926689147332221
 49
0.0
 49
-1.926689147332221
  0
LTYPE
  2
DASHED
 70
     0
  3
__ __ __ __ __
 72
    65
 73
     2
 40
5.780067441996664
 49
3.8533782946644428
 49
-1.926689147332221
  0
LTYPE
  2
DIVIDE
 70
     0
  3
__ . . __ . . 
 72
    65
 73
     6
 40
9.6334457366611073
 49
3.8533782946644428
 49
-1.926689147332221
 49
0.0
 49
-1.926689147332221
 49
0.0
 49
-1.926689147332221
  0
LTYPE
  2
DOT
 70
     0
  3
..............
 72
    65
 73
     4
 40
3.8533782946644428
 49
0.0
 49
-1.926689147332221
 49
0.0
 49
-1.926689147332221
  0
LTYPE
  2
HIDDEN
 70
     0
  3
_ _ _ _ _ _ _
 72
    65
 73
     2
 40
2.890033720998332
 49
1.926689147332221
 49
-0.9633445736661109
  0
LTYPE
  2
PHANTOM
 70
     0
  3
_____ _ _ _____ _ _ 
 72
    65
 73
     6
 40
19.266891473322211
 49
9.6334457366611073
 49
-1.926689147332221
 49
1.926689147332221
 49
-1.926689147332221
 49
1.926689147332221
 49
-1.926689147332221
  0
ENDTAB
  0
TABLE
  2
LAYER
 70
     2
  0
LAYER
  2
0
 70
     0
 62
     7
  6
CONTINUOUS
  0
LAYER
  2
1
 70
     0
 62
     7
  6
CONTINUOUS
  0
ENDTAB
  0
TABLE
  2
STYLE
 70
     4
  0
STYLE
  2
STANDARD
 70
     0
 40
0.0
 41
1.0
 50
0.0
 71
     0
 42
3.5
  3
txt
  4

  0
STYLE
  2
SIMPLEX
 70
     0
 40
0.0
 41
1.0
 50
0.0
 71
     0
 42
3.5
  3
simplex
  4

  0
STYLE
  2
COMPLEX
 70
     0
 40
0.0
 41
1.0
 50
0.0
 71
     0
 42
3.5
  3
complex
  4

  0
STYLE
  2
ITALIC
 70
     0
 40
0.0
 41
1.0
 50
0.0
 71
     0
 42
3.5
  3
italic
  4

  0
ENDTAB
  0
TABLE
  2
VIEW
 70
     0
  0
ENDTAB
  0
TABLE
  2
UCS
 70
     0
  0
ENDTAB
  0
TABLE
  2
APPID
 70
     1
  0
APPID
  2
ACAD
 70
     0
  0
ENDTAB
  0
TABLE
  2
DIMSTYLE
 70
     1
  0
DIMSTYLE
  2
STANDARD
 70
     0
  3

  4

  5

  6

  7

 40
1.0
 41
0.18
 42
0.0625
 43
0.38
 44
0.18
 45
0.0
 46
0.0
 47
0.0
 48
0.0
140
0.18
141
0.09
142
0.0
143
25.399999999999999
144
1.0
145
0.0
146
1.0
147
0.09
 71
     0
 72
     0
 73
     1
 74
     1
 75
     0
 76
     0
 77
     0
 78
     0
170
     0
171
     2
172
     0
173
     0
174
     0
175
     0
176
     0
177
     0
178
     0
  0
ENDTAB
  0
ENDSEC
  0
SECTION
  2
BLOCKS
  0
BLOCK
  8
0
  2
$MODEL_SPACE
 70
     0
 10
0.0
 20
0.0
 30
0.0
  3
$MODEL_SPACE
  1

  0
ENDBLK
  5
20
  8
0
  0
BLOCK
 67
     1
  8
0
  2
$PAPER_SPACE
 70
     0
 10
0.0
 20
0.0
 30
0.0
  3
$PAPER_SPACE
  1

  0
ENDBLK
  5
1C
 67
     1
  8
0
  0
ENDSEC
  0
SECTION
  2
ENTITIES
  0
LINE
  5
33
  8
1
  6
DASHDOT
 62
     3
 10
218.17500000000001
 20
-200.50547341949741
 30
0.0
 11
212.67500000000001
 21
-190.97919397786859
 31
0.0
  0
LINE
  5
34
  8
1
  6
DASHDOT
 62
     3
 10
131.17500000000001
 20
-150.27600000000001
 30
0.0
 11
142.17500000000001
 21
-150.27600000000001
 31
0.0
  0
LINE
  5
35
  8
1
  6
DASHDOT
 62
     3
 10
218.17500000000001
 20
-100.0465265805025
 30
0.0
 11
212.67500000000001
 21
-109.5728060221313
 31
0.0
  0
LINE
  5
36
  8
1
  6
DASHDOT
 62
     3
 10
189.17500000000001
 20
-150.27600000000001
 30
0.0
 11
189.17500000000001
 21
-147.27600000000001
 31
0.0
  0
LINE
  5
37
  8
1
  6
DASHDOT
 62
     3
 10
189.17500000000001
 20
-150.27600000000001
 30
0.0
 11
186.17500000000001
 21
-150.27600000000001
 31
0.0
  0
LINE
  5
38
  8
1
  6
DASHDOT
 62
     3
 10
189.17500000000001
 20
-150.27600000000001
 30
0.0
 11
189.17500000000001
 21
-153.27600000000001
 31
0.0
  0
LINE
  5
39
  8
1
  6
DASHDOT
 62
     3
 10
189.17500000000001
 20
-150.27600000000001
 30
0.0
 11
192.17500000000001
 21
-150.27600000000001
 31
0.0
  0
LINE
  5
3A
  8
1
 62
     7
 10
186.67500000000001
 20
-142.67665792321461
 30
0.0
 11
186.67500000000001
 21
-139.976
 31
0.0
  0
LINE
  5
3B
  8
1
 62
     7
 10
186.67500000000001
 20
-139.976
 30
0.0
 11
191.67500000000001
 21
-139.976
 31
0.0
  0
LINE
  5
3C
  8
1
 62
     7
 10
191.67500000000001
 20
-139.976
 30
0.0
 11
191.67500000000001
 21
-142.67665792321461
 31
0.0
  0
LINE
  5
3D
  8
1
  6
DASHED
 62
     3
 10
187.17500000000001
 20
-139.976
 30
0.0
 11
187.17500000000001
 21
-132.8906613492862
 31
0.0
  0
LINE
  5
3E
  8
1
  6
DASHED
 62
     3
 10
191.1749999999999
 20
-132.8906613492862
 30
0.0
 11
191.1749999999999
 21
-139.976
 31
0.0
  0
LINE
  5
3F
  8
1
  6
DASHED
 62
     7
 10
187.77499999999989
 20
-139.976
 30
0.0
 11
187.77499999999989
 21
-132.832089887872
 31
0.0
  0
LINE
  5
40
  8
1
  6
DASHED
 62
     7
 10
190.5749999999999
 20
-132.832089887872
 30
0.0
 11
190.5749999999999
 21
-139.976
 31
0.0
  0
LINE
  5
41
  8
1
  6
DASHDOT
 62
     3
 10
189.17500000000001
 20
-142.97599999999991
 30
0.0
 11
189.17500000000001
 21
-129.77600000000001
 31
0.0
  0
LINE
  5
42
  8
1
  6
DASHED
 62
     3
 10
181.42903330758509
 20
-152.27600000000001
 30
0.0
 11
171.78966134928629
 21
-152.27600000000001
 31
0.0
  0
LINE
  5
43
  8
1
  6
DASHED
 62
     3
 10
171.78966134928629
 20
-148.27600000000001
 30
0.0
 11
181.42903330758509
 21
-148.27600000000001
 31
0.0
  0
LINE
  5
44
  8
1
  6
DASHED
 62
     7
 10
181.29845253299379
 20
-151.67599999999999
 30
0.0
 11
171.731089887872
 21
-151.67599999999999
 31
0.0
  0
LINE
  5
45
  8
1
  6
DASHED
 62
     7
 10
171.731089887872
 20
-148.876
 30
0.0
 11
181.29845253299379
 21
-148.876
 31
0.0
  0
LINE
  5
46
  8
1
  6
DASHDOT
 62
     3
 10
184.17500000000001
 20
-150.27600000000001
 30
0.0
 11
168.67500000000001
 21
-150.27600000000001
 31
0.0
  0
LINE
  5
47
  8
1
 62
     7
 10
72.886828101452593
 20
-167.7759999999999
 30
0.0
 11
63.886828101452608
 21
-167.7759999999999
 31
0.0
  0
LINE
  5
48
  8
1
 62
     7
 10
72.886828101452593
 20
-167.7759999999999
 30
0.0
 11
72.886828101452593
 21
-150.27600000000001
 31
0.0
  0
LINE
  5
49
  8
1
 62
     7
 10
10.88682810145259
 20
-233.27600000000001
 30
0.0
 11
10.88682810145259
 21
-150.27600000000001
 31
0.0
  0
LINE
  5
4A
  8
1
 62
     7
 10
57.8868281014526
 20
-223.27600000000001
 30
0.0
 11
57.386828101452593
 21
-223.27600000000001
 31
0.0
  0
LINE
  5
4B
  8
1
 62
     7
 10
57.386828101452579
 20
-150.2760000000001
 30
0.0
 11
57.386828101452593
 21
-233.27600000000001
 31
0.0
  0
LINE
  5
4C
  8
1
 62
     7
 10
57.886828101452579
 20
-150.2760000000001
 30
0.0
 11
57.8868281014526
 21
-233.52600000000001
 31
0.0
  0
LINE
  5
4D
  8
1
 62
     7
 10
63.886828101452608
 20
-233.52600000000001
 30
0.0
 11
57.8868281014526
 21
-233.52600000000001
 31
0.0
  0
LINE
  5
4E
  8
1
 62
     7
 10
63.886828101452608
 20
-150.27600000000001
 30
0.0
 11
63.886828101452608
 21
-233.52600000000001
 31
0.0
  0
LINE
  5
4F
  8
1
 62
     7
 10
4.8868281014525916
 20
-150.27600000000001
 30
0.0
 11
4.8868281014525916
 21
-233.27600000000001
 31
0.0
  0
LINE
  5
50
  8
1
 62
     7
 10
4.8868281014525916
 20
-233.27600000000001
 30
0.0
 11
57.386828101452593
 21
-233.27600000000001
 31
0.0
  0
LINE
  5
51
  8
1
 62
     7
 10
51.786828101452592
 20
-77.27600000000001
 30
0.0
 11
57.8868281014526
 21
-77.27600000000001
 31
0.0
  0
LINE
  5
52
  8
1
 62
     3
 10
47.386828101452593
 20
-73.815230484541331
 30
0.0
 11
52.386828101452593
 21
-73.815230484541331
 31
0.0
  0
LINE
  5
53
  8
1
 62
     3
 10
51.786828101452592
 20
-73.815230484541331
 30
0.0
 11
52.386828101452593
 21
-72.776000000000025
 31
0.0
  0
LINE
  5
54
  8
1
 62
     3
 10
51.786828101452592
 20
-84.276000000000025
 30
0.0
 11
51.786828101452592
 21
-73.815230484541331
 31
0.0
  0
LINE
  5
55
  8
1
 62
     3
 10
47.986828101452602
 20
-73.815230484541331
 30
0.0
 11
47.386828101452593
 21
-72.776000000000025
 31
0.0
  0
LINE
  5
56
  8
1
 62
     3
 10
47.986828101452602
 20
-84.276000000000025
 30
0.0
 11
47.986828101452602
 21
-73.815230484541331
 31
0.0
  0
LINE
  5
57
  8
1
 62
     7
 10
47.386828101452593
 20
-83.676000000000016
 30
0.0
 11
52.386828101452593
 21
-83.676000000000016
 31
0.0
  0
LINE
  5
58
  8
1
 62
     7
 10
52.386828101452593
 20
-83.676000000000016
 30
0.0
 11
52.386828101452593
 21
-72.276000000000025
 31
0.0
  0
LINE
  5
59
  8
1
 62
     7
 10
51.786828101452592
 20
-84.276000000000025
 30
0.0
 11
52.386828101452593
 21
-83.676000000000016
 31
0.0
  0
LINE
  5
5A
  8
1
 62
     7
 10
47.986828101452602
 20
-84.276000000000025
 30
0.0
 11
51.786828101452592
 21
-84.276000000000025
 31
0.0
  0
LINE
  5
5B
  8
1
 62
     7
 10
47.386828101452593
 20
-83.676000000000016
 30
0.0
 11
47.986828101452602
 21
-84.276000000000025
 31
0.0
  0
LINE
  5
5C
  8
1
 62
     7
 10
47.386828101452593
 20
-72.276000000000025
 30
0.0
 11
47.386828101452593
 21
-83.676000000000016
 31
0.0
  0
LINE
  5
5D
  8
1
 62
     7
 10
45.636828101452579
 20
-67.575999999999993
 30
0.0
 11
54.136828101452579
 21
-67.575999999999993
 31
0.0
  0
LINE
  5
5E
  8
1
 62
     7
 10
54.136828101452579
 20
-67.575999999999993
 30
0.0
 11
54.136828101452579
 21
-72.276000000000025
 31
0.0
  0
LINE
  5
5F
  8
1
 62
     7
 10
53.617212859181933
 20
-67.27600000000001
 30
0.0
 11
54.136828101452579
 21
-67.575999999999993
 31
0.0
  0
LINE
  5
60
  8
1
 62
     7
 10
45.636828101452579
 20
-67.575999999999993
 30
0.0
 11
46.156443343723247
 21
-67.27600000000001
 31
0.0
  0
LINE
  5
61
  8
1
 62
     7
 10
45.636828101452579
 20
-72.276000000000025
 30
0.0
 11
45.636828101452579
 21
-67.575999999999993
 31
0.0
  0
LINE
  5
62
  8
1
  6
DASHDOT
 62
     3
 10
49.886828101452593
 20
-64.27600000000001
 30
0.0
 11
49.886828101452593
 21
-87.276000000000025
 31
0.0
  0
LINE
  5
63
  8
1
 62
     7
 10
46.886828101452579
 20
-72.276000000000025
 30
0.0
 11
46.886828101452579
 21
-77.27600000000001
 31
0.0
  0
LINE
  5
64
  8
1
 62
     7
 10
52.886828101452579
 20
-72.276000000000025
 30
0.0
 11
52.886828101452579
 21
-77.27600000000001
 31
0.0
  0
LINE
  5
65
  8
1
 62
     7
 10
45.136828101452579
 20
-72.276000000000025
 30
0.0
 11
45.136828101452579
 21
-67.27600000000001
 31
0.0
  0
LINE
  5
66
  8
1
 62
     7
 10
54.636828101452579
 20
-72.276000000000025
 30
0.0
 11
45.136828101452579
 21
-72.276000000000025
 31
0.0
  0
LINE
  5
67
  8
1
 62
     7
 10
54.636828101452579
 20
-67.27600000000001
 30
0.0
 11
54.636828101452579
 21
-72.276000000000025
 31
0.0
  0
LINE
  5
68
  8
1
 62
     7
 10
63.886828101452608
 20
-119.276
 30
0.0
 11
60.886828101452608
 21
-119.276
 31
0.0
  0
LINE
  5
69
  8
1
 62
     7
 10
57.8868281014526
 20
-67.02600000000001
 30
0.0
 11
57.8868281014526
 21
-77.27600000000001
 31
0.0
  0
LINE
  5
6A
  8
1
 62
     7
 10
63.886828101452608
 20
-67.02600000000001
 30
0.0
 11
63.886828101452608
 21
-132.77600000000001
 31
0.0
  0
LINE
  5
6B
  8
1
 62
     7
 10
57.8868281014526
 20
-67.02600000000001
 30
0.0
 11
63.886828101452608
 21
-67.02600000000001
 31
0.0
  0
LINE
  5
6C
  8
1
  6
DASHDOT
 62
     3
 10
66.886828101452593
 20
-145.27600000000001
 30
0.0
 11
66.886828101452593
 21
-155.27600000000001
 31
0.0
  0
LINE
  5
6D
  8
1
  6
DASHDOT
 62
     3
 10
66.886828101452593
 20
-129.77600000000001
 30
0.0
 11
66.886828101452593
 21
-142.97599999999991
 31
0.0
  0
LINE
  5
6E
  8
1
 62
     7
 10
65.486828101452573
 20
-139.976
 30
0.0
 11
65.486828101452573
 21
-132.77600000000001
 31
0.0
  0
LINE
  5
6F
  8
1
 62
     7
 10
68.286828101452585
 20
-132.77600000000001
 30
0.0
 11
68.286828101452585
 21
-139.976
 31
0.0
  0
LINE
  5
70
  8
1
 62
     3
 10
64.886828101452593
 20
-139.976
 30
0.0
 11
64.886828101452593
 21
-132.77600000000001
 31
0.0
  0
LINE
  5
71
  8
1
 62
     3
 10
68.886828101452593
 20
-132.77600000000001
 30
0.0
 11
68.886828101452593
 21
-139.976
 31
0.0
  0
LINE
  5
72
  8
1
 62
     7
 10
72.886828101452593
 20
-139.976
 30
0.0
 11
8.8868281014525952
 21
-139.976
 31
0.0
  0
LINE
  5
73
  8
1
 62
     7
 10
72.886828101452593
 20
-142.27600000000001
 30
0.0
 11
8.8868281014525916
 21
-142.27600000000001
 31
0.0
  0
LINE
  5
74
  8
1
 62
     7
 10
57.386828101452593
 20
-67.27600000000001
 30
0.0
 11
57.386828101452593
 21
-77.27600000000001
 31
0.0
  0
LINE
  5
75
  8
1
 62
     7
 10
10.88682810145259
 20
-77.276000000000025
 30
0.0
 11
47.986828101452581
 21
-77.27600000000001
 31
0.0
  0
LINE
  5
76
  8
1
 62
     7
 10
43.186828101452612
 20
-78.276000000000025
 30
0.0
 11
39.186828101452598
 21
-78.276000000000025
 31
0.0
  0
LINE
  5
77
  8
1
 62
     7
 10
39.186828101452598
 20
-124.276
 30
0.0
 11
39.186828101452598
 21
-78.276000000000025
 31
0.0
  0
LINE
  5
78
  8
1
 62
     7
 10
44.8868281014526
 20
-124.276
 30
0.0
 11
39.186828101452598
 21
-124.276
 31
0.0
  0
LINE
  5
79
  8
1
 62
     7
 10
29.5868281014526
 20
-78.276000000000025
 30
0.0
 11
29.586828101452578
 21
-124.276
 31
0.0
  0
LINE
  5
7A
  8
1
 62
     7
 10
25.5868281014526
 20
-78.276000000000025
 30
0.0
 11
29.5868281014526
 21
-78.276000000000025
 31
0.0
  0
LINE
  5
7B
  8
1
 62
     7
 10
23.88682810145259
 20
-124.276
 30
0.0
 11
29.586828101452578
 21
-124.276
 31
0.0
  0
LINE
  5
7C
  8
1
 62
     7
 10
7.8868281014525961
 20
-119.276
 30
0.0
 11
4.8868281014525916
 21
-119.276
 31
0.0
  0
LINE
  5
7D
  8
1
 62
     7
 10
43.186828101452612
 20
-124.276
 30
0.0
 11
43.186828101452612
 21
-77.276000000000025
 31
0.0
  0
LINE
  5
7E
  8
1
 62
     7
 10
60.886828101452608
 20
-117.776
 30
0.0
 11
60.886828101452608
 21
-132.77600000000001
 31
0.0
  0
LINE
  5
7F
  8
1
 62
     7
 10
60.886828101452608
 20
-123.276
 30
0.0
 11
58.886828101452608
 21
-123.276
 31
0.0
  0
LINE
  5
80
  8
1
 62
     7
 10
58.886828101452608
 20
-117.776
 30
0.0
 11
60.886828101452608
 21
-117.776
 31
0.0
  0
LINE
  5
81
  8
1
 62
     7
 10
7.8868281014525961
 20
-117.776
 30
0.0
 11
7.8868281014525916
 21
-150.27600000000001
 31
0.0
  0
LINE
  5
82
  8
1
 62
     7
 10
9.8868281014525952
 20
-123.276
 30
0.0
 11
7.8868281014525961
 21
-123.276
 31
0.0
  0
LINE
  5
83
  8
1
 62
     7
 10
7.8868281014525961
 20
-117.776
 30
0.0
 11
9.8868281014525952
 21
-117.776
 31
0.0
  0
LINE
  5
84
  8
1
 62
     7
 10
4.8868281014525916
 20
-67.27600000000001
 30
0.0
 11
4.8868281014525916
 21
-150.27600000000001
 31
0.0
  0
LINE
  5
85
  8
1
 62
     7
 10
57.386828101452593
 20
-67.27600000000001
 30
0.0
 11
4.8868281014525916
 21
-67.27600000000001
 31
0.0
  0
LINE
  5
86
  8
1
 62
     7
 10
10.88682810145259
 20
-77.276000000000025
 30
0.0
 11
10.88682810145259
 21
-67.27600000000001
 31
0.0
  0
LINE
  5
87
  8
1
 62
     7
 10
25.586828101452589
 20
-124.276
 30
0.0
 11
25.5868281014526
 21
-77.276000000000025
 31
0.0
  0
LINE
  5
88
  8
1
 62
     7
 10
58.886828101452608
 20
-117.776
 30
0.0
 11
58.886828101452608
 21
-132.77600000000001
 31
0.0
  0
LINE
  5
89
  8
1
 62
     7
 10
58.886828101452608
 20
-119.276
 30
0.0
 11
44.886828101452608
 21
-119.276
 31
0.0
  0
LINE
  5
8A
  8
1
 62
     7
 10
54.020297986405303
 20
-122.5835
 30
0.0
 11
58.886828101452622
 21
-122.5835
 31
0.0
  0
LINE
  5
8B
  8
1
 62
     7
 10
57.411828101452613
 20
-121.7566249999999
 30
0.0
 11
57.411828101452613
 21
-130.29537500000001
 31
0.0
  0
LINE
  5
8C
  8
1
 62
     7
 10
54.020297986405303
 20
-129.46850000000001
 30
0.0
 11
58.886828101452608
 21
-129.46850000000001
 31
0.0
  0
LINE
  5
8D
  8
1
 62
     7
 10
46.361828101452609
 20
-121.7566249999999
 30
0.0
 11
46.361828101452602
 21
-130.29537500000001
 31
0.0
  0
LINE
  5
8E
  8
1
 62
     7
 10
49.753358216499919
 20
-122.5835
 30
0.0
 11
44.886828101452608
 21
-122.5835
 31
0.0
  0
LINE
  5
8F
  8
1
 62
     7
 10
49.753358216499919
 20
-129.46850000000001
 30
0.0
 11
44.8868281014526
 21
-129.46850000000001
 31
0.0
  0
LINE
  5
90
  8
1
 62
     7
 10
22.411828101452599
 20
-121.7566249999999
 30
0.0
 11
22.411828101452599
 21
-130.29537500000001
 31
0.0
  0
LINE
  5
91
  8
1
 62
     7
 10
11.361828101452589
 20
-121.7566249999999
 30
0.0
 11
11.361828101452589
 21
-130.29537500000001
 31
0.0
  0
LINE
  5
92
  8
1
 62
     7
 10
14.753358216499921
 20
-122.5835
 30
0.0
 11
9.8868281014526005
 21
-122.5835
 31
0.0
  0
LINE
  5
93
  8
1
 62
     7
 10
19.020297986405279
 20
-122.5835
 30
0.0
 11
23.8868281014526
 21
-122.5835
 31
0.0
  0
LINE
  5
94
  8
1
 62
     7
 10
14.753358216499921
 20
-129.46850000000001
 30
0.0
 11
9.8868281014525952
 21
-129.46850000000001
 31
0.0
  0
LINE
  5
95
  8
1
 62
     7
 10
19.020297986405279
 20
-129.46850000000001
 30
0.0
 11
23.8868281014526
 21
-129.46850000000001
 31
0.0
  0
LINE
  5
96
  8
1
 62
     7
 10
9.8868281014525952
 20
-117.776
 30
0.0
 11
9.8868281014525916
 21
-132.77600000000001
 31
0.0
  0
LINE
  5
97
  8
1
 62
     7
 10
23.8868281014526
 20
-119.276
 30
0.0
 11
9.8868281014526005
 21
-119.276
 31
0.0
  0
LINE
  5
98
  8
1
 62
     7
 10
38.386828101452608
 20
-78.276000000000025
 30
0.0
 11
38.386828101452608
 21
-132.77600000000001
 31
0.0
  0
LINE
  5
99
  8
1
 62
     7
 10
30.3868281014526
 20
-78.276000000000025
 30
0.0
 11
38.386828101452608
 21
-78.276000000000025
 31
0.0
  0
LINE
  5
9A
  8
1
 62
     7
 10
30.3868281014526
 20
-132.77600000000001
 30
0.0
 11
30.3868281014526
 21
-78.276000000000025
 31
0.0
  0
LINE
  5
9B
  8
1
 62
     7
 10
44.886828101452608
 20
-119.276
 30
0.0
 11
44.8868281014526
 21
-132.77600000000001
 31
0.0
  0
LINE
  5
9C
  8
1
 62
     7
 10
23.8868281014526
 20
-119.276
 30
0.0
 11
23.8868281014526
 21
-132.77600000000001
 31
0.0
  0
LINE
  5
9D
  8
1
 62
     7
 10
38.386828101452608
 20
-125.276
 30
0.0
 11
44.8868281014526
 21
-125.276
 31
0.0
  0
LINE
  5
9E
  8
1
 62
     7
 10
23.8868281014526
 20
-125.276
 30
0.0
 11
30.3868281014526
 21
-125.276
 31
0.0
  0
LINE
  5
9F
  8
1
  6
DASHDOT
 62
     3
 10
77.886828101452593
 20
-150.27600000000001
 30
0.0
 11
-0.1131718985474031
 21
-150.27600000000001
 31
0.0
  0
LINE
  5
A0
  8
1
 62
     7
 10
8.8868281014525952
 20
-132.77600000000001
 30
0.0
 11
8.8868281014525952
 21
-150.27600000000001
 31
0.0
  0
LINE
  5
A1
  8
1
 62
     7
 10
72.886828101452593
 20
-132.77600000000001
 30
0.0
 11
8.8868281014525952
 21
-132.77600000000001
 31
0.0
  0
LINE
  5
A2
  8
1
 62
     7
 10
72.886828101452593
 20
-150.27600000000001
 30
0.0
 11
72.886828101452593
 21
-132.77600000000001
 31
0.0
  0
ARC
  5
A3
  8
1
  6
DASHDOT
 62
     3
 10
189.17500000000001
 20
-150.27600000000001
 30
0.0
 40
52.500000000000021
 50
293.98655094718191
 51
306.0134490528182
  0
ARC
  5
A4
  8
1
  6
DASHDOT
 62
     3
 10
189.17500000000001
 20
-150.27600000000001
 30
0.0
 40
52.499999999999929
 50
173.9865509471818
 51
186.01344905281809
  0
ARC
  5
A5
  8
1
  6
DASHDOT
 62
     3
 10
189.17500000000001
 20
-150.27600000000001
 30
0.0
 40
52.5
 50
53.98655094718179
 51
66.013449052818117
  0
ARC
  5
A6
  8
1
 62
     7
 10
189.17500000000001
 20
-150.27600000000001
 30
0.0
 40
7.9999999999999858
 50
108.209956864283
 51
71.790043135716957
  0
ARC
  5
A7
  8
1
 62
     7
 10
66.886828101452593
 20
-150.27600000000001
 30
0.0
 40
1.400000000000005
 50
180.0
 51
0.0
  0
ARC
  5
A8
  8
1
 62
     3
 10
66.886828101452593
 20
-150.27600000000001
 30
0.0
 40
2.0
 50
180.0
 51
0.0
  0
CIRCLE
  5
A9
  8
1
 62
     3
 10
215.42500000000001
 20
-195.74233369868301
 30
0.0
 40
2.499999999999984
  0
CIRCLE
  5
AA
  8
1
 62
     7
 10
215.42500000000001
 20
-195.74233369868301
 30
0.0
 40
1.9000000000000561
  0
CIRCLE
  5
AB
  8
1
 62
     3
 10
136.67500000000001
 20
-150.27600000000001
 30
0.0
 40
2.500000000000008
  0
CIRCLE
  5
AC
  8
1
 62
     7
 10
136.67500000000001
 20
-150.27600000000001
 30
0.0
 40
1.900000000000081
  0
CIRCLE
  5
AD
  8
1
 62
     3
 10
215.42500000000001
 20
-104.80966630131699
 30
0.0
 40
2.5
  0
CIRCLE
  5
AE
  8
1
 62
     7
 10
215.42500000000001
 20
-104.80966630131699
 30
0.0
 40
1.8999999999999759
  0
CIRCLE
  5
AF
  8
1
 62
     7
 10
189.17500000000001
 20
-150.27600000000001
 30
0.0
 40
83.250000000000014
  0
CIRCLE
  5
B0
  8
1
 62
     7
 10
189.17500000000001
 20
-150.27600000000001
 30
0.0
 40
31.0
  0
CIRCLE
  5
B1
  8
1
 62
     7
 10
189.17500000000001
 20
-150.27600000000001
 30
0.0
 40
17.5
  0
CIRCLE
  5
B2
  8
1
 62
     7
 10
51.886828101452608
 20
-126.026
 30
0.0
 40
4.0500000000000043
  0
CIRCLE
  5
B3
  8
1
 62
     7
 10
16.88682810145259
 20
-126.026
 30
0.0
 40
4.0500000000000007
  0
TEXT
  5
B5
  8
1
 62
     7
 10
-20.431750394497652
 20
-49.494018788621588
 30
0.0
 40
5.0
  1
PHT 70D
 41
0.9
  7
SIMPLEX
  0
ENDSEC
  0
EOF
