  0
SECTION
  2
HEADER
  9
$ACADVER
  1
AC1009
  9
$INSBASE
 10
0
 20
0
  9
$EXTMIN
 10
57.49361097661871
 20
21.82459665403777
  9
$EXTMAX
 10
248.021197954825
 20
73.01375950351779
  9
$LIMMIN
 10
57.49361097661871
 20
21.82459665403777
  9
$LIMMAX
 10
248.021197954825
 20
73.01375950351779
  9
$VIEWCTR
 10
10
 20
10
  9
$VIEWSIZE
 40
10
  9
$SNAPMODE
 70
0
  9
$SNAPUNIT
 10
1
 20
1
  9
$SNAPBASE
 10
0
 20
0
  9
$SNAPANG
 50
0
  9
$SNAPSTYLE
 70
0
  9
$SNAPISOPAIR
 70
0
  9
$GRIDMODE
 70
0
  9
$GRIDUNIT
 10
0
 20
0
  9
$ORTHOMODE
 70
0
  9
$REGENMODE
 70
1
  9
$FILLMODE
 70
1
  9
$QTEXTMODE
 70
0
  9
$DRAGMODE
 70
2
  9
$LTSCALE
 40
1
  9
$OSMODE
 70
0
  9
$ATTMODE
 70
1
  9
$TEXTSIZE
 40
3.5
  9
$TRACEWID
 40
0.5
  9
$TEXTSTYLE
  7
STANDARD
  9
$CLAYER
  8
0
  9
$CELTYPE
  6
BYLAYER
  9
$CECOLOR
 62
256
  9
$DIMSCALE
 40
1
  9
$DIMASZ
 40
0.18
  9
$DIMEXO
 40
0.0625
  9
$DIMDLI
 40
0.38
  9
$DIMRND
 40
0
  9
$DIMDLE
 40
0
  9
$DIMEXE
 40
0.18
  9
$DIMTP
 40
0
  9
$DIMTM
 40
0
  9
$DIMTXT
 40
0.18
  9
$DIMCEN
 40
0.09
  9
$DIMTSZ
 40
0
  9
$DIMTOL
 70
0
  9
$DIMLIM
 70
0
  9
$DIMTIH
 70
1
  9
$DIMTOH
 70
1
  9
$DIMSE1
 70
0
  9
$DIMSE2
 70
0
  9
$DIMTAD
 70
0
  9
$DIMZIN
 70
0
  9
$DIMBLK
  1

  9
$DIMASO
 70
1
  9
$DIMSHO
 70
1
  9
$DIMPOST
  1

  9
$DIMAPOST
  1

  9
$DIMALT
 70
0
  9
$DIMALTD
 70
2
  9
$DIMALTF
 40
25.4
  9
$DIMLFAC
 40
1
  9
$DIMTOFL
 70
0
  9
$DIMTVP
 40
0
  9
$DIMTIX
 70
0
  9
$DIMSOXD
 70
0
  9
$DIMSAH
 70
0
  9
$DIMBLK1
  1

  9
$DIMBLK2
  1

  9
$DIMSTYLE
  2
*UNNAMED
  9
$DIMCLRD
 70
0
  9
$DIMCLRE
 70
0
  9
$DIMCLRT
 70
0
  9
$DIMTFAC
 40
1
  9
$DIMGAP
 40
0.09
  9
$LUNITS
 70
2
  9
$LUPREC
 70
4
  9
$AXISMODE
 70
0
  9
$AXISUNIT
 10
0
 20
0
  9
$SKETCHINC
 40
0.1
  9
$FILLETRAD
 40
2
  9
$AUNITS
 70
0
  9
$AUPREC
 70
0
  9
$MENU
  1
ACAD
  9
$ELEVATION
 40
0
  9
$THICKNESS
 40
0
  9
$VIEWDIR
 10
0
 20
0
 30
1
  9
$LIMCHECK
 70
0
  9
$BLIPMODE
 70
1
  9
$CHAMFERA
 40
0
  9
$CHAMFERB
 40
0
  9
$FASTZOOM
 70
1
  9
$SKPOLY
 70
0
  9
$ANGBASE
 50
0
  9
$ANGDIR
 70
0
  9
$PDMODE
 70
0
  9
$PDSIZE
 40
0
  9
$PLINEWID
 40
0
  9
$COORDS
 70
2
  0
ENDSEC
  0
SECTION
  2
TABLES
  0
TABLE
  2
DIMSTYLE
 70
0
  0
ENDTAB
  0
TABLE
  2
LTYPE
 70
9
  0
LTYPE
  2
CONTINUOUS
 70
64
  3
Solid line
 72
65
 73
0
 40
0
  0
LTYPE
  2
BORDER
 70
64
  3
__ __ . __ __ .
 72
65
 73
6
 40
8.774296768733183
 49
2.506941933923767
 49
-1.253470966961883
 49
2.506941933923767
 49
-1.253470966961883
 49
0
 49
-1.253470966961883
  0
LTYPE
  2
CENTER
 70
64
  3
____ _ ____ _
 72
65
 73
4
 40
10.02776773569507
 49
6.267354834809416
 49
-1.253470966961883
 49
1.253470966961883
 49
-1.253470966961883
  0
LTYPE
  2
DASHDOT
 70
64
  3
__ . __ . __ .
 72
65
 73
4
 40
5.013883867847533
 49
2.506941933923767
 49
-1.253470966961883
 49
0
 49
-1.253470966961883
  0
LTYPE
  2
DASHED
 70
64
  3
__ __ __ __ __
 72
65
 73
2
 40
3.76041290088565
 49
2.506941933923767
 49
-1.253470966961883
  0
LTYPE
  2
DIVIDE
 70
64
  3
__ . . __ . . 
 72
65
 73
6
 40
6.267354834809416
 49
2.506941933923767
 49
-1.253470966961883
 49
0
 49
-1.253470966961883
 49
0
 49
-1.253470966961883
  0
LTYPE
  2
DOT
 70
64
  3
..............
 72
65
 73
4
 40
2.506941933923767
 49
0
 49
-1.253470966961883
 49
0
 49
-1.253470966961883
  0
LTYPE
  2
HIDDEN
 70
64
  3
_ _ _ _ _ _ _
 72
65
 73
2
 40
1.880206450442825
 49
1.253470966961883
 49
-0.6267354834809417
  0
LTYPE
  2
PHANTOM
 70
64
  3
_____ _ _ _____ _ _ 
 72
65
 73
6
 40
12.53470966961883
 49
6.267354834809416
 49
-1.253470966961883
 49
1.253470966961883
 49
-1.253470966961883
 49
1.253470966961883
 49
-1.253470966961883
  0
ENDTAB
  0
TABLE
  2
LAYER
 70
3
  0
LAYER
  2
1
 70
0
 62
7
  6
CONTINUOUS
  0
LAYER
  2
0
 70
0
 62
7
  6
CONTINUOUS
  0
ENDTAB
  0
TABLE
  2
STYLE
 70
4
  0
STYLE
  2
STANDARD
 70
0
 40
0
 41
1
 50
0
 71
0
 42
3.5
  3
txt
  4

  0
STYLE
  2
SIMPLEX
 70
0
 40
0
 41
1
 50
0
 71
0
 42
3.5
  3
simplex
  4

  0
STYLE
  2
COMPLEX
 70
0
 40
0
 41
1
 50
0
 71
0
 42
3.5
  3
complex
  4

  0
STYLE
  2
ITALIC
 70
0
 40
0
 41
1
 50
0
 71
0
 42
3.5
  3
italic
  4

  0
ENDTAB
  0
TABLE
  2
VIEW
 70
0
  0
ENDTAB
  0
ENDSEC
  0
SECTION
  2
BLOCKS
  0
ENDSEC
  0
SECTION
  2
ENTITIES
  0
LINE
  8
1
 62
7
 10
235.7086767683235
 20
36.27459665403778
 30
0
 11
236.7748807376787
 21
36.27459665403778
 31
0
  0
LINE
  8
1
 62
7
 10
227.2675151719713
 20
36.27459665403778
 30
0
 11
228.3337191413265
 21
36.27459665403778
 31
0
  0
LINE
  8
1
 62
7
 10
235.7086767683235
 20
39.37459665403776
 30
0
 11
236.7748807376787
 21
39.37459665403776
 31
0
  0
LINE
  8
1
 62
7
 10
227.2675151719713
 20
39.37459665403776
 30
0
 11
228.3337191413265
 21
39.37459665403776
 31
0
  0
LINE
  8
1
 62
3
  6
DASHDOT
 10
232.021197954825
 20
35.81386141589172
 30
0
 11
232.021197954825
 21
39.83533189218382
 31
0
  0
LINE
  8
1
 62
3
  6
DASHDOT
 10
230.010462716679
 20
37.82459665403777
 30
0
 11
234.0319331929711
 21
37.82459665403777
 31
0
  0
LINE
  8
1
 62
7
 10
171.4937787910434
 20
21.82459665403777
 30
0
 11
171.4937787910434
 21
53.82459665403777
 31
0
  0
LINE
  8
1
 62
7
 10
171.4937787910434
 20
21.82459665403777
 30
0
 11
134.4937787910434
 21
21.82459665403777
 31
0
  0
LINE
  8
1
 62
7
 10
134.4937787910434
 20
27.82459665403777
 30
0
 11
132.4937787910434
 21
27.82459665403777
 31
0
  0
LINE
  8
1
 62
7
 10
172.4937787910434
 20
36.27459665403778
 30
0
 11
176.4937787910434
 21
36.27459665403778
 31
0
  0
LINE
  8
1
 62
7
 10
176.4937787910434
 20
32.82459665403776
 30
0
 11
171.4937787910434
 21
32.82459665403772
 31
0
  0
LINE
  8
1
 62
7
 10
176.4937787910434
 20
36.27459665403778
 30
0
 11
176.4937787910434
 21
32.82459665403776
 31
0
  0
LINE
  8
1
 62
3
  6
DASHDOT
 10
89.7760430645824
 20
30.22416547592613
 30
0
 11
85.98575564777337
 21
32.41248893632686
 31
0
  0
LINE
  8
1
 62
3
  6
DASHDOT
 10
76.61171010466245
 20
39.83533189218382
 30
0
 11
76.61171010466245
 21
35.81386141589172
 31
0
  0
LINE
  8
1
 62
3
  6
DASHDOT
 10
74.6009748665164
 20
37.82459665403777
 30
0
 11
78.6224453428085
 21
37.82459665403777
 31
0
  0
LINE
  8
1
 62
3
  6
DASHDOT
 10
76.61171010466246
 20
53.02545901026105
 30
0
 11
76.61171010466246
 21
48.64881208945958
 31
0
  0
LINE
  8
1
 62
3
  6
DASHDOT
 10
63.44737714474251
 20
30.22416547592612
 30
0
 11
67.23766456155153
 21
32.41248893632687
 31
0
  0
LINE
  8
1
 62
7
 10
134.4937787910434
 20
53.82459665403777
 30
0
 11
134.4937787910434
 21
21.82459665403777
 31
0
  0
LINE
  8
1
 62
7
 10
134.4937787910434
 20
53.82459665403777
 30
0
 11
171.4937787910434
 21
53.82459665403777
 31
0
  0
LINE
  8
1
 62
7
 10
132.4937787910434
 20
47.82459665403777
 30
0
 11
134.4937787910434
 21
47.82459665403777
 31
0
  0
LINE
  8
1
 62
7
 10
176.4937787910434
 20
39.37459665403776
 30
0
 11
172.4937787910434
 21
39.37459665403777
 31
0
  0
LINE
  8
1
 62
7
 10
171.4937787910434
 20
42.82459665403782
 30
0
 11
176.4937787910434
 21
42.82459665403772
 31
0
  0
LINE
  8
1
 62
7
 10
176.4937787910434
 20
42.82459665403772
 30
0
 11
176.4937787910434
 21
39.37459665403776
 31
0
  0
LINE
  8
1
 62
7
 10
169.9937787910434
 20
53.82459665403777
 30
0
 11
169.9937787910434
 21
21.82459665403777
 31
0
  0
LINE
  8
1
 62
7
 10
132.4937787910434
 20
47.82459665403777
 30
0
 11
132.4937787910434
 21
27.82459665403777
 31
0
  0
LINE
  8
1
 62
7
 10
172.4937787910434
 20
39.37459665403777
 30
0
 11
172.4937787910434
 21
36.27459665403778
 31
0
  0
LINE
  8
1
 62
3
  6
DASHED
 10
132.4937787910434
 20
44.82459665403776
 30
0
 11
133.4937787910434
 21
44.82459665403776
 31
0
  0
LINE
  8
1
 62
3
  6
DASHED
 10
133.4937787910434
 20
44.82459665403776
 30
0
 11
133.4937787910434
 21
30.82459665403778
 31
0
  0
LINE
  8
1
 62
3
  6
DASHED
 10
133.4937787910434
 20
41.82459665403776
 30
0
 11
176.4937787910434
 21
41.82459665403776
 31
0
  0
LINE
  8
1
 62
3
  6
DASHED
 10
176.4937787910434
 20
33.82459665403778
 30
0
 11
133.4937787910434
 21
33.82459665403778
 31
0
  0
LINE
  8
1
 62
3
  6
DASHED
 10
133.4937787910434
 20
30.82459665403778
 30
0
 11
132.4937787910434
 21
30.82459665403778
 31
0
  0
LINE
  8
1
 62
3
  6
DASHDOT
 10
132.4937787910434
 20
37.82459665403777
 30
0
 11
129.4937787910434
 21
37.82459665403777
 31
0
  0
LINE
  8
1
 62
3
  6
DASHDOT
 10
176.4937787910434
 20
37.82459665403777
 30
0
 11
179.4937787910434
 21
37.82459665403777
 31
0
  0
ARC
  8
1
 62
3
  6
DASHDOT
 10
76.61171010466245
 20
37.82459665403777
 30
0
 40
13
 50
320.2883688883181
 51
339.7116311116819
  0
ARC
  8
1
 62
3
  6
DASHDOT
 10
76.61171010466245
 20
37.82459665403777
 30
0
 40
13
 50
80.288368888318
 51
99.71163111168187
  0
ARC
  8
1
 62
3
  6
DASHDOT
 10
76.61171010466245
 20
37.82459665403777
 30
0
 40
12.99999999999999
 50
200.288368888318
 51
219.7116311116819
  0
CIRCLE
  8
1
 62
7
 10
232.021197954825
 20
37.82459665403777
 30
0
 40
4
  0
CIRCLE
  8
1
 62
7
 10
232.021197954825
 20
37.82459665403777
 30
0
 40
4.999999999999915
  0
CIRCLE
  8
1
 62
7
 10
232.021197954825
 20
37.82459665403777
 30
0
 40
16
  0
CIRCLE
  8
1
 62
7
 10
232.021197954825
 20
37.82459665403777
 30
0
 40
16
  0
CIRCLE
  8
1
 62
7
 10
232.021197954825
 20
37.82459665403777
 30
0
 40
10.5
  0
CIRCLE
  8
1
 62
7
 10
232.021197954825
 20
37.82459665403777
 30
0
 40
6.5
  0
CIRCLE
  8
1
 62
7
 10
76.61171010466245
 20
37.82459665403777
 30
0
 40
15.99999999999999
  0
CIRCLE
  8
1
 62
7
 10
76.61171010466245
 20
37.82459665403777
 30
0
 40
9.999999999999972
  0
CIRCLE
  8
1
 62
7
 10
76.61171010466245
 20
37.82459665403777
 30
0
 40
4
  0
CIRCLE
  8
1
 62
3
 10
87.87004035386015
 20
31.32459665403777
 30
0
 40
1.5
  0
CIRCLE
  8
1
 62
7
 10
87.87004035386015
 20
31.32459665403777
 30
0
 40
1.200000000000003
  0
CIRCLE
  8
1
 62
7
 10
76.61171010466245
 20
37.82459665403777
 30
0
 40
7
  0
CIRCLE
  8
1
 62
3
 10
76.61171010466246
 20
50.82459665403776
 30
0
 40
1.5
  0
CIRCLE
  8
1
 62
7
 10
76.61171010466246
 20
50.82459665403776
 30
0
 40
1.200000000000003
  0
CIRCLE
  8
1
 62
3
 10
65.35337985546475
 20
31.32459665403778
 30
0
 40
1.5
  0
CIRCLE
  8
1
 62
7
 10
65.35337985546475
 20
31.32459665403778
 30
0
 40
1.200000000000003
  0
TEXT
  8
1
 62
7
 10
56.96861097661871
 20
70.01375950351779
 30
0
 40
3
  1
OPL 3BR
 41
0.9
  7
SIMPLEX
 72
1
 11
66.41861097661871
 21
70.01375950351779
 31
0
  0
TEXT
  8
1
 62
7
 10
57.6973022169713
 20
65.10231734312171
 30
0
 40
3
  1
DC6604
 41
0.9
  7
SIMPLEX
 72
1
 11
65.7973022169713
 21
65.10231734312171
 31
0
  0
ENDSEC
  0
EOF
