  0
SECTION
  2
HEADER
  9
$ACADVER
  1
AC1009
  9
$INSBASE
 10
0
 20
0
  9
$EXTMIN
 10
43.62308638856524
 20
239.9594360401343
  9
$EXTMAX
 10
551.6336800273023
 20
564.73588784886
  9
$LIMMIN
 10
43.62308638856524
 20
239.9594360401343
  9
$LIMMAX
 10
551.6336800273023
 20
564.73588784886
  9
$VIEWCTR
 10
10
 20
10
  9
$VIEWSIZE
 40
10
  9
$SNAPMODE
 70
0
  9
$SNAPUNIT
 10
1
 20
1
  9
$SNAPBASE
 10
0
 20
0
  9
$SNAPANG
 50
0
  9
$SNAPSTYLE
 70
0
  9
$SNAPISOPAIR
 70
0
  9
$GRIDMODE
 70
0
  9
$GRIDUNIT
 10
0
 20
0
  9
$ORTHOMODE
 70
0
  9
$REGENMODE
 70
1
  9
$FILLMODE
 70
1
  9
$QTEXTMODE
 70
0
  9
$DRAGMODE
 70
2
  9
$LTSCALE
 40
1
  9
$OSMODE
 70
0
  9
$ATTMODE
 70
1
  9
$TEXTSIZE
 40
3.5
  9
$TRACEWID
 40
0.5
  9
$TEXTSTYLE
  7
STANDARD
  9
$CLAYER
  8
0
  9
$CELTYPE
  6
BYLAYER
  9
$CECOLOR
 62
256
  9
$DIMSCALE
 40
1
  9
$DIMASZ
 40
0.18
  9
$DIMEXO
 40
0.0625
  9
$DIMDLI
 40
0.38
  9
$DIMRND
 40
0
  9
$DIMDLE
 40
0
  9
$DIMEXE
 40
0.18
  9
$DIMTP
 40
0
  9
$DIMTM
 40
0
  9
$DIMTXT
 40
0.18
  9
$DIMCEN
 40
0.09
  9
$DIMTSZ
 40
0
  9
$DIMTOL
 70
0
  9
$DIMLIM
 70
0
  9
$DIMTIH
 70
1
  9
$DIMTOH
 70
1
  9
$DIMSE1
 70
0
  9
$DIMSE2
 70
0
  9
$DIMTAD
 70
0
  9
$DIMZIN
 70
0
  9
$DIMBLK
  1

  9
$DIMASO
 70
1
  9
$DIMSHO
 70
1
  9
$DIMPOST
  1

  9
$DIMAPOST
  1

  9
$DIMALT
 70
0
  9
$DIMALTD
 70
2
  9
$DIMALTF
 40
25.4
  9
$DIMLFAC
 40
1
  9
$DIMTOFL
 70
0
  9
$DIMTVP
 40
0
  9
$DIMTIX
 70
0
  9
$DIMSOXD
 70
0
  9
$DIMSAH
 70
0
  9
$DIMBLK1
  1

  9
$DIMBLK2
  1

  9
$DIMSTYLE
  2
*UNNAMED
  9
$DIMCLRD
 70
0
  9
$DIMCLRE
 70
0
  9
$DIMCLRT
 70
0
  9
$DIMTFAC
 40
1
  9
$DIMGAP
 40
0.09
  9
$LUNITS
 70
2
  9
$LUPREC
 70
4
  9
$AXISMODE
 70
0
  9
$AXISUNIT
 10
0
 20
0
  9
$SKETCHINC
 40
0.1
  9
$FILLETRAD
 40
2
  9
$AUNITS
 70
0
  9
$AUPREC
 70
0
  9
$MENU
  1
ACAD
  9
$ELEVATION
 40
0
  9
$THICKNESS
 40
0
  9
$VIEWDIR
 10
0
 20
0
 30
1
  9
$LIMCHECK
 70
0
  9
$BLIPMODE
 70
1
  9
$CHAMFERA
 40
0
  9
$CHAMFERB
 40
0
  9
$FASTZOOM
 70
1
  9
$SKPOLY
 70
0
  9
$ANGBASE
 50
0
  9
$ANGDIR
 70
0
  9
$PDMODE
 70
0
  9
$PDSIZE
 40
0
  9
$PLINEWID
 40
0
  9
$COORDS
 70
2
  0
ENDSEC
  0
SECTION
  2
TABLES
  0
TABLE
  2
DIMSTYLE
 70
0
  0
ENDTAB
  0
TABLE
  2
LTYPE
 70
9
  0
LTYPE
  2
CONTINUOUS
 70
64
  3
Solid line
 72
65
 73
0
 40
0
  0
LTYPE
  2
BORDER
 70
64
  3
__ __ . __ __ .
 72
65
 73
6
 40
23.3952247070471
 49
6.684349916299172
 49
-3.342174958149586
 49
6.684349916299172
 49
-3.342174958149586
 49
0
 49
-3.342174958149586
  0
LTYPE
  2
CENTER
 70
64
  3
____ _ ____ _
 72
65
 73
4
 40
26.73739966519669
 49
16.71087479074793
 49
-3.342174958149586
 49
3.342174958149586
 49
-3.342174958149586
  0
LTYPE
  2
DASHDOT
 70
64
  3
__ . __ . __ .
 72
65
 73
4
 40
13.36869983259834
 49
6.684349916299172
 49
-3.342174958149586
 49
0
 49
-3.342174958149586
  0
LTYPE
  2
DASHED
 70
64
  3
__ __ __ __ __
 72
65
 73
2
 40
10.02652487444876
 49
6.684349916299172
 49
-3.342174958149586
  0
LTYPE
  2
DIVIDE
 70
64
  3
__ . . __ . . 
 72
65
 73
6
 40
16.71087479074793
 49
6.684349916299172
 49
-3.342174958149586
 49
0
 49
-3.342174958149586
 49
0
 49
-3.342174958149586
  0
LTYPE
  2
DOT
 70
64
  3
..............
 72
65
 73
4
 40
6.684349916299172
 49
0
 49
-3.342174958149586
 49
0
 49
-3.342174958149586
  0
LTYPE
  2
HIDDEN
 70
64
  3
_ _ _ _ _ _ _
 72
65
 73
2
 40
5.013262437224379
 49
3.342174958149586
 49
-1.671087479074793
  0
LTYPE
  2
PHANTOM
 70
64
  3
_____ _ _ _____ _ _ 
 72
65
 73
6
 40
33.42174958149586
 49
16.71087479074793
 49
-3.342174958149586
 49
3.342174958149586
 49
-3.342174958149586
 49
3.342174958149586
 49
-3.342174958149586
  0
ENDTAB
  0
TABLE
  2
LAYER
 70
3
  0
LAYER
  2
1
 70
0
 62
7
  6
CONTINUOUS
  0
LAYER
  2
0
 70
0
 62
7
  6
CONTINUOUS
  0
ENDTAB
  0
TABLE
  2
STYLE
 70
4
  0
STYLE
  2
STANDARD
 70
0
 40
0
 41
1
 50
0
 71
0
 42
3.5
  3
txt
  4

  0
STYLE
  2
SIMPLEX
 70
0
 40
0
 41
1
 50
0
 71
0
 42
3.5
  3
simplex
  4

  0
STYLE
  2
COMPLEX
 70
0
 40
0
 41
1
 50
0
 71
0
 42
3.5
  3
complex
  4

  0
STYLE
  2
ITALIC
 70
0
 40
0
 41
1
 50
0
 71
0
 42
3.5
  3
italic
  4

  0
ENDTAB
  0
TABLE
  2
VIEW
 70
0
  0
ENDTAB
  0
ENDSEC
  0
SECTION
  2
BLOCKS
  0
ENDSEC
  0
SECTION
  2
ENTITIES
  0
LINE
  8
1
 62
3
  6
DIVIDE
 10
507.8336800273022
 20
285.3594360401343
 30
0
 11
507.8336800273022
 21
282.8594360401343
 31
0
  0
LINE
  8
1
 62
3
  6
DIVIDE
 10
507.8336800273022
 20
282.8594360401343
 30
0
 11
508.6336800273023
 21
282.0594360401343
 31
0
  0
LINE
  8
1
 62
7
 10
506.6336800273023
 20
282.0594360401343
 30
0
 11
507.4336800273022
 21
282.8594360401343
 31
0
  0
LINE
  8
1
 62
3
  6
DIVIDE
 10
533.6336800273023
 20
283.5594360401343
 30
0
 11
533.6336800273023
 21
269.0594360401343
 31
0
  0
LINE
  8
1
 62
3
  6
DIVIDE
 10
545.1336800273023
 20
299.5594360401343
 30
0
 11
545.1336800273023
 21
272.0594360401343
 31
0
  0
LINE
  8
1
 62
3
  6
DIVIDE
 10
545.1336800273023
 20
272.0594360401343
 30
0
 11
540.1336800273023
 21
267.0594360401343
 31
0
  0
LINE
  8
1
 62
3
  6
DIVIDE
 10
535.6336800273023
 20
267.0594360401343
 30
0
 11
540.1336800273023
 21
267.0594360401343
 31
0
  0
LINE
  8
1
 62
3
  6
DIVIDE
 10
535.6336800273023
 20
267.0594360401343
 30
0
 11
533.6336800273023
 21
269.0594360401343
 31
0
  0
LINE
  8
1
 62
3
  6
DIVIDE
 10
533.6336800273023
 20
282.0594360401343
 30
0
 11
534.4336800273022
 21
282.8594360401343
 31
0
  0
LINE
  8
1
 62
3
  6
DIVIDE
 10
534.4336800273022
 20
282.8594360401343
 30
0
 11
534.4336800273022
 21
285.3594360401343
 31
0
  0
LINE
  8
1
 62
3
  6
DIVIDE
 10
531.1336800273023
 20
284.5594360401343
 30
0
 11
531.9336800273022
 21
285.3594360401343
 31
0
  0
LINE
  8
1
 62
3
  6
DIVIDE
 10
531.9336800273022
 20
285.3594360401343
 30
0
 11
534.4336800273022
 21
285.3594360401343
 31
0
  0
LINE
  8
1
 62
3
  6
DIVIDE
 10
511.1336800273023
 20
284.5594360401343
 30
0
 11
531.1336800273023
 21
284.5594360401343
 31
0
  0
LINE
  8
1
 62
3
  6
DIVIDE
 10
510.3336800273022
 20
285.3594360401343
 30
0
 11
511.1336800273023
 21
284.5594360401343
 31
0
  0
LINE
  8
1
 62
3
  6
DIVIDE
 10
507.8336800273022
 20
285.3594360401343
 30
0
 11
510.3336800273022
 21
285.3594360401343
 31
0
  0
LINE
  8
1
 62
3
  6
DIVIDE
 10
508.6336800273023
 20
269.0594360401343
 30
0
 11
508.6336800273023
 21
283.5594360401343
 31
0
  0
LINE
  8
1
 62
3
  6
DIVIDE
 10
508.6336800273023
 20
269.0594360401343
 30
0
 11
506.6336800273023
 21
267.0594360401343
 31
0
  0
LINE
  8
1
 62
3
  6
DIVIDE
 10
502.1336800273022
 20
267.0594360401343
 30
0
 11
506.6336800273023
 21
267.0594360401343
 31
0
  0
LINE
  8
1
 62
3
  6
DIVIDE
 10
502.1336800273022
 20
267.0594360401343
 30
0
 11
497.1336800273022
 21
272.0594360401343
 31
0
  0
LINE
  8
1
 62
3
  6
DIVIDE
 10
497.1336800273022
 20
299.5594360401343
 30
0
 11
497.1336800273022
 21
272.0594360401343
 31
0
  0
LINE
  8
1
 62
3
  6
DASHDOT
 10
521.1336800273023
 20
303.4756946505506
 30
0
 11
521.1336800273023
 21
265.4756946505506
 31
0
  0
LINE
  8
1
 62
3
  6
DASHDOT
 10
494.1336800273023
 20
303.4756946505506
 30
0
 11
494.1336800273023
 21
265.4756946505506
 31
0
  0
LINE
  8
1
 62
3
  6
DIVIDE
 10
545.1336800273023
 20
467.0594360401343
 30
0
 11
545.1336800273023
 21
439.5594360401343
 31
0
  0
LINE
  8
1
 62
3
  6
DIVIDE
 10
540.1336800273023
 20
472.0594360401343
 30
0
 11
545.1336800273023
 21
467.0594360401343
 31
0
  0
LINE
  8
1
 62
3
  6
DIVIDE
 10
533.6336800273023
 20
470.0594360401343
 30
0
 11
535.6336800273023
 21
472.0594360401343
 31
0
  0
LINE
  8
1
 62
3
  6
DIVIDE
 10
540.1336800273023
 20
472.0594360401343
 30
0
 11
535.6336800273023
 21
472.0594360401343
 31
0
  0
LINE
  8
1
 62
3
  6
DIVIDE
 10
533.6336800273023
 20
470.0594360401343
 30
0
 11
533.6336800273023
 21
455.5594360401343
 31
0
  0
LINE
  8
1
 62
3
  6
DIVIDE
 10
534.4336800273022
 20
453.7594360401343
 30
0
 11
534.4336800273022
 21
456.2594360401343
 31
0
  0
LINE
  8
1
 62
3
  6
DIVIDE
 10
534.4336800273022
 20
456.2594360401343
 30
0
 11
533.6336800273023
 21
457.0594360401343
 31
0
  0
LINE
  8
1
 62
3
  6
DIVIDE
 10
531.9336800273022
 20
453.7594360401343
 30
0
 11
531.1336800273023
 21
454.5594360401343
 31
0
  0
LINE
  8
1
 62
3
  6
DIVIDE
 10
534.4336800273022
 20
453.7594360401343
 30
0
 11
531.9336800273022
 21
453.7594360401343
 31
0
  0
LINE
  8
1
 62
3
  6
DIVIDE
 10
531.1336800273023
 20
454.5594360401343
 30
0
 11
511.1336800273023
 21
454.5594360401343
 31
0
  0
LINE
  8
1
 62
3
  6
DIVIDE
 10
511.1336800273023
 20
454.5594360401343
 30
0
 11
510.3336800273022
 21
453.7594360401343
 31
0
  0
LINE
  8
1
 62
3
  6
DIVIDE
 10
510.3336800273022
 20
453.7594360401343
 30
0
 11
507.8336800273022
 21
453.7594360401343
 31
0
  0
LINE
  8
1
 62
3
  6
DIVIDE
 10
507.8336800273022
 20
456.2594360401343
 30
0
 11
507.8336800273022
 21
453.7594360401343
 31
0
  0
LINE
  8
1
 62
3
  6
DIVIDE
 10
508.6336800273023
 20
457.0594360401343
 30
0
 11
507.8336800273022
 21
456.2594360401343
 31
0
  0
LINE
  8
1
 62
3
  6
DIVIDE
 10
508.6336800273023
 20
455.5594360401343
 30
0
 11
508.6336800273023
 21
470.0594360401343
 31
0
  0
LINE
  8
1
 62
3
  6
DIVIDE
 10
506.6336800273023
 20
472.0594360401343
 30
0
 11
508.6336800273023
 21
470.0594360401343
 31
0
  0
LINE
  8
1
 62
3
  6
DIVIDE
 10
506.6336800273023
 20
472.0594360401343
 30
0
 11
502.1336800273022
 21
472.0594360401343
 31
0
  0
LINE
  8
1
 62
3
  6
DIVIDE
 10
497.1336800273022
 20
467.0594360401343
 30
0
 11
502.1336800273022
 21
472.0594360401343
 31
0
  0
LINE
  8
1
 62
3
  6
DIVIDE
 10
512.1336800273023
 20
439.5594360401343
 30
0
 11
497.1336800273022
 21
454.5594360401342
 31
0
  0
LINE
  8
1
 62
3
  6
DIVIDE
 10
497.1336800273022
 20
467.0594360401343
 30
0
 11
497.1336800273022
 21
439.5594360401343
 31
0
  0
LINE
  8
1
 62
3
  6
DASHDOT
 10
521.1336800273023
 20
473.643177429718
 30
0
 11
521.1336800273023
 21
435.643177429718
 31
0
  0
LINE
  8
1
 62
3
  6
DASHDOT
 10
494.1336800273023
 20
473.643177429718
 30
0
 11
494.1336800273023
 21
435.643177429718
 31
0
  0
LINE
  8
1
 62
7
 10
475.2876647895181
 20
431.0975639981478
 30
0
 11
402.8777183077875
 21
435.0862474907855
 31
0
  0
LINE
  8
1
 62
7
 10
518.1336800273023
 20
299.5594360401343
 30
0
 11
518.1336800273023
 21
272.0594360401343
 31
0
  0
LINE
  8
1
 62
7
 10
475.1336800273022
 20
267.0594360401343
 30
0
 11
470.1336800273022
 21
272.0594360401343
 31
0
  0
LINE
  8
1
 62
7
 10
484.1336800273023
 20
284.5594360401343
 30
0
 11
504.1336800273023
 21
284.5594360401343
 31
0
  0
LINE
  8
1
 62
7
 10
504.1336800273023
 20
284.5594360401343
 30
0
 11
504.9336800273022
 21
285.3594360401343
 31
0
  0
LINE
  8
1
 62
7
 10
507.4336800273022
 20
282.8594360401343
 30
0
 11
507.4336800273022
 21
285.3594360401343
 31
0
  0
LINE
  8
1
 62
7
 10
504.9336800273022
 20
285.3594360401343
 30
0
 11
507.4336800273022
 21
285.3594360401343
 31
0
  0
LINE
  8
1
 62
7
 10
481.6336800273023
 20
269.0594360401343
 30
0
 11
481.6336800273023
 21
283.5594360401343
 31
0
  0
LINE
  8
1
 62
7
 10
483.3336800273022
 20
285.3594360401343
 30
0
 11
484.1336800273023
 21
284.5594360401343
 31
0
  0
LINE
  8
1
 62
7
 10
480.8336800273022
 20
285.3594360401343
 30
0
 11
480.8336800273022
 21
282.8594360401343
 31
0
  0
LINE
  8
1
 62
7
 10
480.8336800273022
 20
285.3594360401343
 30
0
 11
483.3336800273022
 21
285.3594360401343
 31
0
  0
LINE
  8
1
 62
7
 10
480.8336800273022
 20
282.8594360401343
 30
0
 11
481.6336800273023
 21
282.0594360401343
 31
0
  0
LINE
  8
1
 62
7
 10
508.6336800273023
 20
267.0594360401343
 30
0
 11
506.6336800273023
 21
269.0594360401343
 31
0
  0
LINE
  8
1
 62
7
 10
481.6336800273023
 20
269.0594360401343
 30
0
 11
479.6336800273023
 21
267.0594360401343
 31
0
  0
LINE
  8
1
 62
7
 10
518.1336800273023
 20
272.0594360401343
 30
0
 11
513.1336800273023
 21
267.0594360401343
 31
0
  0
LINE
  8
1
 62
7
 10
475.1336800273022
 20
267.0594360401343
 30
0
 11
479.6336800273023
 21
267.0594360401343
 31
0
  0
LINE
  8
1
 62
7
 10
506.6336800273023
 20
283.5594360401343
 30
0
 11
506.6336800273023
 21
269.0594360401343
 31
0
  0
LINE
  8
1
 62
7
 10
508.6336800273023
 20
267.0594360401343
 30
0
 11
513.1336800273023
 21
267.0594360401343
 31
0
  0
LINE
  8
1
 62
7
 10
485.1336800273022
 20
439.5594360401343
 30
0
 11
470.1336800273022
 21
454.5594360401342
 31
0
  0
LINE
  8
1
 62
7
 10
504.1336800273023
 20
454.5594360401343
 30
0
 11
484.1336800273023
 21
454.5594360401343
 31
0
  0
LINE
  8
1
 62
7
 10
504.9336800273022
 20
453.7594360401343
 30
0
 11
504.1336800273023
 21
454.5594360401343
 31
0
  0
LINE
  8
1
 62
7
 10
507.4336800273022
 20
453.7594360401343
 30
0
 11
507.4336800273022
 21
456.2594360401343
 31
0
  0
LINE
  8
1
 62
7
 10
507.4336800273022
 20
453.7594360401343
 30
0
 11
504.9336800273022
 21
453.7594360401343
 31
0
  0
LINE
  8
1
 62
7
 10
507.4336800273022
 20
456.2594360401343
 30
0
 11
506.6336800273023
 21
457.0594360401343
 31
0
  0
LINE
  8
1
 62
7
 10
481.6336800273023
 20
455.5594360401343
 30
0
 11
481.6336800273023
 21
470.0594360401343
 31
0
  0
LINE
  8
1
 62
7
 10
484.1336800273023
 20
454.5594360401343
 30
0
 11
483.3336800273022
 21
453.7594360401343
 31
0
  0
LINE
  8
1
 62
7
 10
480.8336800273022
 20
456.2594360401343
 30
0
 11
480.8336800273022
 21
453.7594360401343
 31
0
  0
LINE
  8
1
 62
7
 10
483.3336800273022
 20
453.7594360401343
 30
0
 11
480.8336800273022
 21
453.7594360401343
 31
0
  0
LINE
  8
1
 62
7
 10
481.6336800273023
 20
457.0594360401343
 30
0
 11
480.8336800273022
 21
456.2594360401343
 31
0
  0
LINE
  8
1
 62
7
 10
506.6336800273023
 20
470.0594360401343
 30
0
 11
508.6336800273023
 21
472.0594360401343
 31
0
  0
LINE
  8
1
 62
7
 10
479.6336800273023
 20
472.0594360401343
 30
0
 11
481.6336800273023
 21
470.0594360401343
 31
0
  0
LINE
  8
1
 62
7
 10
470.1336800273022
 20
467.0594360401343
 30
0
 11
475.1336800273022
 21
472.0594360401343
 31
0
  0
LINE
  8
1
 62
7
 10
513.1336800273023
 20
472.0594360401343
 30
0
 11
518.1336800273023
 21
467.0594360401343
 31
0
  0
LINE
  8
1
 62
7
 10
470.1336800273022
 20
467.0594360401343
 30
0
 11
470.1336800273022
 21
439.5594360401343
 31
0
  0
LINE
  8
1
 62
7
 10
479.6336800273023
 20
472.0594360401343
 30
0
 11
475.1336800273022
 21
472.0594360401343
 31
0
  0
LINE
  8
1
 62
7
 10
506.6336800273023
 20
470.0594360401343
 30
0
 11
506.6336800273023
 21
455.5594360401343
 31
0
  0
LINE
  8
1
 62
7
 10
513.1336800273023
 20
472.0594360401343
 30
0
 11
508.6336800273023
 21
472.0594360401343
 31
0
  0
LINE
  8
1
 62
7
 10
518.1336800273023
 20
467.0594360401343
 30
0
 11
518.1336800273023
 21
439.5594360401343
 31
0
  0
LINE
  8
1
 62
3
  6
DIVIDE
 10
474.1336800273023
 20
447.5594360401343
 30
0
 11
474.1336800273023
 21
431.5594360401343
 31
0
  0
LINE
  8
1
 62
3
  6
DIVIDE
 10
544.1336800273023
 20
447.5594360401343
 30
0
 11
544.1336800273023
 21
431.5594360401343
 31
0
  0
LINE
  8
1
 62
3
  6
DIVIDE
 10
544.1336800273023
 20
431.5594360401343
 30
0
 11
474.1336800273023
 21
431.5594360401343
 31
0
  0
LINE
  8
1
 62
3
  6
DIVIDE
 10
544.1336800273023
 20
447.5594360401343
 30
0
 11
474.1336800273023
 21
447.5594360401343
 31
0
  0
LINE
  8
1
 62
7
 10
440.1336800273022
 20
270.8094360401343
 30
0
 11
444.1336800273022
 21
270.8094360401343
 31
0
  0
LINE
  8
1
 62
7
 10
444.1336800273022
 20
258.3094360401343
 30
0
 11
440.1336800273022
 21
258.3094360401343
 31
0
  0
LINE
  8
1
 62
7
 10
456.6336800273022
 20
267.4461873860824
 30
0
 11
461.6336800273022
 21
264.5594360401343
 31
0
  0
LINE
  8
1
 62
7
 10
451.6336800273022
 20
264.5594360401343
 30
0
 11
456.6336800273022
 21
267.4461873860824
 31
0
  0
LINE
  8
1
 62
7
 10
461.6336800273022
 20
264.5594360401343
 30
0
 11
461.6336800273022
 21
250.5594360401343
 31
0
  0
LINE
  8
1
 62
7
 10
451.6336800273022
 20
264.5594360401343
 30
0
 11
461.6336800273022
 21
264.5594360401343
 31
0
  0
LINE
  8
1
 62
7
 10
451.6336800273022
 20
250.5594360401343
 30
0
 11
451.6336800273022
 21
264.5594360401343
 31
0
  0
LINE
  8
1
 62
7
 10
465.1336800273022
 20
488.5594360401343
 30
0
 11
444.1336800273022
 21
488.5594360401343
 31
0
  0
LINE
  8
1
 62
7
 10
467.7336800273022
 20
464.5594360401343
 30
0
 11
465.1336800273022
 21
464.5594360401343
 31
0
  0
LINE
  8
1
 62
7
 10
467.7336800273022
 20
494.5594360401343
 30
0
 11
465.1336800273022
 21
494.5594360401343
 31
0
  0
LINE
  8
1
 62
7
 10
467.7336800273022
 20
494.5594360401343
 30
0
 11
467.7336800273022
 21
464.5594360401343
 31
0
  0
LINE
  8
1
 62
7
 10
465.1336800273022
 20
450.0594360401343
 30
0
 11
465.1336800273022
 21
494.5594360401343
 31
0
  0
LINE
  8
1
 62
7
 10
449.4035899696377
 20
470.5594360401343
 30
0
 11
449.3835069869787
 21
469.7962826990901
 31
0
  0
LINE
  8
1
 62
7
 10
449.4800547335321
 20
470.5594360401343
 30
0
 11
449.3881423311271
 21
469.8760873092105
 31
0
  0
LINE
  8
1
 62
7
 10
450.4890597070372
 20
470.5594360401343
 30
0
 11
450.3792177234773
 21
469.7427847710582
 31
0
  0
LINE
  8
1
 62
7
 10
452.0356102890876
 20
470.5594360401343
 30
0
 11
451.9436978866827
 21
469.8760873092105
 31
0
  0
LINE
  8
1
 62
7
 10
453.0446152625927
 20
470.5594360401343
 30
0
 11
452.9347732790328
 21
469.7427847710582
 31
0
  0
LINE
  8
1
 62
7
 10
454.5911658446432
 20
470.5594360401343
 30
0
 11
454.4992534422382
 21
469.8760873092105
 31
0
  0
LINE
  8
1
 62
7
 10
455.6001708181484
 20
470.5594360401343
 30
0
 11
455.4903288345885
 21
469.7427847710582
 31
0
  0
LINE
  8
1
 62
7
 10
457.1467214001988
 20
470.5594360401343
 30
0
 11
457.0548089977938
 21
469.8760873092105
 31
0
  0
LINE
  8
1
 62
7
 10
458.1557263737039
 20
470.5594360401343
 30
0
 11
458.0458843901439
 21
469.7427847710582
 31
0
  0
LINE
  8
1
 62
7
 10
459.7022769557544
 20
470.5594360401343
 30
0
 11
459.6103645533494
 21
469.8760873092105
 31
0
  0
LINE
  8
1
 62
7
 10
460.7112819292595
 20
470.5594360401343
 30
0
 11
460.6014399456995
 21
469.7427847710582
 31
0
  0
LINE
  8
1
 62
7
 10
461.6532437691773
 20
470.5594360401343
 30
0
 11
461.6338530676258
 21
469.8225893811784
 31
0
  0
LINE
  8
1
 62
7
 10
461.8838530676258
 20
479.3225893811784
 30
0
 11
461.8637700849667
 21
478.5594360401343
 31
0
  0
LINE
  8
1
 62
7
 10
461.8792177234773
 20
479.2427847710581
 30
0
 11
461.7873053210723
 21
478.5594360401343
 31
0
  0
LINE
  8
1
 62
7
 10
460.8881423311271
 20
479.3760873092105
 30
0
 11
460.7783003475672
 21
478.5594360401343
 31
0
  0
LINE
  8
1
 62
7
 10
459.3236621679218
 20
479.2427847710581
 30
0
 11
459.2317497655168
 21
478.5594360401343
 31
0
  0
LINE
  8
1
 62
7
 10
458.3325867755715
 20
479.3760873092105
 30
0
 11
458.2227447920116
 21
478.5594360401343
 31
0
  0
LINE
  8
1
 62
7
 10
456.7681066123663
 20
479.2427847710581
 30
0
 11
456.6761942099613
 21
478.5594360401343
 31
0
  0
LINE
  8
1
 62
7
 10
455.777031220016
 20
479.3760873092105
 30
0
 11
455.6671892364561
 21
478.5594360401343
 31
0
  0
LINE
  8
1
 62
7
 10
454.2125510568105
 20
479.2427847710581
 30
0
 11
454.1206386544056
 21
478.5594360401343
 31
0
  0
LINE
  8
1
 62
7
 10
453.2214756644604
 20
479.3760873092105
 30
0
 11
453.1116336809005
 21
478.5594360401343
 31
0
  0
LINE
  8
1
 62
7
 10
451.6569955012551
 20
479.2427847710581
 30
0
 11
451.5650830988501
 21
478.5594360401343
 31
0
  0
LINE
  8
1
 62
7
 10
450.6659201089048
 20
479.3760873092105
 30
0
 11
450.5560781253449
 21
478.5594360401343
 31
0
  0
LINE
  8
1
 62
7
 10
449.6335069869787
 20
479.2962826990902
 30
0
 11
449.6141162854272
 21
478.5594360401343
 31
0
  0
LINE
  8
1
 62
7
 10
462.1336800273022
 20
470.5594360401343
 30
0
 11
462.1336800273022
 21
468.5594360401343
 31
0
  0
LINE
  8
1
 62
7
 10
462.1336800273022
 20
470.5594360401343
 30
0
 11
449.1336800273022
 21
470.5594360401343
 31
0
  0
LINE
  8
1
 62
7
 10
462.1336800273022
 20
478.5594360401343
 30
0
 11
449.1336800273022
 21
478.5594360401343
 31
0
  0
LINE
  8
1
 62
7
 10
449.1336800273022
 20
480.5594360401343
 30
0
 11
449.1336800273022
 21
468.5594360401343
 31
0
  0
LINE
  8
1
 62
7
 10
444.1336800273022
 20
480.8094360401343
 30
0
 11
440.1336800273022
 21
480.8094360401343
 31
0
  0
LINE
  8
1
 62
7
 10
444.1336800273022
 20
468.3094360401343
 30
0
 11
440.1336800273022
 21
468.3094360401343
 31
0
  0
LINE
  8
1
 62
7
 10
444.1336800273022
 20
468.5594360401343
 30
0
 11
444.1336800273022
 21
443.0594360401343
 31
0
  0
LINE
  8
1
 62
7
 10
440.6336800273022
 20
468.5594360401343
 30
0
 11
440.6336800273022
 21
480.5594360401343
 31
0
  0
LINE
  8
1
 62
7
 10
444.1336800273022
 20
480.5594360401343
 30
0
 11
440.6336800273022
 21
480.5594360401343
 31
0
  0
LINE
  8
1
 62
7
 10
465.1336800273022
 20
285.5594360401343
 30
0
 11
465.1336800273022
 21
289.0594360401343
 31
0
  0
LINE
  8
1
 62
3
 10
444.1336800273022
 20
287.0594360401343
 30
0
 11
446.1336800273022
 21
287.0594360401343
 31
0
  0
LINE
  8
1
 62
7
 10
444.1336800273022
 20
289.0594360401343
 30
0
 11
465.1336800273022
 21
289.0594360401343
 31
0
  0
LINE
  8
1
 62
7
 10
465.1336800273022
 20
285.5594360401343
 30
0
 11
469.1336800273022
 21
285.5594360401343
 31
0
  0
LINE
  8
1
 62
7
 10
466.1336800273022
 20
250.5594360401343
 30
0
 11
469.1336800273022
 21
253.5594360401343
 31
0
  0
LINE
  8
1
 62
7
 10
469.1336800273022
 20
289.0594360401343
 30
0
 11
469.1336800273022
 21
253.5594360401343
 31
0
  0
LINE
  8
1
 62
7
 10
444.1336800273022
 20
250.5594360401343
 30
0
 11
466.1336800273022
 21
250.5594360401343
 31
0
  0
LINE
  8
1
 62
7
 10
446.1336800273022
 20
289.5594360401343
 30
0
 11
446.1336800273022
 21
287.0594360401343
 31
0
  0
LINE
  8
1
 62
7
 10
468.1336800273022
 20
287.0594360401343
 30
0
 11
446.1336800273022
 21
287.0594360401343
 31
0
  0
LINE
  8
1
 62
7
 10
468.1336800273022
 20
287.0594360401343
 30
0
 11
470.1336800273022
 21
289.0594360401343
 31
0
  0
LINE
  8
1
 62
3
 10
465.1336800273022
 20
289.0594360401343
 30
0
 11
470.1336800273022
 21
289.0594360401343
 31
0
  0
LINE
  8
1
 62
7
 10
444.1336800273022
 20
289.5594360401343
 30
0
 11
446.1336800273022
 21
289.5594360401343
 31
0
  0
LINE
  8
1
 62
7
 10
465.1336800273022
 20
478.5594360401343
 30
0
 11
462.1336800273022
 21
478.5594360401343
 31
0
  0
LINE
  8
1
 62
7
 10
465.1336800273022
 20
470.5594360401343
 30
0
 11
462.1336800273022
 21
470.5594360401343
 31
0
  0
LINE
  8
1
 62
7
 10
462.1336800273022
 20
468.5594360401343
 30
0
 11
440.6336800273022
 21
468.5594360401343
 31
0
  0
LINE
  8
1
 62
7
 10
462.1336800273022
 20
480.5594360401343
 30
0
 11
462.1336800273022
 21
478.5594360401343
 31
0
  0
LINE
  8
1
 62
7
 10
444.1336800273022
 20
480.5594360401343
 30
0
 11
462.1336800273022
 21
480.5594360401343
 31
0
  0
LINE
  8
1
 62
3
 10
446.1336800273022
 20
452.0594360401343
 30
0
 11
444.1336800273022
 21
452.0594360401343
 31
0
  0
LINE
  8
1
 62
7
 10
465.1336800273022
 20
450.0594360401343
 30
0
 11
444.1336800273022
 21
450.0594360401343
 31
0
  0
LINE
  8
1
 62
7
 10
469.1336800273022
 20
453.5594360401343
 30
0
 11
465.1336800273022
 21
453.5594360401343
 31
0
  0
LINE
  8
1
 62
7
 10
469.1336800273022
 20
485.5594360401343
 30
0
 11
467.7336800273022
 21
486.9594360401343
 31
0
  0
LINE
  8
1
 62
7
 10
469.1336800273022
 20
485.5594360401343
 30
0
 11
469.1336800273022
 21
452.828538956268
 31
0
  0
LINE
  8
1
 62
7
 10
444.1336800273022
 20
443.0594360401343
 30
0
 11
394.1336800273022
 21
443.0594360401343
 31
0
  0
LINE
  8
1
 62
7
 10
444.1336800273022
 20
488.5594360401343
 30
0
 11
444.1336800273022
 21
480.5594360401343
 31
0
  0
LINE
  8
1
 62
7
 10
444.1336800273022
 20
250.5594360401343
 30
0
 11
444.1336800273022
 21
296.0594360401343
 31
0
  0
LINE
  8
1
 62
7
 10
444.1336800273022
 20
250.5594360401343
 30
0
 11
440.1336800273022
 21
250.5594360401343
 31
0
  0
LINE
  8
1
 62
7
 10
444.1336800273022
 20
488.5594360401343
 30
0
 11
440.1336800273022
 21
488.5594360401343
 31
0
  0
LINE
  8
1
 62
7
 10
99.97964022333409
 20
368.6208061197516
 30
0
 11
99.9796402233341
 21
366.8208061197516
 31
0
  0
LINE
  8
1
 62
7
 10
101.5384859501461
 20
369.5208061197516
 30
0
 11
99.97964022333409
 21
368.6208061197516
 31
0
  0
LINE
  8
1
 62
7
 10
103.0973316769581
 20
368.6208061197516
 30
0
 11
101.5384859501461
 21
369.5208061197516
 31
0
  0
LINE
  8
1
 62
7
 10
103.0973316769581
 20
366.8208061197516
 30
0
 11
103.0973316769581
 21
368.6208061197516
 31
0
  0
LINE
  8
1
 62
7
 10
101.5384859501461
 20
365.9208061197516
 30
0
 11
103.0973316769581
 21
366.8208061197516
 31
0
  0
LINE
  8
1
 62
7
 10
99.9796402233341
 20
366.8208061197516
 30
0
 11
101.5384859501461
 21
365.9208061197516
 31
0
  0
LINE
  8
1
 62
7
 10
210.6576868269852
 20
306.5980659605171
 30
0
 11
212.2165325537972
 21
307.4980659605171
 31
0
  0
LINE
  8
1
 62
7
 10
209.0988411001732
 20
307.4980659605171
 30
0
 11
210.6576868269852
 21
306.5980659605171
 31
0
  0
LINE
  8
1
 62
7
 10
209.0988411001732
 20
309.2980659605171
 30
0
 11
209.0988411001732
 21
307.4980659605171
 31
0
  0
LINE
  8
1
 62
7
 10
210.6576868269852
 20
310.1980659605171
 30
0
 11
209.0988411001732
 21
309.2980659605171
 31
0
  0
LINE
  8
1
 62
7
 10
212.2165325537972
 20
309.2980659605171
 30
0
 11
210.6576868269852
 21
310.1980659605171
 31
0
  0
LINE
  8
1
 62
7
 10
212.2165325537972
 20
307.4980659605171
 30
0
 11
212.2165325537972
 21
309.2980659605171
 31
0
  0
LINE
  8
1
 62
7
 10
205.9142406617532
 20
431.6594360401343
 30
0
 11
207.4730863885652
 21
430.7594360401343
 31
0
  0
LINE
  8
1
 62
7
 10
205.9142406617532
 20
433.4594360401343
 30
0
 11
205.9142406617532
 21
431.6594360401343
 31
0
  0
LINE
  8
1
 62
7
 10
207.4730863885652
 20
434.3594360401343
 30
0
 11
205.9142406617532
 21
433.4594360401343
 31
0
  0
LINE
  8
1
 62
7
 10
209.0319321153772
 20
433.4594360401343
 30
0
 11
207.4730863885652
 21
434.3594360401343
 31
0
  0
LINE
  8
1
 62
7
 10
209.0319321153772
 20
431.6594360401343
 30
0
 11
209.0319321153772
 21
433.4594360401343
 31
0
  0
LINE
  8
1
 62
7
 10
207.4730863885652
 20
430.7594360401343
 30
0
 11
209.0319321153772
 21
431.6594360401343
 31
0
  0
LINE
  8
1
 62
7
 10
88.66183237707458
 20
308.0362673514161
 30
0
 11
134.5557907955592
 21
334.5331565985056
 31
0
  0
LINE
  8
1
 62
7
 10
257.7843404000557
 20
308.0362673514161
 30
0
 11
268.7843404000558
 21
327.0888262346737
 31
0
  0
LINE
  8
1
 62
7
 10
224.6224327891405
 20
352.5857154817631
 30
0
 11
213.6224327891404
 21
333.5331565985055
 31
0
  0
LINE
  8
1
 62
7
 10
77.66183237707463
 20
327.0888262346738
 30
0
 11
88.66183237707458
 21
308.0362673514161
 31
0
  0
LINE
  8
1
 62
7
 10
132.8237399879899
 20
333.5331565985055
 30
0
 11
121.82373998799
 21
352.5857154817632
 31
0
  0
LINE
  8
1
 62
7
 10
398.1336800273022
 20
239.9594360401343
 30
0
 11
440.1336800273022
 21
239.9594360401343
 31
0
  0
LINE
  8
1
 62
7
 10
440.1336800273022
 20
296.0594360401343
 30
0
 11
440.1336800273022
 21
239.9594360401343
 31
0
  0
LINE
  8
1
 62
3
 10
440.1336800273022
 20
296.0594360401343
 30
0
 11
398.1336800273022
 21
239.9594360401343
 31
0
  0
LINE
  8
1
 62
3
 10
440.1336800273022
 20
239.9594360401343
 30
0
 11
398.1336800273022
 21
296.0594360401343
 31
0
  0
LINE
  8
1
 62
7
 10
398.1336800273022
 20
239.9594360401343
 30
0
 11
398.1336800273022
 21
296.0594360401343
 31
0
  0
LINE
  8
1
 62
7
 10
444.1336800273022
 20
296.0594360401343
 30
0
 11
394.1336800273022
 21
296.0594360401343
 31
0
  0
LINE
  8
1
 62
7
 10
394.1336800273022
 20
288.5594360401343
 30
0
 11
394.1336800273022
 21
296.0594360401343
 31
0
  0
LINE
  8
1
 62
7
 10
384.1336800273022
 20
278.5594360401343
 30
0
 11
394.1336800273022
 21
288.5594360401343
 31
0
  0
LINE
  8
1
 62
7
 10
384.1336800273022
 20
289.5594360401343
 30
0
 11
384.1336800273022
 21
253.5594360401343
 31
0
  0
LINE
  8
1
 62
7
 10
387.1336800273022
 20
250.5594360401343
 30
0
 11
384.1336800273022
 21
253.5594360401343
 31
0
  0
LINE
  8
1
 62
7
 10
387.1336800273022
 20
250.5594360401343
 30
0
 11
398.1336800273022
 21
250.5594360401343
 31
0
  0
LINE
  8
1
 62
3
 10
398.1336800273022
 20
499.1594360401343
 30
0
 11
440.1336800273022
 21
443.0594360401343
 31
0
  0
LINE
  8
1
 62
3
 10
398.1336800273023
 20
443.0594360401343
 30
0
 11
440.1336800273022
 21
499.1594360401343
 31
0
  0
LINE
  8
1
 62
7
 10
440.1336800273022
 20
499.1594360401343
 30
0
 11
398.1336800273022
 21
499.1594360401343
 31
0
  0
LINE
  8
1
 62
7
 10
440.1336800273022
 20
499.1594360401343
 30
0
 11
440.1336800273022
 21
443.0594360401343
 31
0
  0
LINE
  8
1
 62
7
 10
398.1336800273023
 20
443.0594360401343
 30
0
 11
398.1336800273022
 21
499.1594360401343
 31
0
  0
LINE
  8
1
 62
7
 10
162.2230863885652
 20
422.5594360401343
 30
0
 11
184.2230863885652
 21
422.5594360401343
 31
0
  0
LINE
  8
1
 62
7
 10
184.2230863885652
 20
473.553214534313
 30
0
 11
162.2230863885652
 21
473.553214534313
 31
0
  0
LINE
  8
1
 62
7
 10
162.2230863885652
 20
451.3228141503861
 30
0
 11
162.2230863885652
 21
473.553214534313
 31
0
  0
LINE
  8
1
 62
7
 10
184.2230863885652
 20
451.3228141503861
 30
0
 11
184.2230863885652
 21
473.553214534313
 31
0
  0
LINE
  8
1
 62
7
 10
394.1336800273022
 20
449.5594360401343
 30
0
 11
383.4032779340384
 21
449.5594360401343
 31
0
  0
LINE
  8
1
 62
7
 10
368.9281066867404
 20
449.5594360401343
 30
0
 11
367.6336800273022
 21
449.5594360401343
 31
0
  0
LINE
  8
1
 62
7
 10
384.1336800273022
 20
485.5594360401343
 30
0
 11
387.1336800273022
 21
488.5594360401343
 31
0
  0
LINE
  8
1
 62
7
 10
394.1336800273022
 20
450.5594360401343
 30
0
 11
384.1336800273022
 21
460.5594360401343
 31
0
  0
LINE
  8
1
 62
7
 10
384.1336800273022
 20
485.5594360401343
 30
0
 11
384.1336800273022
 21
449.5594360401343
 31
0
  0
LINE
  8
1
 62
7
 10
394.1336800273022
 20
443.0594360401343
 30
0
 11
394.1336800273022
 21
450.5594360401343
 31
0
  0
LINE
  8
1
 62
7
 10
398.1336800273022
 20
488.5594360401343
 30
0
 11
387.1336800273022
 21
488.5594360401343
 31
0
  0
LINE
  8
1
 62
7
 10
372.2216284388135
 20
468.5829818451908
 30
0
 11
366.2802607131544
 21
434.2653457152284
 31
0
  0
LINE
  8
1
 62
7
 10
376.1336800273022
 20
422.5594360401343
 30
0
 11
494.1336800273022
 21
422.5594360401343
 31
0
  0
LINE
  8
1
 62
7
 10
162.2230863885652
 20
290.3192946975042
 30
0
 11
162.2230863885652
 21
297.0594360401343
 31
0
  0
LINE
  8
1
 62
7
 10
183.9730863885653
 20
290.0327109723938
 30
0
 11
183.9730863885654
 21
296.0594360401343
 31
0
  0
LINE
  8
1
 62
7
 10
162.4730863885654
 20
290.0327109723937
 30
0
 11
162.4730863885654
 21
296.0594360401344
 31
0
  0
LINE
  8
1
 62
7
 10
183.9730863885654
 20
296.0594360401343
 30
0
 11
162.4730863885654
 21
296.0594360401344
 31
0
  0
LINE
  8
1
 62
7
 10
98.97592220012106
 20
400.0130254833217
 30
0
 11
104.1952192104089
 21
396.9996629494514
 31
0
  0
LINE
  8
1
 62
7
 10
109.725922200121
 20
418.6325716646871
 30
0
 11
114.9452192104089
 21
415.6192091308168
 31
0
  0
LINE
  8
1
 62
7
 10
104.1952192104089
 20
396.9996629494514
 30
0
 11
114.9452192104089
 21
415.6192091308168
 31
0
  0
LINE
  8
1
 62
7
 10
110.0991109863774
 20
418.7057861530777
 30
0
 11
115.9362446141934
 21
415.3357154817633
 31
0
  0
LINE
  8
1
 62
7
 10
247.3470617907524
 20
399.6532272698211
 30
0
 11
241.5099281629373
 21
396.2831565985056
 31
0
  0
LINE
  8
1
 62
7
 10
242.2509535667216
 20
396.9996629494514
 30
0
 11
247.4702505770094
 21
400.0130254833217
 31
0
  0
LINE
  8
1
 62
7
 10
231.5009535667215
 20
415.6192091308168
 30
0
 11
236.7202505770094
 21
418.6325716646871
 31
0
  0
LINE
  8
1
 62
7
 10
231.5009535667215
 20
415.6192091308168
 30
0
 11
242.2509535667216
 21
396.9996629494514
 31
0
  0
LINE
  8
1
 62
7
 10
364.1336800273022
 20
409.5594360401343
 30
0
 11
549.1336800273023
 21
409.5594360401343
 31
0
  0
LINE
  8
1
 62
7
 10
365.6336800273022
 20
447.5594360401343
 30
0
 11
365.6336800273022
 21
423.5594360401343
 31
0
  0
LINE
  8
1
 62
7
 10
446.1336800273022
 20
452.0594360401343
 30
0
 11
446.1336800273022
 21
449.5594360401343
 31
0
  0
LINE
  8
1
 62
7
 10
547.6336800273023
 20
437.5594360401343
 30
0
 11
547.6336800273023
 21
423.5594360401343
 31
0
  0
LINE
  8
1
 62
7
 10
549.1336800273023
 20
422.0594360401343
 30
0
 11
549.1336800273023
 21
317.0594360401343
 31
0
  0
LINE
  8
1
 62
7
 10
545.6336800273023
 20
439.5594360401343
 30
0
 11
470.1336800273022
 21
439.5594360401343
 31
0
  0
LINE
  8
1
 62
7
 10
545.6336800273023
 20
439.5594360401343
 30
0
 11
547.6336800273023
 21
437.5594360401343
 31
0
  0
LINE
  8
1
 62
7
 10
547.6336800273023
 20
315.5594360401343
 30
0
 11
547.6336800273023
 21
301.5594360401343
 31
0
  0
LINE
  8
1
 62
7
 10
545.6336800273023
 20
299.5594360401343
 30
0
 11
470.1336800273023
 21
299.5594360401343
 31
0
  0
LINE
  8
1
 62
7
 10
545.6336800273023
 20
299.5594360401343
 30
0
 11
547.6336800273023
 21
301.5594360401343
 31
0
  0
LINE
  8
1
 62
7
 10
549.1336800273023
 20
323.5594360401343
 30
0
 11
364.1336800273023
 21
323.5594360401343
 31
0
  0
LINE
  8
1
 62
7
 10
549.1336800273023
 20
329.5594360401343
 30
0
 11
364.1336800273023
 21
329.5594360401343
 31
0
  0
LINE
  8
1
 62
7
 10
446.1336800273022
 20
452.0594360401343
 30
0
 11
468.1336800273022
 21
452.0594360401343
 31
0
  0
LINE
  8
1
 62
7
 10
470.1336800273022
 20
272.0594360401343
 30
0
 11
470.1336800273023
 21
299.5594360401343
 31
0
  0
LINE
  8
1
 62
7
 10
470.1336800273022
 20
450.0594360401343
 30
0
 11
468.1336800273022
 21
452.0594360401343
 31
0
  0
LINE
  8
1
 62
3
 10
470.1336800273022
 20
450.0594360401343
 30
0
 11
465.1336800273022
 21
450.0594360401343
 31
0
  0
LINE
  8
1
 62
7
 10
470.1336800273022
 20
297.0594360401343
 30
0
 11
365.6336800273022
 21
297.0594360401343
 31
0
  0
LINE
  8
1
 62
7
 10
367.6336800273022
 20
289.5594360401343
 30
0
 11
394.1336800273022
 21
289.5594360401343
 31
0
  0
LINE
  8
1
 62
7
 10
365.6336800273022
 20
315.5594360401343
 30
0
 11
365.6336800273022
 21
291.5594360401343
 31
0
  0
LINE
  8
1
 62
7
 10
365.6336800273022
 20
291.5594360401343
 30
0
 11
367.6336800273022
 21
289.5594360401343
 31
0
  0
LINE
  8
1
 62
7
 10
162.2230863885652
 20
451.3228141503861
 30
0
 11
162.2230863885652
 21
420.5594360401343
 31
0
  0
LINE
  8
1
 62
7
 10
162.2230863885652
 20
420.5594360401343
 30
0
 11
184.2230863885652
 21
420.5594360401343
 31
0
  0
LINE
  8
1
 62
7
 10
184.2230863885652
 20
420.5594360401343
 30
0
 11
184.2230863885652
 21
451.3228141503861
 31
0
  0
LINE
  8
1
 62
7
 10
162.2230863885652
 20
297.0594360401343
 30
0
 11
184.2230863885652
 21
297.0594360401343
 31
0
  0
LINE
  8
1
 62
7
 10
184.2230863885652
 20
297.0594360401343
 30
0
 11
184.2230863885652
 21
290.3192946975042
 31
0
  0
LINE
  8
1
 62
7
 10
134.5557907955592
 20
334.5331565985056
 30
0
 11
123.5557907955592
 21
353.5857154817633
 31
0
  0
LINE
  8
1
 62
7
 10
123.5557907955592
 20
353.5857154817633
 30
0
 11
77.66183237707463
 21
327.0888262346738
 31
0
  0
LINE
  8
1
 62
7
 10
268.7843404000558
 20
327.0888262346737
 30
0
 11
222.8903819815723
 21
353.5857154817631
 31
0
  0
LINE
  8
1
 62
7
 10
222.8903819815723
 20
353.5857154817631
 30
0
 11
211.8903819815723
 21
334.5331565985055
 31
0
  0
LINE
  8
1
 62
7
 10
211.8903819815723
 20
334.5331565985055
 30
0
 11
257.7843404000557
 21
308.0362673514161
 31
0
  0
LINE
  8
1
 62
7
 10
230.5099281629373
 20
415.3357154817632
 30
0
 11
236.3470617907524
 21
418.7057861530784
 31
0
  0
LINE
  8
1
 62
7
 10
241.5099281629373
 20
396.2831565985056
 30
0
 11
230.5099281629373
 21
415.3357154817632
 31
0
  0
LINE
  8
1
 62
7
 10
104.9362446141934
 20
396.2831565985056
 30
0
 11
99.09911098637826
 21
399.65322726982
 31
0
  0
LINE
  8
1
 62
7
 10
115.9362446141934
 20
415.3357154817633
 30
0
 11
104.9362446141934
 21
396.2831565985056
 31
0
  0
LINE
  8
1
 62
7
 10
364.1336800273022
 20
422.0594360401343
 30
0
 11
364.1336800273022
 21
317.0594360401343
 31
0
  0
LINE
  8
1
 62
7
 10
446.1336800273022
 20
449.5594360401343
 30
0
 11
444.1336800273022
 21
449.5594360401343
 31
0
  0
LINE
  8
1
 62
7
 10
365.6336800273022
 20
447.5594360401343
 30
0
 11
367.6336800273022
 21
449.5594360401343
 31
0
  0
LINE
  8
1
 62
7
 10
163.2230863885652
 20
323.5594360401343
 30
0
 11
183.2230863885652
 21
323.5594360401343
 31
0
  0
LINE
  8
1
 62
7
 10
183.2230863885652
 20
323.5594360401343
 30
0
 11
183.2230863885652
 21
330.8296025780601
 31
0
  0
LINE
  8
1
 62
7
 10
163.2230863885652
 20
330.8296025780601
 30
0
 11
163.2230863885652
 21
323.5594360401343
 31
0
  0
LINE
  8
1
 62
3
  6
DASHDOT
 10
207.4730863885652
 20
438.0594360401343
 30
0
 11
207.4730863885652
 21
427.0594360401343
 31
0
  0
LINE
  8
1
 62
7
 10
491.1336800273022
 20
420.5594360401343
 30
0
 11
364.1336800273022
 21
420.5594360401343
 31
0
  0
LINE
  8
1
 62
7
 10
364.1336800273022
 20
317.0594360401343
 30
0
 11
365.6336800273022
 21
315.5594360401343
 31
0
  0
LINE
  8
1
 62
7
 10
547.6336800273023
 20
315.5594360401343
 30
0
 11
549.1336800273023
 21
317.0594360401343
 31
0
  0
LINE
  8
1
 62
7
 10
547.6336800273023
 20
423.5594360401343
 30
0
 11
549.1336800273023
 21
422.0594360401343
 31
0
  0
LINE
  8
1
 62
7
 10
364.1336800273022
 20
422.0594360401343
 30
0
 11
365.6336800273022
 21
423.5594360401343
 31
0
  0
LINE
  8
1
 62
3
  6
DASHDOT
 10
173.2230863885652
 20
372.0594360401343
 30
0
 11
173.2230863885652
 21
369.5594360401343
 31
0
  0
LINE
  8
1
 62
3
  6
DASHDOT
 10
170.7230863885652
 20
369.5594360401343
 30
0
 11
173.2230863885652
 21
369.5594360401343
 31
0
  0
LINE
  8
1
 62
3
  6
DASHDOT
 10
173.2230863885652
 20
367.0594360401343
 30
0
 11
173.2230863885652
 21
369.5594360401343
 31
0
  0
LINE
  8
1
 62
3
  6
DASHDOT
 10
175.7230863885652
 20
369.5594360401343
 30
0
 11
173.2230863885652
 21
369.5594360401343
 31
0
  0
LINE
  8
1
 62
3
  6
DASHDOT
 10
551.6336800273023
 20
369.5594360401343
 30
0
 11
549.1336800273023
 21
369.5594360401343
 31
0
  0
LINE
  8
1
 62
3
  6
DASHDOT
 10
364.1336800273022
 20
369.5594360401343
 30
0
 11
361.6336800273022
 21
369.5594360401343
 31
0
  0
ARC
  8
1
 62
7
 10
404.0877482904107
 20
457.0529456368691
 30
0
 40
21.99999999999999
 50
157.961359779146
 51
266.847062992225
  0
ARC
  8
1
 62
7
 10
378.1336800273022
 20
467.5594360401343
 30
0
 40
5.999999999999978
 50
337.9613597791471
 51
170.1778190762836
  0
ARC
  8
1
 62
7
 10
494.1336800273022
 20
430.0594360401343
 30
0
 40
9.000000000000012
 50
236.4426902380792
 51
158.1417078085826
  0
ARC
  8
1
 62
7
 10
494.1336800273022
 20
430.0594360401343
 30
0
 40
7.500000000000114
 50
0
 51
130.1888212194469
  0
ARC
  8
1
 62
7
 10
494.1336800273022
 20
430.0594360401343
 30
0
 40
7.5
 50
270
 51
0
  0
ARC
  8
1
 62
7
 10
462.1336800273022
 20
469.8094360401343
 30
0
 40
0.5
 50
90
 51
270
  0
ARC
  8
1
 62
7
 10
462.3836800273022
 20
479.3094360401343
 30
0
 40
0.4999999999999918
 50
120.0000000000006
 51
239.9999999999995
  0
ARC
  8
1
 62
7
 10
448.8836800273022
 20
469.8094360401343
 30
0
 40
0.4999999999999918
 50
300.0000000000005
 51
59.99999999999946
  0
ARC
  8
1
 62
7
 10
449.1336800273022
 20
479.3094360401343
 30
0
 40
0.5
 50
270
 51
90
  0
ARC
  8
1
 62
7
 10
173.2230863885652
 20
369.5594360401343
 30
0
 40
90.99999999999996
 50
96.94284184540018
 51
203.0571581545998
  0
ARC
  8
1
 62
7
 10
173.2230863885652
 20
369.5594360401343
 30
0
 40
91.00000000000001
 50
216.9428418454002
 51
323.0571581545999
  0
ARC
  8
1
 62
7
 10
173.2230863885652
 20
369.5594360401343
 30
0
 40
80.24999999999999
 50
157.6982771043427
 51
202.121569454838
  0
ARC
  8
1
 62
7
 10
173.2230863885652
 20
369.5594360401343
 30
0
 40
80.99999999999999
 50
97.80502533940712
 51
202.194974660593
  0
ARC
  8
1
 62
7
 10
173.2230863885652
 20
369.5594360401343
 30
0
 40
81.00000000000007
 50
217.8050253394073
 51
322.1949746605931
  0
ARC
  8
1
 62
7
 10
173.2230863885652
 20
369.5594360401343
 30
0
 40
80.24999999999996
 50
277.6982771043427
 51
322.1215694548382
  0
ARC
  8
1
 62
7
 10
173.2230863885652
 20
369.5594360401343
 30
0
 40
80.24999999999994
 50
37.69827710434239
 51
82.12156945483791
  0
ARC
  8
1
 62
7
 10
173.2230863885652
 20
369.5594360401343
 30
0
 40
80.99999999999994
 50
337.8050253394073
 51
82.19497466059288
  0
ARC
  8
1
 62
7
 10
173.2230863885652
 20
369.5594360401343
 30
0
 40
90.99999999999999
 50
336.9428418454002
 51
83.05715815459982
  0
ARC
  8
1
 62
7
 10
376.1336800273022
 20
432.5594360401343
 30
0
 40
10.00000000000003
 50
170.1778190762836
 51
270
  0
ARC
  8
1
 62
7
 10
173.2230863885652
 20
369.5594360401343
 30
0
 40
80.24999999999994
 50
217.8784305451623
 51
262.3017228956575
  0
ARC
  8
1
 62
7
 10
173.2230863885652
 20
369.5594360401343
 30
0
 40
80.25000000000003
 50
97.87843054516209
 51
142.3017228956576
  0
ARC
  8
1
 62
7
 10
173.2230863885652
 20
369.5594360401343
 30
0
 40
80.25000000000003
 50
337.8784305451624
 51
22.30172289565729
  0
ARC
  8
1
 62
7
 10
173.2230863885652
 20
369.5594360401343
 30
0
 40
54
 50
0
 51
54.07130112696796
  0
ARC
  8
1
 62
7
 10
173.2230863885652
 20
369.5594360401343
 30
0
 40
54.00000000000004
 50
65.928698873031
 51
78.2463743831288
  0
ARC
  8
1
 62
7
 10
173.2230863885652
 20
369.5594360401343
 30
0
 40
53.99999999999999
 50
101.7536256168712
 51
198.2463743831289
  0
ARC
  8
1
 62
7
 10
173.2230863885652
 20
369.5594360401343
 30
0
 40
54.00000000000001
 50
221.7536256168713
 51
234.0713011269686
  0
ARC
  8
1
 62
7
 10
173.2230863885652
 20
369.5594360401343
 30
0
 40
53.99999999999995
 50
245.9286988730316
 51
318.2463743831292
  0
ARC
  8
1
 62
7
 10
173.2230863885652
 20
369.5594360401343
 30
0
 40
54.00000000000001
 50
341.7536256168716
 51
0
  0
ARC
  8
1
 62
7
 10
173.2230863885652
 20
369.5594360401343
 30
0
 40
79.9999999999995
 50
157.9032077334849
 51
180
  0
ARC
  8
1
 62
7
 10
173.2230863885652
 20
369.5594360401343
 30
0
 40
77.99999999999956
 50
158.1072000091965
 51
180
  0
ARC
  8
1
 62
7
 10
173.2230863885652
 20
369.5594360401343
 30
0
 40
78.0000000000001
 50
38.10720000919619
 51
81.89279999080387
  0
ARC
  8
1
 62
7
 10
173.2230863885652
 20
369.5594360401343
 30
0
 40
80.0000000000001
 50
37.90320773348473
 51
82.09679226651541
  0
ARC
  8
1
 62
7
 10
173.2230863885652
 20
369.5594360401343
 30
0
 40
77.99999999999994
 50
218.1072000091964
 51
261.8927999908039
  0
ARC
  8
1
 62
7
 10
173.2230863885652
 20
369.5594360401343
 30
0
 40
79.99999999999993
 50
217.9032077334849
 51
262.0967922665154
  0
ARC
  8
1
 62
7
 10
173.2230863885652
 20
369.5594360401343
 30
0
 40
80
 50
180
 51
202.0967922665159
  0
ARC
  8
1
 62
7
 10
173.2230863885652
 20
369.5594360401343
 30
0
 40
78
 50
180
 51
201.8927999908043
  0
ARC
  8
1
 62
7
 10
173.2230863885652
 20
369.5594360401343
 30
0
 40
78.00000000000009
 50
278.1072000091961
 51
321.8927999908039
  0
ARC
  8
1
 62
7
 10
173.2230863885652
 20
369.5594360401343
 30
0
 40
80
 50
277.9032077334845
 51
322.0967922665154
  0
ARC
  8
1
 62
7
 10
173.2230863885652
 20
369.5594360401343
 30
0
 40
78.00000000000003
 50
338.1072000091962
 51
21.89279999080426
  0
ARC
  8
1
 62
7
 10
173.2230863885652
 20
369.5594360401343
 30
0
 40
79.99999999999993
 50
337.9032077334846
 51
22.09679226651581
  0
ARC
  8
1
 62
7
 10
173.2230863885652
 20
369.5594360401343
 30
0
 40
80
 50
97.90320773348458
 51
142.0967922665159
  0
ARC
  8
1
 62
7
 10
173.2230863885652
 20
369.5594360401343
 30
0
 40
77.99999999999997
 50
98.10720000919615
 51
141.892799990804
  0
ARC
  8
1
 62
7
 10
173.2230863885652
 20
369.5594360401343
 30
0
 40
52.49999999999996
 50
102.0944477342404
 51
180
  0
ARC
  8
1
 62
7
 10
173.2230863885652
 20
369.5594360401343
 30
0
 40
52.5
 50
180
 51
197.90555226576
  0
ARC
  8
1
 62
7
 10
173.2230863885652
 20
369.5594360401343
 30
0
 40
52.49999999999989
 50
246.5224072808911
 51
317.9055522657596
  0
ARC
  8
1
 62
7
 10
173.2230863885652
 20
369.5594360401343
 30
0
 40
40.00000000000006
 50
284.4775121859299
 51
255.5224878140701
  0
ARC
  8
1
 62
7
 10
491.1336800273022
 20
483.0594360401343
 30
0
 40
62.5
 50
270
 51
315.8930420578407
  0
ARC
  8
1
 62
7
 10
173.2230863885652
 20
369.5594360401343
 30
0
 40
52.49999999999992
 50
222.0944477342408
 51
233.4775927191091
  0
ARC
  8
1
 62
7
 10
173.2230863885652
 20
369.5594360401343
 30
0
 40
52.49999999999989
 50
342.0944477342404
 51
53.47759271910943
  0
ARC
  8
1
 62
7
 10
173.2230863885652
 20
369.5594360401343
 30
0
 40
52.49999999999997
 50
66.52240728089147
 51
77.90555226575974
  0
CIRCLE
  8
1
 62
7
 10
460.1059022495244
 20
469.8094360401343
 30
0
 40
0.5
  0
CIRCLE
  8
1
 62
7
 10
461.3836800273022
 20
479.3094360401343
 30
0
 40
0.5
  0
CIRCLE
  8
1
 62
7
 10
457.5503466939689
 20
469.8094360401343
 30
0
 40
0.5
  0
CIRCLE
  8
1
 62
7
 10
458.8281244717467
 20
479.3094360401343
 30
0
 40
0.5
  0
CIRCLE
  8
1
 62
7
 10
454.9947911384133
 20
469.8094360401343
 30
0
 40
0.5
  0
CIRCLE
  8
1
 62
7
 10
456.2725689161911
 20
479.3094360401343
 30
0
 40
0.5
  0
CIRCLE
  8
1
 62
7
 10
452.4392355828577
 20
469.8094360401343
 30
0
 40
0.5
  0
CIRCLE
  8
1
 62
7
 10
453.7170133606355
 20
479.3094360401343
 30
0
 40
0.5
  0
CIRCLE
  8
1
 62
7
 10
449.8836800273022
 20
469.8094360401343
 30
0
 40
0.5
  0
CIRCLE
  8
1
 62
7
 10
451.16145780508
 20
479.3094360401343
 30
0
 40
0.5
  0
CIRCLE
  8
1
 62
3
 10
101.5384859501461
 20
367.7208061197516
 30
0
 40
2.400000000000006
  0
CIRCLE
  8
1
 62
7
 10
101.5384859501461
 20
367.7208061197516
 30
0
 40
3
  0
CIRCLE
  8
1
 62
3
 10
210.6576868269848
 20
308.3980659605173
 30
0
 40
2.400000000000404
  0
CIRCLE
  8
1
 62
7
 10
210.6576868269848
 20
308.3980659605173
 30
0
 40
3.000000000000426
  0
CIRCLE
  8
1
 62
3
 10
207.4730863885652
 20
432.5594360401343
 30
0
 40
2.400000000000006
  0
CIRCLE
  8
1
 62
7
 10
494.1336800273022
 20
430.0594360401343
 30
0
 40
3.000000000000114
  0
CIRCLE
  8
1
 62
7
 10
173.2230863885652
 20
369.5594360401343
 30
0
 40
116
  0
CIRCLE
  8
1
 62
7
 10
173.2230863885652
 20
369.5594360401343
 30
0
 40
119
  0
CIRCLE
  8
1
 62
3
 10
173.2230863885652
 20
369.5594360401343
 30
0
 40
122
  0
CIRCLE
  8
1
 62
7
 10
173.2230863885652
 20
369.5594360401343
 30
0
 40
129.6
  0
CIRCLE
  8
1
 62
7
 10
198.9730863885656
 20
414.1597443350326
 30
0
 40
4.800000000000011
  0
CIRCLE
  8
1
 62
3
 10
198.9730863885656
 20
414.1597443350326
 30
0
 40
6
  0
CIRCLE
  8
1
 62
3
 10
147.4730863885653
 20
324.9591277452356
 30
0
 40
6
  0
CIRCLE
  8
1
 62
7
 10
147.4730863885653
 20
324.9591277452356
 30
0
 40
4.799999999999898
  0
CIRCLE
  8
1
 62
7
 10
376.1336800273022
 20
432.5594360401343
 30
0
 40
4
  0
POLYLINE
  8
1
 62
7
 66
1
  0
VERTEX
  8
1
 10
467.7336800273022
 20
477.5594360401343
 30
0
 42
-0.03646138903157795
  0
VERTEX
  8
1
 10
468.3807911384133
 20
476.7594360401344
 30
0
 42
-0.04606205296055912
  0
VERTEX
  8
1
 10
468.8287911384134
 20
475.9594360401344
 30
0
 42
-0.05560348090599132
  0
VERTEX
  8
1
 10
469.0776800273022
 20
475.1594360401344
 30
0
 42
-0.06154892598321133
  0
VERTEX
  8
1
 10
469.12745780508
 20
474.3594360401344
 30
0
 42
-0.06062314040978847
  0
VERTEX
  8
1
 10
468.9781244717467
 20
473.5594360401344
 30
0
 42
-0.05339226885932539
  0
VERTEX
  8
1
 10
468.6296800273022
 20
472.7594360401344
 30
0
 42
-0.04356879617209255
  0
VERTEX
  8
1
 10
468.0821244717467
 20
471.9594360401344
 30
0
  0
VERTEX
  8
1
 10
467.7336800273022
 20
471.5594360401343
 30
0
  0
SEQEND
  8
1
  0
ARC
  8
1
 62
7
 10
476.3876920464483
 20
451.0672895854965
 30
0
 40
19.99999999999998
 50
266.8470629922247
 51
310.1888212194473
  0
TEXT
  8
1
 62
7
 10
78.8786003180049
 20
554.73588784886
 30
0
 40
10
  1
DS 1006MG
 41
0.9
  7
SIMPLEX
 72
1
 11
119.3786003180049
 21
554.73588784886
 31
0
  0
ENDSEC
  0
EOF
