  0
SECTION
  2
HEADER
  9
$ACADVER
  1
AC1009
  9
$INSBASE
 10
0
 20
0
  9
$EXTMIN
 10
736.5897636314178
 20
398.1953809549584
  9
$EXTMAX
 10
1385.002750593457
 20
798.1328083709259
  9
$LIMMIN
 10
736.5897636314178
 20
398.1953809549584
  9
$LIMMAX
 10
1385.002750593457
 20
798.1328083709259
  9
$VIEWCTR
 10
10
 20
10
  9
$VIEWSIZE
 40
10
  9
$SNAPMODE
 70
0
  9
$SNAPUNIT
 10
1
 20
1
  9
$SNAPBASE
 10
0
 20
0
  9
$SNAPANG
 50
0
  9
$SNAPSTYLE
 70
0
  9
$SNAPISOPAIR
 70
0
  9
$GRIDMODE
 70
0
  9
$GRIDUNIT
 10
0
 20
0
  9
$ORTHOMODE
 70
0
  9
$REGENMODE
 70
1
  9
$FILLMODE
 70
1
  9
$QTEXTMODE
 70
0
  9
$DRAGMODE
 70
2
  9
$LTSCALE
 40
1
  9
$OSMODE
 70
0
  9
$ATTMODE
 70
1
  9
$TEXTSIZE
 40
3.5
  9
$TRACEWID
 40
0.5
  9
$TEXTSTYLE
  7
STANDARD
  9
$CLAYER
  8
0
  9
$CELTYPE
  6
BYLAYER
  9
$CECOLOR
 62
256
  9
$DIMSCALE
 40
1
  9
$DIMASZ
 40
0.18
  9
$DIMEXO
 40
0.0625
  9
$DIMDLI
 40
0.38
  9
$DIMRND
 40
0
  9
$DIMDLE
 40
0
  9
$DIMEXE
 40
0.18
  9
$DIMTP
 40
0
  9
$DIMTM
 40
0
  9
$DIMTXT
 40
0.18
  9
$DIMCEN
 40
0.09
  9
$DIMTSZ
 40
0
  9
$DIMTOL
 70
0
  9
$DIMLIM
 70
0
  9
$DIMTIH
 70
1
  9
$DIMTOH
 70
1
  9
$DIMSE1
 70
0
  9
$DIMSE2
 70
0
  9
$DIMTAD
 70
0
  9
$DIMZIN
 70
0
  9
$DIMBLK
  1

  9
$DIMASO
 70
1
  9
$DIMSHO
 70
1
  9
$DIMPOST
  1

  9
$DIMAPOST
  1

  9
$DIMALT
 70
0
  9
$DIMALTD
 70
2
  9
$DIMALTF
 40
25.4
  9
$DIMLFAC
 40
1
  9
$DIMTOFL
 70
0
  9
$DIMTVP
 40
0
  9
$DIMTIX
 70
0
  9
$DIMSOXD
 70
0
  9
$DIMSAH
 70
0
  9
$DIMBLK1
  1

  9
$DIMBLK2
  1

  9
$DIMSTYLE
  2
*UNNAMED
  9
$DIMCLRD
 70
0
  9
$DIMCLRE
 70
0
  9
$DIMCLRT
 70
0
  9
$DIMTFAC
 40
1
  9
$DIMGAP
 40
0.09
  9
$LUNITS
 70
2
  9
$LUPREC
 70
4
  9
$AXISMODE
 70
0
  9
$AXISUNIT
 10
0
 20
0
  9
$SKETCHINC
 40
0.1
  9
$FILLETRAD
 40
2
  9
$AUNITS
 70
0
  9
$AUPREC
 70
0
  9
$MENU
  1
ACAD
  9
$ELEVATION
 40
0
  9
$THICKNESS
 40
0
  9
$VIEWDIR
 10
0
 20
0
 30
1
  9
$LIMCHECK
 70
0
  9
$BLIPMODE
 70
1
  9
$CHAMFERA
 40
0
  9
$CHAMFERB
 40
0
  9
$FASTZOOM
 70
1
  9
$SKPOLY
 70
0
  9
$ANGBASE
 50
0
  9
$ANGDIR
 70
0
  9
$PDMODE
 70
0
  9
$PDSIZE
 40
0
  9
$PLINEWID
 40
0
  9
$COORDS
 70
2
  0
ENDSEC
  0
SECTION
  2
TABLES
  0
TABLE
  2
DIMSTYLE
 70
0
  0
ENDTAB
  0
TABLE
  2
LTYPE
 70
9
  0
LTYPE
  2
CONTINUOUS
 70
64
  3
Solid line
 72
65
 73
0
 40
0
  0
LTYPE
  2
BORDER
 70
64
  3
__ __ . __ __ .
 72
65
 73
6
 40
29.86112439956759
 49
8.531749828447884
 49
-4.265874914223942
 49
8.531749828447884
 49
-4.265874914223942
 49
0
 49
-4.265874914223942
  0
LTYPE
  2
CENTER
 70
64
  3
____ _ ____ _
 72
65
 73
4
 40
34.12699931379154
 49
21.32937457111971
 49
-4.265874914223942
 49
4.265874914223942
 49
-4.265874914223942
  0
LTYPE
  2
DASHDOT
 70
64
  3
__ . __ . __ .
 72
65
 73
4
 40
17.06349965689577
 49
8.531749828447884
 49
-4.265874914223942
 49
0
 49
-4.265874914223942
  0
LTYPE
  2
DASHED
 70
64
  3
__ __ __ __ __
 72
65
 73
2
 40
12.79762474267183
 49
8.531749828447884
 49
-4.265874914223942
  0
LTYPE
  2
DIVIDE
 70
64
  3
__ . . __ . . 
 72
65
 73
6
 40
21.32937457111971
 49
8.531749828447884
 49
-4.265874914223942
 49
0
 49
-4.265874914223942
 49
0
 49
-4.265874914223942
  0
LTYPE
  2
DOT
 70
64
  3
..............
 72
65
 73
4
 40
8.531749828447884
 49
0
 49
-4.265874914223942
 49
0
 49
-4.265874914223942
  0
LTYPE
  2
HIDDEN
 70
64
  3
_ _ _ _ _ _ _
 72
65
 73
2
 40
6.398812371335913
 49
4.265874914223942
 49
-2.132937457111971
  0
LTYPE
  2
PHANTOM
 70
64
  3
_____ _ _ _____ _ _ 
 72
65
 73
6
 40
42.65874914223942
 49
21.32937457111971
 49
-4.265874914223942
 49
4.265874914223942
 49
-4.265874914223942
 49
4.265874914223942
 49
-4.265874914223942
  0
ENDTAB
  0
TABLE
  2
LAYER
 70
3
  0
LAYER
  2
1
 70
0
 62
7
  6
CONTINUOUS
  0
LAYER
  2
0
 70
0
 62
7
  6
CONTINUOUS
  0
ENDTAB
  0
TABLE
  2
STYLE
 70
4
  0
STYLE
  2
STANDARD
 70
0
 40
0
 41
1
 50
0
 71
0
 42
3.5
  3
txt
  4

  0
STYLE
  2
SIMPLEX
 70
0
 40
0
 41
1
 50
0
 71
0
 42
3.5
  3
simplex
  4

  0
STYLE
  2
COMPLEX
 70
0
 40
0
 41
1
 50
0
 71
0
 42
3.5
  3
complex
  4

  0
STYLE
  2
ITALIC
 70
0
 40
0
 41
1
 50
0
 71
0
 42
3.5
  3
italic
  4

  0
ENDTAB
  0
TABLE
  2
VIEW
 70
0
  0
ENDTAB
  0
ENDSEC
  0
SECTION
  2
BLOCKS
  0
ENDSEC
  0
SECTION
  2
ENTITIES
  0
LINE
  8
1
 62
3
  6
DIVIDE
 10
1321.502750593457
 20
666.1953809549589
 30
0
 11
1337.502750593458
 21
650.1953809549589
 31
0
  0
LINE
  8
1
 62
3
  6
DIVIDE
 10
1378.502750593457
 20
470.1953809549589
 30
0
 11
1379.502750593457
 21
470.1953809549591
 31
0
  0
LINE
  8
1
 62
3
  6
DIVIDE
 10
1379.502750593457
 20
470.1953809549591
 30
0
 11
1379.502750593457
 21
437.6953809549591
 31
0
  0
LINE
  8
1
 62
3
  6
DIVIDE
 10
1379.502750593457
 20
437.6953809549591
 30
0
 11
1374.502750593457
 21
432.6953809549591
 31
0
  0
LINE
  8
1
 62
3
  6
DIVIDE
 10
1374.502750593457
 20
432.6953809549591
 30
0
 11
1367.502750593457
 21
432.6953809549591
 31
0
  0
LINE
  8
1
 62
3
  6
DIVIDE
 10
1367.502750593457
 20
432.6953809549591
 30
0
 11
1365.502750593457
 21
434.6953809549591
 31
0
  0
LINE
  8
1
 62
3
  6
DIVIDE
 10
1365.502750593457
 20
446.1953809549591
 30
0
 11
1366.302750593457
 21
446.9953809549591
 31
0
  0
LINE
  8
1
 62
3
  6
DIVIDE
 10
1365.502750593457
 20
434.6953809549591
 30
0
 11
1365.502750593457
 21
446.1953809549591
 31
0
  0
LINE
  8
1
 62
3
  6
DIVIDE
 10
1366.302750593457
 20
446.9953809549591
 30
0
 11
1366.302750593457
 21
450.9953809549591
 31
0
  0
LINE
  8
1
 62
3
  6
DIVIDE
 10
1362.302750593457
 20
450.9953809549591
 30
0
 11
1366.302750593457
 21
450.9953809549591
 31
0
  0
LINE
  8
1
 62
3
 10
1361.502750593457
 20
450.1953809549591
 30
0
 11
1362.302750593457
 21
450.9953809549591
 31
0
  0
LINE
  8
1
 62
3
  6
DIVIDE
 10
1361.502750593457
 20
450.1953809549591
 30
0
 11
1339.502750593457
 21
450.1953809549591
 31
0
  0
LINE
  8
1
 62
3
  6
DIVIDE
 10
1338.702750593457
 20
450.9953809549591
 30
0
 11
1339.502750593457
 21
450.1953809549591
 31
0
  0
LINE
  8
1
 62
3
  6
DIVIDE
 10
1334.702750593457
 20
450.9953809549591
 30
0
 11
1338.702750593457
 21
450.9953809549591
 31
0
  0
LINE
  8
1
 62
3
  6
DIVIDE
 10
1334.702750593457
 20
450.9953809549591
 30
0
 11
1334.702750593457
 21
446.9953809549591
 31
0
  0
LINE
  8
1
 62
3
 10
1334.702750593457
 20
446.9953809549591
 30
0
 11
1335.502750593457
 21
446.195380954959
 31
0
  0
LINE
  8
1
 62
3
  6
DIVIDE
 10
1335.502750593457
 20
434.695380954959
 30
0
 11
1335.502750593457
 21
446.195380954959
 31
0
  0
LINE
  8
1
 62
3
  6
DIVIDE
 10
1335.502750593457
 20
434.695380954959
 30
0
 11
1333.502750593457
 21
432.6953809549591
 31
0
  0
LINE
  8
1
 62
3
  6
DIVIDE
 10
1326.502750593457
 20
432.6953809549591
 30
0
 11
1333.502750593457
 21
432.6953809549591
 31
0
  0
LINE
  8
1
 62
3
  6
DIVIDE
 10
1321.502750593457
 20
437.6953809549591
 30
0
 11
1326.502750593457
 21
432.6953809549591
 31
0
  0
LINE
  8
1
 62
3
  6
DIVIDE
 10
1321.502750593457
 20
470.1953809549591
 30
0
 11
1321.502750593457
 21
437.6953809549591
 31
0
  0
LINE
  8
1
 62
3
  6
DASHDOT
 10
1350.502750593457
 20
477.2536415751209
 30
0
 11
1350.502750593457
 21
429.2536415751209
 31
0
  0
LINE
  8
1
 62
3
  6
DASHDOT
 10
1320.502750593457
 20
477.2536415751209
 30
0
 11
1320.502750593457
 21
429.2536415751209
 31
0
  0
LINE
  8
1
 62
3
  6
DIVIDE
 10
1379.502750593457
 20
650.1953809549589
 30
0
 11
1378.502750593457
 21
650.1953809549589
 31
0
  0
LINE
  8
1
 62
3
  6
DIVIDE
 10
1379.502750593457
 20
682.6953809549589
 30
0
 11
1379.502750593457
 21
650.1953809549589
 31
0
  0
LINE
  8
1
 62
3
  6
DIVIDE
 10
1374.502750593457
 20
687.6953809549589
 30
0
 11
1379.502750593457
 21
682.6953809549589
 31
0
  0
LINE
  8
1
 62
3
  6
DIVIDE
 10
1367.502750593457
 20
687.6953809549589
 30
0
 11
1374.502750593457
 21
687.6953809549589
 31
0
  0
LINE
  8
1
 62
3
  6
DIVIDE
 10
1365.502750593457
 20
685.6953809549589
 30
0
 11
1367.502750593457
 21
687.6953809549589
 31
0
  0
LINE
  8
1
 62
3
  6
DIVIDE
 10
1365.502750593457
 20
674.1953809549589
 30
0
 11
1365.502750593457
 21
685.6953809549589
 31
0
  0
LINE
  8
1
 62
7
  6
DIVIDE
 10
1366.302750593457
 20
669.3953809549589
 30
0
 11
1366.302750593457
 21
673.3953809549589
 31
0
  0
LINE
  8
1
 62
3
  6
DIVIDE
 10
1366.302750593457
 20
673.3953809549589
 30
0
 11
1365.502750593457
 21
674.1953809549589
 31
0
  0
LINE
  8
1
 62
3
 10
1366.302750593457
 20
669.3953809549589
 30
0
 11
1362.302750593457
 21
669.3953809549589
 31
0
  0
LINE
  8
1
 62
3
 10
1362.302750593457
 20
669.3953809549589
 30
0
 11
1361.502750593457
 21
670.1953809549589
 31
0
  0
LINE
  8
1
 62
3
  6
DIVIDE
 10
1339.502750593457
 20
670.1953809549589
 30
0
 11
1361.502750593457
 21
670.1953809549589
 31
0
  0
LINE
  8
1
 62
3
  6
DIVIDE
 10
1339.502750593457
 20
670.1953809549589
 30
0
 11
1338.702750593457
 21
669.3953809549589
 31
0
  0
LINE
  8
1
 62
3
  6
DIVIDE
 10
1338.702750593457
 20
669.3953809549589
 30
0
 11
1334.702750593457
 21
669.3953809549589
 31
0
  0
LINE
  8
1
 62
3
  6
DIVIDE
 10
1334.702750593457
 20
673.3953809549589
 30
0
 11
1334.702750593457
 21
669.3953809549589
 31
0
  0
LINE
  8
1
 62
3
 10
1335.502750593457
 20
674.1953809549589
 30
0
 11
1334.702750593457
 21
673.3953809549589
 31
0
  0
LINE
  8
1
 62
3
  6
DIVIDE
 10
1333.502750593457
 20
687.6953809549589
 30
0
 11
1335.502750593457
 21
685.6953809549589
 31
0
  0
LINE
  8
1
 62
3
  6
DIVIDE
 10
1333.502750593457
 20
687.6953809549589
 30
0
 11
1326.502750593457
 21
687.6953809549589
 31
0
  0
LINE
  8
1
 62
3
  6
DIVIDE
 10
1326.502750593457
 20
687.6953809549589
 30
0
 11
1321.502750593457
 21
682.6953809549589
 31
0
  0
LINE
  8
1
 62
3
  6
DIVIDE
 10
1321.502750593457
 20
682.6953809549589
 30
0
 11
1321.502750593457
 21
650.1953809549589
 31
0
  0
LINE
  8
1
 62
3
  6
DASHDOT
 10
1350.502750593457
 20
691.137120334797
 30
0
 11
1350.502750593457
 21
643.137120334797
 31
0
  0
LINE
  8
1
 62
3
  6
DASHDOT
 10
1320.502750593457
 20
691.137120334797
 30
0
 11
1320.502750593457
 21
643.137120334797
 31
0
  0
LINE
  8
1
 62
3
 10
1261.502750593457
 20
664.1953809549589
 30
0
 11
1259.502750593457
 21
664.1953809549589
 31
0
  0
LINE
  8
1
 62
3
 10
1261.502750593457
 20
458.1953809549589
 30
0
 11
1291.502750593457
 21
458.1953809549589
 31
0
  0
LINE
  8
1
 62
7
 10
1380.502750593457
 20
472.1953809549589
 30
0
 11
1378.502750593457
 21
470.1953809549589
 31
0
  0
LINE
  8
1
 62
7
 10
1380.502750593457
 20
488.1953809549589
 30
0
 11
1382.502750593457
 21
490.1953809549589
 31
0
  0
LINE
  8
1
 62
7
 10
1380.502750593457
 20
472.1953809549589
 30
0
 11
1380.502750593457
 21
488.1953809549589
 31
0
  0
LINE
  8
1
 62
7
 10
1289.502750593457
 20
456.1953809549589
 30
0
 11
1291.502750593457
 21
458.1953809549589
 31
0
  0
LINE
  8
1
 62
7
 10
1160.502750593457
 20
462.1953809549589
 30
0
 11
1162.502750593457
 21
460.1953809549589
 31
0
  0
LINE
  8
1
 62
7
 10
1378.502750593457
 20
470.1953809549589
 30
0
 11
1291.502750593457
 21
470.1953809549589
 31
0
  0
LINE
  8
1
 62
7
 10
1162.502750593457
 20
460.1953809549589
 30
0
 11
1196.502750593457
 21
460.1953809549589
 31
0
  0
LINE
  8
1
 62
7
 10
1261.502750593457
 20
460.195380954959
 30
0
 11
1261.502750593457
 21
456.1953809549589
 31
0
  0
LINE
  8
1
 62
7
 10
1261.502750593457
 20
456.1953809549589
 30
0
 11
1289.502750593457
 21
456.1953809549589
 31
0
  0
LINE
  8
1
 62
7
 10
1158.502750593457
 20
490.1953809549587
 30
0
 11
1160.502750593457
 21
488.1953809549587
 31
0
  0
LINE
  8
1
 62
7
 10
1160.502750593457
 20
488.1953809549587
 30
0
 11
1160.502750593457
 21
462.1953809549589
 31
0
  0
LINE
  8
1
 62
7
 10
886.0897636314184
 20
693.1953809549589
 30
0
 11
886.0897636314184
 21
625.1953809549589
 31
0
  0
LINE
  8
1
 62
7
 10
886.0897636314184
 20
625.1953809549589
 30
0
 11
911.0897636314181
 21
625.1953809549589
 31
0
  0
LINE
  8
1
 62
7
 10
911.0897636314181
 20
625.1953809549589
 30
0
 11
911.0897636314181
 21
693.1953809549589
 31
0
  0
LINE
  8
1
 62
7
 10
848.5481123854299
 20
516.8700634076536
 30
0
 11
836.0481123854299
 21
538.5206985022646
 31
0
  0
LINE
  8
1
 62
7
 10
961.1314148774065
 20
538.5206985022644
 30
0
 11
948.6314148774065
 21
516.8700634076533
 31
0
  0
LINE
  8
1
 62
7
 10
886.0897636314184
 20
460.9797067900369
 30
0
 11
886.0897636314184
 21
470.1953809549589
 31
0
  0
LINE
  8
1
 62
7
 10
886.0897636314184
 20
470.1953809549589
 30
0
 11
911.0897636314181
 21
470.1953809549589
 31
0
  0
LINE
  8
1
 62
7
 10
911.0897636314181
 20
470.1953809549589
 30
0
 11
911.0897636314181
 21
460.9797067900369
 31
0
  0
LINE
  8
1
 62
7
 10
990.7630579118405
 20
598.9779004901145
 30
0
 11
982.7820499720175
 21
594.3700634076533
 31
0
  0
LINE
  8
1
 62
7
 10
982.7820499720175
 20
594.3700634076533
 30
0
 11
970.2820499720175
 21
616.0206985022643
 31
0
  0
LINE
  8
1
 62
7
 10
970.2820499720175
 20
616.0206985022643
 30
0
 11
978.2630579118405
 21
620.6285355847255
 31
0
  0
LINE
  8
1
 62
7
 10
818.9164693509962
 20
620.6285355847255
 30
0
 11
826.8974772908188
 21
616.0206985022644
 31
0
  0
LINE
  8
1
 62
7
 10
826.8974772908188
 20
616.0206985022644
 30
0
 11
814.3974772908189
 21
594.3700634076533
 31
0
  0
LINE
  8
1
 62
7
 10
814.3974772908189
 20
594.3700634076533
 30
0
 11
806.4164693509962
 21
598.9779004901145
 31
0
  0
LINE
  8
1
 62
7
 10
1160.502750593457
 20
470.1953809549589
 30
0
 11
1291.502750593457
 21
470.1953809549589
 31
0
  0
LINE
  8
1
 62
7
 10
1193.502750593457
 20
508.6953809549589
 30
0
 11
1278.502750593457
 21
508.6953809549589
 31
0
  0
LINE
  8
1
 62
7
 10
1158.502750593457
 20
501.1953809549589
 30
0
 11
1382.502750593457
 21
501.1953809549589
 31
0
  0
LINE
  8
1
 62
7
 10
1158.502750593457
 20
510.1953809549589
 30
0
 11
1193.502750593457
 21
510.1953809549589
 31
0
  0
LINE
  8
1
 62
7
 10
1382.502750593457
 20
510.1953809549589
 30
0
 11
1278.502750593457
 21
510.1953809549589
 31
0
  0
LINE
  8
1
 62
7
 10
884.5897636314181
 20
501.1953809549589
 30
0
 11
912.5897636314181
 21
501.1953809549589
 31
0
  0
LINE
  8
1
 62
7
 10
912.5897636314181
 20
501.1953809549589
 30
0
 11
912.5897636314181
 21
512.1953809549589
 31
0
  0
LINE
  8
1
 62
7
 10
884.5897636314181
 20
501.1953809549589
 30
0
 11
884.5897636314181
 21
512.1953809549589
 31
0
  0
LINE
  8
1
 62
3
 10
1291.502750593457
 20
662.1953809549589
 30
0
 11
1282.502750593457
 21
662.1953809549589
 31
0
  0
LINE
  8
1
 62
7
 10
1378.502750593457
 20
650.1953809549589
 30
0
 11
1380.502750593457
 21
648.1953809549589
 31
0
  0
LINE
  8
1
 62
7
 10
1382.502750593457
 20
630.1953809549589
 30
0
 11
1380.502750593457
 21
632.1953809549589
 31
0
  0
LINE
  8
1
 62
7
 10
1380.502750593457
 20
632.1953809549589
 30
0
 11
1380.502750593457
 21
648.1953809549589
 31
0
  0
LINE
  8
1
 62
7
 10
1291.502750593457
 20
662.1953809549589
 30
0
 11
1289.502750593457
 21
664.1953809549589
 31
0
  0
LINE
  8
1
 62
7
 10
1162.502750593457
 20
660.1953809549589
 30
0
 11
1160.502750593457
 21
658.1953809549589
 31
0
  0
LINE
  8
1
 62
7
 10
1382.502750593457
 20
630.1953809549589
 30
0
 11
1382.502750593457
 21
490.1953809549589
 31
0
  0
LINE
  8
1
 62
7
 10
1261.502750593457
 20
660.1953809549589
 30
0
 11
1259.502750593457
 21
660.1953809549589
 31
0
  0
LINE
  8
1
 62
7
 10
1261.502750593457
 20
664.1953809549589
 30
0
 11
1261.502750593457
 21
660.1953809549589
 31
0
  0
LINE
  8
1
 62
7
 10
1289.502750593457
 20
664.1953809549589
 30
0
 11
1261.502750593457
 21
664.1953809549589
 31
0
  0
LINE
  8
1
 62
7
 10
1158.502750593457
 20
630.1953809549589
 30
0
 11
1158.502750593457
 21
490.1953809549587
 31
0
  0
LINE
  8
1
 62
7
 10
1160.502750593457
 20
632.1953809549591
 30
0
 11
1158.502750593457
 21
630.1953809549589
 31
0
  0
LINE
  8
1
 62
7
 10
1160.502750593457
 20
658.1953809549589
 30
0
 11
1160.502750593457
 21
632.1953809549591
 31
0
  0
LINE
  8
1
 62
7
 10
1278.502750593457
 20
611.6953809549589
 30
0
 11
1193.502750593457
 21
611.6953809549589
 31
0
  0
LINE
  8
1
 62
7
 10
1193.502750593457
 20
610.1953809549589
 30
0
 11
1158.502750593457
 21
610.1953809549589
 31
0
  0
LINE
  8
1
 62
7
 10
1278.502750593457
 20
610.1953809549589
 30
0
 11
1382.502750593457
 21
610.1953809549589
 31
0
  0
LINE
  8
1
 62
7
 10
1278.502750593457
 20
611.6953809549589
 30
0
 11
1278.502750593457
 21
508.6953809549589
 31
0
  0
LINE
  8
1
 62
7
 10
1193.502750593457
 20
611.6953809549589
 30
0
 11
1193.502750593457
 21
508.6953809549589
 31
0
  0
LINE
  8
1
 62
7
 10
1337.502750593457
 20
687.6953809549589
 30
0
 11
1344.502750593457
 21
687.6953809549589
 31
0
  0
LINE
  8
1
 62
7
 10
1303.502750593457
 20
687.6953809549589
 30
0
 11
1296.502750593457
 21
687.6953809549589
 31
0
  0
LINE
  8
1
 62
7
 10
1291.502750593457
 20
682.6953809549589
 30
0
 11
1291.502750593457
 21
650.1953809549589
 31
0
  0
LINE
  8
1
 62
7
 10
1305.502750593457
 20
685.6953809549589
 30
0
 11
1305.502750593457
 21
674.1953809549589
 31
0
  0
LINE
  8
1
 62
7
 10
1349.502750593457
 20
682.6953809549589
 30
0
 11
1349.502750593457
 21
650.1953809549589
 31
0
  0
LINE
  8
1
 62
7
 10
1296.502750593457
 20
687.6953809549589
 30
0
 11
1291.502750593457
 21
682.6953809549589
 31
0
  0
LINE
  8
1
 62
7
 10
1344.502750593457
 20
687.6953809549589
 30
0
 11
1349.502750593457
 21
682.6953809549589
 31
0
  0
LINE
  8
1
 62
7
 10
1303.502750593457
 20
687.6953809549589
 30
0
 11
1305.502750593457
 21
685.6953809549589
 31
0
  0
LINE
  8
1
 62
7
 10
1335.502750593457
 20
685.6953809549589
 30
0
 11
1337.502750593457
 21
687.6953809549589
 31
0
  0
LINE
  8
1
 62
7
 10
1291.502750593457
 20
650.1953809549589
 30
0
 11
1378.502750593457
 21
650.1953809549589
 31
0
  0
LINE
  8
1
 62
7
 10
1291.502750593457
 20
666.1953809549589
 30
0
 11
1307.502750593458
 21
650.1953809549589
 31
0
  0
LINE
  8
1
 62
7
 10
1308.702750593457
 20
669.3953809549589
 30
0
 11
1304.702750593457
 21
669.3953809549589
 31
0
  0
LINE
  8
1
 62
7
 10
1304.702750593457
 20
673.3953809549589
 30
0
 11
1304.702750593457
 21
669.3953809549589
 31
0
  0
LINE
  8
1
 62
7
 10
1309.502750593457
 20
670.1953809549589
 30
0
 11
1308.702750593457
 21
669.3953809549589
 31
0
  0
LINE
  8
1
 62
7
 10
1305.502750593457
 20
674.1953809549589
 30
0
 11
1304.702750593457
 21
673.3953809549589
 31
0
  0
LINE
  8
1
 62
7
 10
1336.302750593457
 20
669.3953809549589
 30
0
 11
1336.302750593457
 21
673.3953809549589
 31
0
  0
LINE
  8
1
 62
7
 10
1336.302750593457
 20
669.3953809549589
 30
0
 11
1332.302750593457
 21
669.3953809549589
 31
0
  0
LINE
  8
1
 62
7
 10
1332.302750593457
 20
669.3953809549589
 30
0
 11
1331.502750593457
 21
670.1953809549589
 31
0
  0
LINE
  8
1
 62
3
  6
DIVIDE
 10
1335.502750593457
 20
674.1953809549589
 30
0
 11
1335.502750593457
 21
685.6953809549589
 31
0
  0
LINE
  8
1
 62
7
 10
1336.302750593457
 20
673.3953809549589
 30
0
 11
1335.502750593457
 21
674.1953809549589
 31
0
  0
LINE
  8
1
 62
7
 10
1309.502750593457
 20
670.1953809549589
 30
0
 11
1331.502750593457
 21
670.1953809549589
 31
0
  0
LINE
  8
1
 62
7
 10
1291.502750593457
 20
437.695380954959
 30
0
 11
1291.502750593457
 21
470.1953809549589
 31
0
  0
LINE
  8
1
 62
7
 10
1344.502750593457
 20
432.695380954959
 30
0
 11
1337.502750593457
 21
432.695380954959
 31
0
  0
LINE
  8
1
 62
7
 10
1296.502750593457
 20
432.695380954959
 30
0
 11
1303.502750593457
 21
432.695380954959
 31
0
  0
LINE
  8
1
 62
7
 10
1305.502750593457
 20
448.0493809549591
 30
0
 11
1305.502750593457
 21
434.695380954959
 31
0
  0
LINE
  8
1
 62
7
 10
1349.502750593457
 20
470.195380954959
 30
0
 11
1349.502750593457
 21
437.695380954959
 31
0
  0
LINE
  8
1
 62
7
 10
1291.502750593457
 20
437.695380954959
 30
0
 11
1296.502750593457
 21
432.695380954959
 31
0
  0
LINE
  8
1
 62
7
 10
1349.502750593457
 20
437.695380954959
 30
0
 11
1344.502750593457
 21
432.695380954959
 31
0
  0
LINE
  8
1
 62
7
 10
1305.502750593457
 20
434.695380954959
 30
0
 11
1303.502750593457
 21
432.695380954959
 31
0
  0
LINE
  8
1
 62
7
 10
1337.502750593457
 20
432.695380954959
 30
0
 11
1335.502750593457
 21
434.695380954959
 31
0
  0
LINE
  8
1
 62
7
 10
1304.702750593457
 20
450.9953809549589
 30
0
 11
1308.702750593457
 21
450.9953809549589
 31
0
  0
LINE
  8
1
 62
7
 10
1304.702750593457
 20
450.9953809549589
 30
0
 11
1304.702750593457
 21
446.9953809549589
 31
0
  0
LINE
  8
1
 62
7
 10
1308.702750593457
 20
450.9953809549589
 30
0
 11
1309.502750593457
 21
450.195380954959
 31
0
  0
LINE
  8
1
 62
7
 10
1304.702750593457
 20
446.9953809549589
 30
0
 11
1305.502750593457
 21
446.195380954959
 31
0
  0
LINE
  8
1
 62
7
 10
1336.302750593457
 20
446.9953809549589
 30
0
 11
1336.302750593457
 21
450.9953809549589
 31
0
  0
LINE
  8
1
 62
7
 10
1332.302750593457
 20
450.9953809549589
 30
0
 11
1336.302750593457
 21
450.9953809549589
 31
0
  0
LINE
  8
1
 62
7
 10
1331.502750593457
 20
450.195380954959
 30
0
 11
1332.302750593457
 21
450.9953809549589
 31
0
  0
LINE
  8
1
 62
7
 10
1335.502750593457
 20
434.695380954959
 30
0
 11
1335.502750593457
 21
448.0493809549591
 31
0
  0
LINE
  8
1
 62
7
 10
1335.502750593457
 20
446.195380954959
 30
0
 11
1336.302750593457
 21
446.9953809549589
 31
0
  0
LINE
  8
1
 62
7
 10
1331.502750593457
 20
450.195380954959
 30
0
 11
1309.502750593457
 21
450.195380954959
 31
0
  0
LINE
  8
1
 62
7
 10
1173.502750593457
 20
628.1953809549589
 30
0
 11
1315.502750593457
 21
628.1953809549589
 31
0
  0
LINE
  8
1
 62
7
 10
1168.599124359162
 20
686.4334004816897
 30
0
 11
1161.647311242014
 21
642.0524102450551
 31
0
  0
LINE
  8
1
 62
7
 10
1164.489215874891
 20
660.1953809549589
 30
0
 11
1162.502750593457
 21
660.1953809549589
 31
0
  0
LINE
  8
1
 62
7
 10
911.0897636314181
 20
628.1953809549589
 30
0
 11
886.0897636314184
 21
628.1953809549589
 31
0
  0
LINE
  8
1
 62
7
 10
911.0897636314181
 20
693.1953809549589
 30
0
 11
886.0897636314184
 21
693.1953809549589
 31
0
  0
LINE
  8
1
 62
7
 10
777.158384928088
 20
504.5206985022644
 30
0
 11
789.658384928088
 21
482.8700634076536
 31
0
  0
LINE
  8
1
 62
7
 10
836.0481123854299
 20
538.5206985022646
 30
0
 11
777.158384928088
 21
504.5206985022644
 31
0
  0
LINE
  8
1
 62
7
 10
789.658384928088
 20
482.8700634076536
 30
0
 11
848.5481123854299
 21
516.8700634076536
 31
0
  0
LINE
  8
1
 62
7
 10
833.4500361740767
 20
537.0206985022644
 30
0
 11
845.9500361740767
 21
515.3700634076536
 31
0
  0
LINE
  8
1
 62
7
 10
951.2294910887605
 20
515.3700634076536
 30
0
 11
963.7294910887605
 21
537.0206985022644
 31
0
  0
LINE
  8
1
 62
7
 10
948.6314148774065
 20
516.8700634076533
 30
0
 11
1007.521142334749
 21
482.8700634076536
 31
0
  0
LINE
  8
1
 62
7
 10
1020.021142334749
 20
504.5206985022644
 30
0
 11
961.1314148774065
 21
538.5206985022644
 31
0
  0
LINE
  8
1
 62
7
 10
1007.521142334749
 20
482.8700634076536
 30
0
 11
1020.021142334749
 21
504.5206985022644
 31
0
  0
LINE
  8
1
 62
3
  6
DIVIDE
 10
1376.502750593457
 20
659.1953809549589
 30
0
 11
1376.502750593457
 21
641.1953809549589
 31
0
  0
LINE
  8
1
 62
3
  6
DIVIDE
 10
1296.502750593457
 20
659.1953809549589
 30
0
 11
1296.502750593457
 21
641.1953809549589
 31
0
  0
LINE
  8
1
 62
3
  6
DIVIDE
 10
1376.502750593457
 20
641.1953809549589
 30
0
 11
1296.502750593457
 21
641.1953809549589
 31
0
  0
LINE
  8
1
 62
7
 10
1282.502750593457
 20
709.1953809549589
 30
0
 11
1254.502750593457
 21
709.1953809549591
 31
0
  0
LINE
  8
1
 62
7
 10
1287.502750593457
 20
704.1953809549589
 30
0
 11
1287.502750593457
 21
664.1953809549589
 31
0
  0
LINE
  8
1
 62
7
 10
1285.102750593457
 20
706.5953809549588
 30
0
 11
1287.502750593457
 21
704.1953809549589
 31
0
  0
LINE
  8
1
 62
7
 10
1254.502750593457
 20
411.1953809549589
 30
0
 11
1282.502750593457
 21
411.195380954959
 31
0
  0
LINE
  8
1
 62
7
 10
1287.502750593457
 20
416.195380954959
 30
0
 11
1282.502750593457
 21
411.195380954959
 31
0
  0
LINE
  8
1
 62
7
 10
1287.502750593457
 20
456.1953809549589
 30
0
 11
1287.502750593457
 21
416.195380954959
 31
0
  0
LINE
  8
1
 62
7
 10
1259.502750593457
 20
469.6953809549589
 30
0
 11
1259.502750593457
 21
411.1953809549589
 31
0
  0
LINE
  8
1
 62
7
 10
1254.502750593457
 20
398.195380954959
 30
0
 11
1254.502750593457
 21
469.6953809549589
 31
0
  0
LINE
  8
1
 62
7
 10
1259.502750593457
 20
460.195380954959
 30
0
 11
1261.502750593457
 21
460.195380954959
 31
0
  0
LINE
  8
1
 62
7
 10
1259.502750593457
 20
437.9453809549589
 30
0
 11
1254.502750593457
 21
437.9453809549589
 31
0
  0
LINE
  8
1
 62
7
 10
1254.502750593457
 20
422.4453809549589
 30
0
 11
1259.502750593457
 21
422.4453809549589
 31
0
  0
LINE
  8
1
 62
7
 10
1259.502750593457
 20
697.9453809549591
 30
0
 11
1254.502750593457
 21
697.9453809549591
 31
0
  0
LINE
  8
1
 62
7
 10
1254.502750593457
 20
682.4453809549591
 30
0
 11
1259.502750593457
 21
682.4453809549591
 31
0
  0
LINE
  8
1
 62
7
 10
1259.502750593457
 20
709.1953809549589
 30
0
 11
1259.502750593457
 21
697.6953809549589
 31
0
  0
LINE
  8
1
 62
7
 10
1259.502750593457
 20
650.6953809549589
 30
0
 11
1259.502750593457
 21
682.6953809549589
 31
0
  0
LINE
  8
1
 62
7
 10
1282.502750593457
 20
723.1953809549589
 30
0
 11
1282.502750593457
 21
662.1953809549589
 31
0
  0
LINE
  8
1
 62
7
 10
1282.502750593457
 20
662.1953809549589
 30
0
 11
1259.502750593457
 21
662.1953809549589
 31
0
  0
LINE
  8
1
 62
7
 10
1261.502750593457
 20
458.1953809549589
 30
0
 11
1259.502750593457
 21
458.1953809549589
 31
0
  0
LINE
  8
1
 62
3
 10
1261.502750593457
 20
456.1953809549589
 30
0
 11
1259.502750593457
 21
456.1953809549589
 31
0
  0
LINE
  8
1
 62
7
 10
1282.502750593457
 20
458.1953809549589
 30
0
 11
1282.502750593457
 21
454.1953809549589
 31
0
  0
LINE
  8
1
 62
7
 10
1287.502750593457
 20
454.1953809549589
 30
0
 11
1282.502750593457
 21
454.1953809549589
 31
0
  0
LINE
  8
1
 62
7
 10
1278.502750593457
 20
697.6953809549589
 30
0
 11
1255.002750593457
 21
697.6953809549589
 31
0
  0
LINE
  8
1
 62
7
 10
1278.502750593457
 20
697.6953809549589
 30
0
 11
1278.502750593457
 21
695.1953809549589
 31
0
  0
LINE
  8
1
 62
7
 10
1282.502750593457
 20
723.1953809549589
 30
0
 11
1285.102750593457
 21
723.1953809549589
 31
0
  0
LINE
  8
1
 62
7
 10
1282.502750593457
 20
681.1953809549589
 30
0
 11
1285.102750593457
 21
681.1953809549589
 31
0
  0
LINE
  8
1
 62
7
 10
1278.502750593457
 20
682.6953809549589
 30
0
 11
1255.002750593457
 21
682.6953809549589
 31
0
  0
LINE
  8
1
 62
7
 10
1278.502750593457
 20
685.1953809549589
 30
0
 11
1278.502750593457
 21
682.6953809549589
 31
0
  0
LINE
  8
1
 62
7
 10
1285.102750593457
 20
723.1953809549589
 30
0
 11
1285.102750593457
 21
681.1953809549589
 31
0
  0
LINE
  8
1
 62
7
 10
1264.502750593457
 20
695.1953809549589
 30
0
 11
1282.502750593457
 21
695.1953809549589
 31
0
  0
LINE
  8
1
 62
7
 10
1282.502750593457
 20
685.1953809549589
 30
0
 11
1264.502750593457
 21
685.1953809549589
 31
0
  0
LINE
  8
1
 62
7
 10
1200.502750593457
 20
709.1953809549589
 30
0
 11
1200.502750593457
 21
650.6953809549589
 31
0
  0
LINE
  8
1
 62
7
 10
1196.502750593457
 20
650.6953809549589
 30
0
 11
1196.502750593457
 21
662.1953809549589
 31
0
  0
LINE
  8
1
 62
7
 10
1184.502750593457
 20
660.1953809549589
 30
0
 11
1184.502750593457
 21
704.1953809549589
 31
0
  0
LINE
  8
1
 62
7
 10
1189.502750593457
 20
709.1953809549589
 30
0
 11
1199.502750593457
 21
709.1953809549589
 31
0
  0
LINE
  8
1
 62
7
 10
1196.502750593457
 20
662.1953809549589
 30
0
 11
1184.502750593457
 21
674.1953809549589
 31
0
  0
LINE
  8
1
 62
7
 10
1196.502750593457
 20
660.1953809549589
 30
0
 11
1182.951781755376
 21
660.1953809549589
 31
0
  0
LINE
  8
1
 62
7
 10
1189.502750593457
 20
709.1953809549589
 30
0
 11
1184.502750593457
 21
704.1953809549589
 31
0
  0
LINE
  8
1
 62
7
 10
1199.502750593457
 20
709.1953809549589
 30
0
 11
1200.502750593457
 21
708.1953809549589
 31
0
  0
LINE
  8
1
 62
7
 10
1200.502750593457
 20
411.1953809549591
 30
0
 11
1189.502750593457
 21
411.1953809549589
 31
0
  0
LINE
  8
1
 62
7
 10
1184.502750593457
 20
416.1953809549589
 30
0
 11
1189.502750593457
 21
411.1953809549589
 31
0
  0
LINE
  8
1
 62
7
 10
1184.502750593457
 20
416.1953809549589
 30
0
 11
1184.502750593457
 21
460.1953809549589
 31
0
  0
LINE
  8
1
 62
7
 10
1184.502750593457
 20
446.1953809549589
 30
0
 11
1196.502750593457
 21
458.1953809549589
 31
0
  0
LINE
  8
1
 62
7
 10
1196.502750593457
 20
458.1953809549589
 30
0
 11
1196.502750593457
 21
469.6953809549589
 31
0
  0
LINE
  8
1
 62
7
 10
1259.502750593457
 20
469.6953809549589
 30
0
 11
1196.502750593457
 21
469.6953809549589
 31
0
  0
LINE
  8
1
 62
7
 10
1254.502750593457
 20
709.1953809549591
 30
0
 11
1254.502750593457
 21
650.6953809549589
 31
0
  0
LINE
  8
1
 62
7
 10
1351.002750593457
 20
625.1953809549589
 30
0
 11
1158.502750593457
 21
625.1953809549591
 31
0
  0
LINE
  8
1
 62
7
 10
1351.002750593457
 20
625.1953809549589
 30
0
 11
1351.002750593457
 21
650.1953809549589
 31
0
  0
LINE
  8
1
 62
7
 10
937.3397636314181
 20
641.9953809549588
 30
0
 11
935.7809179046061
 21
641.0953809549588
 31
0
  0
LINE
  8
1
 62
7
 10
935.7809179046061
 20
641.0953809549588
 30
0
 11
935.7809179046061
 21
639.2953809549589
 31
0
  0
LINE
  8
1
 62
7
 10
935.7809179046061
 20
639.2953809549589
 30
0
 11
937.3397636314181
 21
638.3953809549589
 31
0
  0
LINE
  8
1
 62
7
 10
937.3397636314181
 20
638.3953809549589
 30
0
 11
938.8986093582302
 21
639.2953809549589
 31
0
  0
LINE
  8
1
 62
7
 10
938.8986093582302
 20
639.2953809549589
 30
0
 11
938.8986093582302
 21
641.0953809549588
 31
0
  0
LINE
  8
1
 62
7
 10
938.8986093582302
 20
641.0953809549588
 30
0
 11
937.3397636314181
 21
641.9953809549588
 31
0
  0
LINE
  8
1
 62
7
 10
811.4915770554754
 20
554.6538653516058
 30
0
 11
809.9327313286634
 21
555.5538653516059
 31
0
  0
LINE
  8
1
 62
7
 10
809.9327313286634
 20
555.5538653516059
 30
0
 11
808.3738856018514
 21
554.6538653516058
 31
0
  0
LINE
  8
1
 62
7
 10
808.3738856018514
 20
554.6538653516058
 30
0
 11
808.3738856018514
 21
552.8538653516058
 31
0
  0
LINE
  8
1
 62
7
 10
808.3738856018514
 20
552.8538653516058
 30
0
 11
809.9327313286634
 21
551.9538653516057
 31
0
  0
LINE
  8
1
 62
7
 10
809.9327313286634
 20
551.9538653516057
 30
0
 11
811.4915770554754
 21
552.8538653516058
 31
0
  0
LINE
  8
1
 62
7
 10
811.4915770554754
 20
552.8538653516058
 30
0
 11
811.4915770554754
 21
554.6538653516058
 31
0
  0
LINE
  8
1
 62
7
 10
950.0556416609855
 20
485.7368965583121
 30
0
 11
950.0556416609855
 21
487.5368965583122
 31
0
  0
LINE
  8
1
 62
7
 10
950.0556416609855
 20
487.5368965583122
 30
0
 11
948.4967959341735
 21
488.4368965583122
 31
0
  0
LINE
  8
1
 62
7
 10
948.4967959341735
 20
488.4368965583122
 30
0
 11
946.9379502073615
 21
487.5368965583122
 31
0
  0
LINE
  8
1
 62
7
 10
946.9379502073615
 20
487.5368965583122
 30
0
 11
946.9379502073615
 21
485.7368965583121
 31
0
  0
LINE
  8
1
 62
7
 10
946.9379502073615
 20
485.7368965583121
 30
0
 11
948.4967959341735
 21
484.8368965583122
 31
0
  0
LINE
  8
1
 62
7
 10
948.4967959341735
 20
484.8368965583122
 30
0
 11
950.0556416609855
 21
485.7368965583121
 31
0
  0
LINE
  8
1
 62
7
 10
1267.502750593457
 20
411.195380954959
 30
0
 11
1267.502750593457
 21
429.195380954959
 31
0
  0
LINE
  8
1
 62
7
 10
1267.502750593457
 20
429.195380954959
 30
0
 11
1279.502750593457
 21
429.195380954959
 31
0
  0
LINE
  8
1
 62
7
 10
1279.502750593457
 20
429.195380954959
 30
0
 11
1279.502750593457
 21
411.195380954959
 31
0
  0
LINE
  8
1
 62
7
 10
1267.502750593457
 20
429.195380954959
 30
0
 11
1273.502750593457
 21
432.6594825700967
 31
0
  0
LINE
  8
1
 62
7
 10
1273.502750593457
 20
432.6594825700967
 30
0
 11
1279.502750593457
 21
429.195380954959
 31
0
  0
LINE
  8
1
 62
3
  6
DIVIDE
 10
1376.502750593457
 20
659.1953809549589
 30
0
 11
1296.502750593457
 21
659.1953809549589
 31
0
  0
LINE
  8
1
 62
7
 10
910.8397636314184
 20
469.19538095496
 30
0
 11
886.3397636314184
 21
469.19538095496
 31
0
  0
LINE
  8
1
 62
7
 10
1335.502750593457
 20
674.1953809549589
 30
0
 11
1335.502750593457
 21
672.3413809549588
 31
0
  0
LINE
  8
1
 62
7
 10
1305.502750593457
 20
674.1953809549589
 30
0
 11
1305.502750593457
 21
672.3413809549588
 31
0
  0
LINE
  8
1
 62
7
 10
1264.502750593457
 20
697.6953809549589
 30
0
 11
1264.502750593457
 21
682.6953809549589
 31
0
  0
LINE
  8
1
 62
7
 10
1255.002750593457
 20
697.6953809549589
 30
0
 11
1255.002750593457
 21
682.6953809549589
 31
0
  0
LINE
  8
1
 62
7
 10
1200.502750593457
 20
708.1953809549589
 30
0
 11
1200.502750593457
 21
722.195380954959
 31
0
  0
LINE
  8
1
 62
7
 10
1254.502750593457
 20
709.1953809549591
 30
0
 11
1254.502750593457
 21
722.195380954959
 31
0
  0
LINE
  8
1
 62
7
 10
1200.502750593457
 20
469.6953809549589
 30
0
 11
1200.502750593457
 21
398.195380954959
 31
0
  0
LINE
  8
1
 62
7
 10
1254.502750593457
 20
722.195380954959
 30
0
 11
1200.502750593457
 21
722.195380954959
 31
0
  0
LINE
  8
1
 62
7
 10
1259.502750593457
 20
650.6953809549589
 30
0
 11
1196.502750593457
 21
650.6953809549589
 31
0
  0
LINE
  8
1
 62
7
 10
1254.502750593457
 20
398.195380954959
 30
0
 11
1200.502750593457
 21
398.195380954959
 31
0
  0
LINE
  8
1
 62
3
  6
DASHDOT
 10
898.5897636314184
 20
560.195380954959
 30
0
 11
896.0897636314184
 21
560.195380954959
 31
0
  0
LINE
  8
1
 62
3
  6
DASHDOT
 10
898.5897636314184
 20
560.195380954959
 30
0
 11
898.5897636314184
 21
557.695380954959
 31
0
  0
LINE
  8
1
 62
7
 10
910.8397636314184
 20
469.19538095496
 30
0
 11
910.8397636314184
 21
460.696637244297
 31
0
  0
LINE
  8
1
 62
7
 10
886.3397636314184
 20
469.19538095496
 30
0
 11
886.3397636314184
 21
460.696637244297
 31
0
  0
LINE
  8
1
 62
7
 10
983.5230753758011
 20
595.0865697585992
 30
0
 11
990.8832033294887
 21
599.3359416139308
 31
0
  0
LINE
  8
1
 62
7
 10
971.2730753758012
 20
616.304192151318
 30
0
 11
978.6332033294885
 21
620.5535640066496
 31
0
  0
LINE
  8
1
 62
7
 10
971.2730753758012
 20
616.304192151318
 30
0
 11
983.5230753758011
 21
595.0865697585992
 31
0
  0
LINE
  8
1
 62
7
 10
806.2963239333481
 20
599.3359416139308
 30
0
 11
813.6564518870355
 21
595.0865697585992
 31
0
  0
LINE
  8
1
 62
7
 10
818.5463239333482
 20
620.5535640066496
 30
0
 11
825.9064518870356
 21
616.304192151318
 31
0
  0
LINE
  8
1
 62
7
 10
813.6564518870355
 20
595.0865697585992
 30
0
 11
825.9064518870356
 21
616.304192151318
 31
0
  0
LINE
  8
1
 62
7
 10
1265.102556777613
 20
696.0801316451921
 30
0
 11
1265.080063115997
 21
695.1953809549589
 31
0
  0
LINE
  8
1
 62
7
 10
1266.162226447845
 20
696.1638571541513
 30
0
 11
1266.050970236639
 21
695.1953809549589
 31
0
  0
LINE
  8
1
 62
7
 10
1267.354385850181
 20
696.0269047557664
 30
0
 11
1267.25886240037
 21
695.1953809549589
 31
0
  0
LINE
  8
1
 62
7
 10
1268.873337558956
 20
696.1638571541514
 30
0
 11
1268.76208134775
 21
695.1953809549589
 31
0
  0
LINE
  8
1
 62
7
 10
1270.065496961292
 20
696.0269047557664
 30
0
 11
1269.969973511481
 21
695.1953809549589
 31
0
  0
LINE
  8
1
 62
7
 10
1271.584448670067
 20
696.1638571541514
 30
0
 11
1271.473192458861
 21
695.1953809549589
 31
0
  0
LINE
  8
1
 62
7
 10
1272.776608072403
 20
696.0269047557664
 30
0
 11
1272.681084622592
 21
695.1953809549589
 31
0
  0
LINE
  8
1
 62
7
 10
1274.295559781178
 20
696.1638571541514
 30
0
 11
1274.184303569972
 21
695.1953809549589
 31
0
  0
LINE
  8
1
 62
7
 10
1275.487719183514
 20
696.0269047557664
 30
0
 11
1275.392195733703
 21
695.1953809549589
 31
0
  0
LINE
  8
1
 62
7
 10
1277.00667089229
 20
696.1638571541514
 30
0
 11
1276.895414681083
 21
695.1953809549589
 31
0
  0
LINE
  8
1
 62
7
 10
1278.198830294625
 20
696.0269047557663
 30
0
 11
1278.103306844815
 21
695.1953809549589
 31
0
  0
LINE
  8
1
 62
7
 10
1278.202944409301
 20
696.1106302647255
 30
0
 11
1278.179675359053
 21
695.1953809549589
 31
0
  0
LINE
  8
1
 62
7
 10
1277.925438070917
 20
685.1953809549589
 30
0
 11
1277.902944409301
 21
684.3106302647256
 31
0
  0
LINE
  8
1
 62
7
 10
1276.954530950276
 20
685.1953809549589
 30
0
 11
1276.843274739069
 21
684.2269047557663
 31
0
  0
LINE
  8
1
 62
7
 10
1275.746638786544
 20
685.1953809549589
 30
0
 11
1275.651115336734
 21
684.3638571541515
 31
0
  0
LINE
  8
1
 62
7
 10
1274.243419839165
 20
685.1953809549589
 30
0
 11
1274.132163627958
 21
684.2269047557664
 31
0
  0
LINE
  8
1
 62
7
 10
1273.035527675433
 20
685.1953809549589
 30
0
 11
1272.940004225623
 21
684.3638571541515
 31
0
  0
LINE
  8
1
 62
7
 10
1271.532308728054
 20
685.1953809549589
 30
0
 11
1271.421052516847
 21
684.2269047557664
 31
0
  0
LINE
  8
1
 62
7
 10
1270.324416564322
 20
685.1953809549589
 30
0
 11
1270.228893114512
 21
684.3638571541515
 31
0
  0
LINE
  8
1
 62
7
 10
1268.821197616943
 20
685.1953809549589
 30
0
 11
1268.709941405736
 21
684.2269047557664
 31
0
  0
LINE
  8
1
 62
7
 10
1267.613305453211
 20
685.1953809549589
 30
0
 11
1267.517782003401
 21
684.3638571541515
 31
0
  0
LINE
  8
1
 62
7
 10
1266.110086505832
 20
685.1953809549589
 30
0
 11
1265.998830294625
 21
684.2269047557664
 31
0
  0
LINE
  8
1
 62
7
 10
1264.9021943421
 20
685.1953809549589
 30
0
 11
1264.80667089229
 21
684.3638571541513
 31
0
  0
LINE
  8
1
 62
7
 10
1264.825825827861
 20
685.1953809549589
 30
0
 11
1264.802556777613
 21
684.2801316451921
 31
0
  0
LINE
  8
1
 62
7
 10
1284.244551175195
 20
639.176534439215
 30
0
 11
1205.336105777607
 21
644.1777739362452
 31
0
  0
LINE
  8
1
 62
3
 10
1200.502750593457
 20
650.6953809549589
 30
0
 11
1254.502750593457
 21
722.195380954959
 31
0
  0
LINE
  8
1
 62
3
 10
1200.502750593457
 20
722.195380954959
 30
0
 11
1254.502750593457
 21
650.6953809549589
 31
0
  0
LINE
  8
1
 62
3
 10
1254.502750593457
 20
469.6953809549589
 30
0
 11
1200.502750593457
 21
398.195380954959
 31
0
  0
LINE
  8
1
 62
3
 10
1254.502750593457
 20
398.195380954959
 30
0
 11
1200.502750593457
 21
469.6953809549589
 31
0
  0
LINE
  8
1
 62
3
  6
DASHDOT
 10
898.5897636314184
 20
562.695380954959
 30
0
 11
898.5897636314184
 21
560.195380954959
 31
0
  0
LINE
  8
1
 62
3
  6
DASHDOT
 10
898.5897636314184
 20
560.195380954959
 30
0
 11
901.0897636314181
 21
560.1953809549589
 31
0
  0
LINE
  8
1
 62
3
  6
DASHDOT
 10
1385.002750593457
 20
560.195380954959
 30
0
 11
1382.502750593457
 21
560.195380954959
 31
0
  0
LINE
  8
1
 62
3
  6
DASHDOT
 10
1158.502750593457
 20
560.195380954959
 30
0
 11
1156.002750593457
 21
560.195380954959
 31
0
  0
ARC
  8
1
 62
7
 10
898.5897636314184
 20
560.195380954959
 30
0
 40
102
 50
217.0392366824679
 51
322.960763317532
  0
ARC
  8
1
 62
7
 10
898.5897636314184
 20
560.195380954959
 30
0
 40
102
 50
337.039236682468
 51
82.96076331753213
  0
ARC
  8
1
 62
7
 10
898.5897636314184
 20
560.195380954959
 30
0
 40
101.9999999999999
 50
97.03923668246799
 51
202.960763317532
  0
ARC
  8
1
 62
7
 10
898.5897636314184
 20
560.195380954959
 30
0
 40
100.0000000000001
 50
37.18075578145819
 51
82.81924421854184
  0
ARC
  8
1
 62
7
 10
898.5897636314184
 20
560.195380954959
 30
0
 40
100.0000000000001
 50
157.1807557814583
 51
202.8192442185417
  0
ARC
  8
1
 62
7
 10
898.5897636314184
 20
560.195380954959
 30
0
 40
69.99999999999996
 50
100.2865606114749
 51
199.7134393885249
  0
ARC
  8
1
 62
7
 10
898.5897636314184
 20
560.195380954959
 30
0
 40
99.9999999999999
 50
277.1807557814581
 51
322.8192442185417
  0
ARC
  8
1
 62
7
 10
898.5897636314184
 20
560.195380954959
 30
0
 40
69.99999999999994
 50
246.5472006993752
 51
319.7134393885247
  0
ARC
  8
1
 62
7
 10
898.5897636314184
 20
560.195380954959
 30
0
 40
100.0000000000001
 50
217.1807557814582
 51
262.8192442185417
  0
ARC
  8
1
 62
7
 10
898.5897636314184
 20
560.195380954959
 30
0
 40
100.0000000000002
 50
337.1807557814583
 51
22.81924421854165
  0
ARC
  8
1
 62
7
 10
898.5897636314184
 20
560.195380954959
 30
0
 40
99.99999999999987
 50
97.18075578145829
 51
142.8192442185418
  0
ARC
  8
1
 62
7
 10
898.5897636314184
 20
560.195380954959
 30
0
 40
69.99999999999996
 50
66.54720069937531
 51
79.71343938852523
  0
ARC
  8
1
 62
7
 10
898.5897636314184
 20
560.195380954959
 30
0
 40
69.99999999999946
 50
340.2865606114747
 51
53.45279930062496
  0
ARC
  8
1
 62
7
 10
898.5897636314184
 20
560.195380954959
 30
0
 40
70.00000000000011
 50
220.286560611475
 51
233.4527993006248
  0
ARC
  8
1
 62
7
 10
898.5897636314184
 20
560.195380954959
 30
0
 40
50.00000000000005
 50
286.2602047083117
 51
253.7397952916878
  0
ARC
  8
1
 62
7
 10
898.5897636314184
 20
560.195380954959
 30
0
 40
72.00000000000019
 50
66.03133874535342
 51
80.00215651243245
  0
ARC
  8
1
 62
7
 10
898.5897636314184
 20
560.195380954959
 30
0
 40
72.00000000000023
 50
219.9978434875676
 51
233.9686612546466
  0
ARC
  8
1
 62
7
 10
898.5897636314184
 20
560.195380954959
 30
0
 40
72.00000000000034
 50
99.99784348756771
 51
200.0021565124322
  0
ARC
  8
1
 62
7
 10
898.5897636314184
 20
560.195380954959
 30
0
 40
71.99999999999992
 50
339.9978434875675
 51
53.96866125464645
  0
ARC
  8
1
 62
7
 10
1173.502750593457
 20
640.1953809549591
 30
0
 40
5
 50
90
 51
0
  0
ARC
  8
1
 62
7
 10
1173.502750593457
 20
640.1953809549591
 30
0
 40
5
 50
0
 51
90
  0
ARC
  8
1
 62
7
 10
1173.502750593457
 20
640.1953809549591
 30
0
 40
12.00000000000074
 50
171.097561079278
 51
270
  0
ARC
  8
1
 62
7
 10
898.5897636314184
 20
560.195380954959
 30
0
 40
97.99999999999999
 50
277.3280979698916
 51
322.6719020301081
  0
ARC
  8
1
 62
7
 10
898.5897636314184
 20
560.195380954959
 30
0
 40
97.99999999999989
 50
157.3280979698918
 51
202.6719020301083
  0
ARC
  8
1
 62
7
 10
898.5897636314184
 20
560.195380954959
 30
0
 40
98.00000000000003
 50
217.3280979698917
 51
262.6719020301083
  0
ARC
  8
1
 62
7
 10
898.5897636314184
 20
560.195380954959
 30
0
 40
97.99999999999956
 50
337.3280979698916
 51
22.67190203010832
  0
ARC
  8
1
 62
7
 10
898.5897636314184
 20
560.195380954959
 30
0
 40
97.9999999999995
 50
37.32809796989185
 51
82.6719020301084
  0
ARC
  8
1
 62
7
 10
898.5897636314184
 20
560.195380954959
 30
0
 40
97.99999999999983
 50
97.32809796989173
 51
142.6719020301084
  0
ARC
  8
1
 62
7
 10
898.5897636314184
 20
560.195380954959
 30
0
 40
72.00000000000019
 50
246.0313387453535
 51
320.002156512432
  0
ARC
  8
1
 62
7
 10
1277.029501196512
 20
690.1953809549589
 30
0
 40
10.47324939694485
 50
320.4298081014126
 51
39.57019189858693
  0
ARC
  8
1
 62
7
 10
898.5897636314184
 20
560.195380954959
 30
0
 40
114.0000000000002
 50
216.2950894388492
 51
323.7049105611507
  0
ARC
  8
1
 62
7
 10
898.5897636314184
 20
560.195380954959
 30
0
 40
114
 50
336.2950894388492
 51
83.70491056115088
  0
ARC
  8
1
 62
7
 10
898.5897636314184
 20
560.195380954959
 30
0
 40
114.0000000000001
 50
96.29508943884923
 51
203.7049105611508
  0
ARC
  8
1
 62
7
 10
898.5897636314184
 20
560.195380954959
 30
0
 40
100.25
 50
217.162754666848
 51
262.981228820991
  0
ARC
  8
1
 62
7
 10
898.5897636314184
 20
560.195380954959
 30
0
 40
100.25
 50
277.018771179009
 51
322.8372453331519
  0
ARC
  8
1
 62
7
 10
898.5897636314184
 20
560.195380954959
 30
0
 40
100.2499999999999
 50
337.162754666848
 51
22.98122882099117
  0
ARC
  8
1
 62
7
 10
898.5897636314184
 20
560.195380954959
 30
0
 40
100.2499999999999
 50
37.01877117900916
 51
82.83724533315207
  0
ARC
  8
1
 62
7
 10
898.5897636314184
 20
560.195380954959
 30
0
 40
100.25
 50
97.16275466684806
 51
142.9812288209909
  0
ARC
  8
1
 62
7
 10
898.5897636314184
 20
560.195380954959
 30
0
 40
100.2499999999999
 50
157.0187711790088
 51
202.8372453331519
  0
ARC
  8
1
 62
7
 10
1264.502750593457
 20
696.0953809549588
 30
0
 40
0.6000000000000227
 50
270
 51
90
  0
ARC
  8
1
 62
7
 10
1264.202750593457
 20
684.2953809549589
 30
0
 40
0.5999999999999871
 50
299.9999999999957
 51
60.00000000000431
  0
ARC
  8
1
 62
7
 10
1278.802750593457
 20
696.0953809549588
 30
0
 40
0.5999999999999871
 50
119.9999999999957
 51
240.0000000000043
  0
ARC
  8
1
 62
7
 10
1278.502750593457
 20
684.2953809549589
 30
0
 40
0.6000000000000227
 50
90
 51
270
  0
ARC
  8
1
 62
7
 10
1315.502750593457
 20
637.1953809549589
 30
0
 40
9
 50
270
 51
118.4372139336572
  0
ARC
  8
1
 62
7
 10
1315.502750593457
 20
637.1953809549589
 30
0
 40
12.00000000000085
 50
228.5903778907246
 51
155.8299586393716
  0
ARC
  8
1
 62
7
 10
1176.502750593457
 20
685.1953809549589
 30
0
 40
7.999999999999406
 50
333.690128068357
 51
171.0975610792765
  0
ARC
  8
1
 62
7
 10
1206.980693208914
 20
670.1257089635415
 30
0
 40
26.00000000000068
 50
153.69012806836
 51
266.3734282161211
  0
CIRCLE
  8
1
 62
7
 10
933.0897636314181
 20
619.9511338160852
 30
0
 40
6.400000000000205
  0
CIRCLE
  8
1
 62
3
 10
933.0897636314181
 20
619.9511338160852
 30
0
 40
8
  0
CIRCLE
  8
1
 62
7
 10
864.0897636314184
 20
500.4396280938327
 30
0
 40
6.400000000000091
  0
CIRCLE
  8
1
 62
3
 10
864.0897636314184
 20
500.4396280938327
 30
0
 40
8
  0
CIRCLE
  8
1
 62
7
 10
1315.502750593457
 20
637.1953809549589
 30
0
 40
4
  0
CIRCLE
  8
1
 62
7
 10
898.5897636314184
 20
560.195380954959
 30
0
 40
144.0000000000006
  0
CIRCLE
  8
1
 62
7
 10
898.5897636314184
 20
560.195380954959
 30
0
 40
149.0000000000006
  0
CIRCLE
  8
1
 62
7
 10
937.3397636314181
 20
640.1953809549589
 30
0
 40
3
  0
CIRCLE
  8
1
 62
3
 10
937.3397636314181
 20
640.1953809549589
 30
0
 40
2.399999999999977
  0
CIRCLE
  8
1
 62
7
 10
809.9327313286631
 20
553.753865351606
 30
0
 40
3.000000000000049
  0
CIRCLE
  8
1
 62
3
 10
809.9327313286631
 20
553.753865351606
 30
0
 40
2.399999999999596
  0
CIRCLE
  8
1
 62
7
 10
948.4967959341735
 20
486.6368965583118
 30
0
 40
3.000000000000049
  0
CIRCLE
  8
1
 62
3
 10
948.4967959341735
 20
486.6368965583118
 30
0
 40
2.399999999999718
  0
CIRCLE
  8
1
 62
7
 10
898.5897636314184
 20
560.195380954959
 30
0
 40
162.0000000000006
  0
CIRCLE
  8
1
 62
3
 10
898.5897636314184
 20
560.195380954959
 30
0
 40
150.7512014616617
  0
CIRCLE
  8
1
 62
7
 10
1266.758306149013
 20
696.0953809549588
 30
0
 40
0.5999999999989996
  0
CIRCLE
  8
1
 62
7
 10
1265.402750593457
 20
684.2953809549589
 30
0
 40
0.5999999999999091
  0
CIRCLE
  8
1
 62
7
 10
1269.469417260124
 20
696.0953809549588
 30
0
 40
0.6000000000001364
  0
CIRCLE
  8
1
 62
7
 10
1268.113861704568
 20
684.2953809549589
 30
0
 40
0.5999999999999091
  0
CIRCLE
  8
1
 62
7
 10
1272.180528371235
 20
696.0953809549588
 30
0
 40
0.6000000000001364
  0
CIRCLE
  8
1
 62
7
 10
1270.824972815679
 20
684.2953809549589
 30
0
 40
0.5999999999999091
  0
CIRCLE
  8
1
 62
7
 10
1274.891639482346
 20
696.0953809549588
 30
0
 40
0.6000000000001364
  0
CIRCLE
  8
1
 62
7
 10
1273.53608392679
 20
684.2953809549589
 30
0
 40
0.5999999999999091
  0
CIRCLE
  8
1
 62
7
 10
1277.602750593457
 20
696.0953809549588
 30
0
 40
0.6000000000001364
  0
CIRCLE
  8
1
 62
7
 10
1276.247195037902
 20
684.2953809549589
 30
0
 40
0.5999999999989996
  0
ARC
  8
1
 62
7
 10
1287.407219312325
 20
689.0764094917076
 30
0
 40
49.99999999999999
 50
266.3734282161203
 51
298.4372139336591
  0
TEXT
  8
1
 62
7
 10
846.0136452489251
 20
788.1328083709259
 30
0
 40
10
  1
DS 1206MG
 41
0.9
  7
SIMPLEX
 72
1
 11
886.5136452489251
 21
788.1328083709259
 31
0
  0
ENDSEC
  0
EOF
