  0
SECTION
  2
HEADER
  9
$ACADVER
  1
AC1009
  9
$INSBASE
 10
0
 20
0
  9
$EXTMIN
 10
-1107.123862878653
 20
-131.7729273856089
  9
$EXTMAX
 10
-379.6928195780861
 20
319.205297582324
  9
$LIMMIN
 10
-1107.123862878653
 20
-131.7729273856089
  9
$LIMMAX
 10
-379.6928195780861
 20
319.205297582324
  9
$VIEWCTR
 10
10
 20
10
  9
$VIEWSIZE
 40
10
  9
$SNAPMODE
 70
0
  9
$SNAPUNIT
 10
1
 20
1
  9
$SNAPBASE
 10
0
 20
0
  9
$SNAPANG
 50
0
  9
$SNAPSTYLE
 70
0
  9
$SNAPISOPAIR
 70
0
  9
$GRIDMODE
 70
0
  9
$GRIDUNIT
 10
0
 20
0
  9
$ORTHOMODE
 70
0
  9
$REGENMODE
 70
1
  9
$FILLMODE
 70
1
  9
$QTEXTMODE
 70
0
  9
$DRAGMODE
 70
2
  9
$LTSCALE
 40
1
  9
$OSMODE
 70
0
  9
$ATTMODE
 70
1
  9
$TEXTSIZE
 40
3.5
  9
$TRACEWID
 40
0.5
  9
$TEXTSTYLE
  7
STANDARD
  9
$CLAYER
  8
0
  9
$CELTYPE
  6
BYLAYER
  9
$CECOLOR
 62
256
  9
$DIMSCALE
 40
1
  9
$DIMASZ
 40
0.18
  9
$DIMEXO
 40
0.0625
  9
$DIMDLI
 40
0.38
  9
$DIMRND
 40
0
  9
$DIMDLE
 40
0
  9
$DIMEXE
 40
0.18
  9
$DIMTP
 40
0
  9
$DIMTM
 40
0
  9
$DIMTXT
 40
0.18
  9
$DIMCEN
 40
0.09
  9
$DIMTSZ
 40
0
  9
$DIMTOL
 70
0
  9
$DIMLIM
 70
0
  9
$DIMTIH
 70
1
  9
$DIMTOH
 70
1
  9
$DIMSE1
 70
0
  9
$DIMSE2
 70
0
  9
$DIMTAD
 70
0
  9
$DIMZIN
 70
0
  9
$DIMBLK
  1

  9
$DIMASO
 70
1
  9
$DIMSHO
 70
1
  9
$DIMPOST
  1

  9
$DIMAPOST
  1

  9
$DIMALT
 70
0
  9
$DIMALTD
 70
2
  9
$DIMALTF
 40
25.4
  9
$DIMLFAC
 40
1
  9
$DIMTOFL
 70
0
  9
$DIMTVP
 40
0
  9
$DIMTIX
 70
0
  9
$DIMSOXD
 70
0
  9
$DIMSAH
 70
0
  9
$DIMBLK1
  1

  9
$DIMBLK2
  1

  9
$DIMSTYLE
  2
*UNNAMED
  9
$DIMCLRD
 70
0
  9
$DIMCLRE
 70
0
  9
$DIMCLRT
 70
0
  9
$DIMTFAC
 40
1
  9
$DIMGAP
 40
0.09
  9
$LUNITS
 70
2
  9
$LUPREC
 70
4
  9
$AXISMODE
 70
0
  9
$AXISUNIT
 10
0
 20
0
  9
$SKETCHINC
 40
0.1
  9
$FILLETRAD
 40
2
  9
$AUNITS
 70
0
  9
$AUPREC
 70
0
  9
$MENU
  1
ACAD
  9
$ELEVATION
 40
0
  9
$THICKNESS
 40
0
  9
$VIEWDIR
 10
0
 20
0
 30
1
  9
$LIMCHECK
 70
0
  9
$BLIPMODE
 70
1
  9
$CHAMFERA
 40
0
  9
$CHAMFERB
 40
0
  9
$FASTZOOM
 70
1
  9
$SKPOLY
 70
0
  9
$ANGBASE
 50
0
  9
$ANGDIR
 70
0
  9
$PDMODE
 70
0
  9
$PDSIZE
 40
0
  9
$PLINEWID
 40
0
  9
$COORDS
 70
2
  0
ENDSEC
  0
SECTION
  2
TABLES
  0
TABLE
  2
DIMSTYLE
 70
0
  0
ENDTAB
  0
TABLE
  2
LTYPE
 70
9
  0
LTYPE
  2
CONTINUOUS
 70
64
  3
Solid line
 72
65
 73
0
 40
0
  0
LTYPE
  2
BORDER
 70
64
  3
__ __ . __ __ .
 72
65
 73
6
 40
33.50011383621032
 49
9.571461096060091
 49
-4.785730548030045
 49
9.571461096060091
 49
-4.785730548030045
 49
0
 49
-4.785730548030045
  0
LTYPE
  2
CENTER
 70
64
  3
____ _ ____ _
 72
65
 73
4
 40
38.28584438424036
 49
23.92865274015023
 49
-4.785730548030045
 49
4.785730548030045
 49
-4.785730548030045
  0
LTYPE
  2
DASHDOT
 70
64
  3
__ . __ . __ .
 72
65
 73
4
 40
19.14292219212018
 49
9.571461096060091
 49
-4.785730548030045
 49
0
 49
-4.785730548030045
  0
LTYPE
  2
DASHED
 70
64
  3
__ __ __ __ __
 72
65
 73
2
 40
14.35719164409014
 49
9.571461096060091
 49
-4.785730548030045
  0
LTYPE
  2
DIVIDE
 70
64
  3
__ . . __ . . 
 72
65
 73
6
 40
23.92865274015023
 49
9.571461096060091
 49
-4.785730548030045
 49
0
 49
-4.785730548030045
 49
0
 49
-4.785730548030045
  0
LTYPE
  2
DOT
 70
64
  3
..............
 72
65
 73
4
 40
9.571461096060091
 49
0
 49
-4.785730548030045
 49
0
 49
-4.785730548030045
  0
LTYPE
  2
HIDDEN
 70
64
  3
_ _ _ _ _ _ _
 72
65
 73
2
 40
7.178595822045068
 49
4.785730548030045
 49
-2.392865274015023
  0
LTYPE
  2
PHANTOM
 70
64
  3
_____ _ _ _____ _ _ 
 72
65
 73
6
 40
47.85730548030045
 49
23.92865274015023
 49
-4.785730548030045
 49
4.785730548030045
 49
-4.785730548030045
 49
4.785730548030045
 49
-4.785730548030045
  0
ENDTAB
  0
TABLE
  2
LAYER
 70
3
  0
LAYER
  2
1
 70
0
 62
7
  6
CONTINUOUS
  0
LAYER
  2
0
 70
0
 62
7
  6
CONTINUOUS
  0
ENDTAB
  0
TABLE
  2
STYLE
 70
4
  0
STYLE
  2
STANDARD
 70
0
 40
0
 41
1
 50
0
 71
0
 42
3.5
  3
txt
  4

  0
STYLE
  2
SIMPLEX
 70
0
 40
0
 41
1
 50
0
 71
0
 42
3.5
  3
simplex
  4

  0
STYLE
  2
COMPLEX
 70
0
 40
0
 41
1
 50
0
 71
0
 42
3.5
  3
complex
  4

  0
STYLE
  2
ITALIC
 70
0
 40
0
 41
1
 50
0
 71
0
 42
3.5
  3
italic
  4

  0
ENDTAB
  0
TABLE
  2
VIEW
 70
0
  0
ENDTAB
  0
ENDSEC
  0
SECTION
  2
BLOCKS
  0
ENDSEC
  0
SECTION
  2
ENTITIES
  0
LINE
  8
1
 62
3
  6
DIVIDE
 10
-387.1928195780861
 20
-49.77292738560887
 30
0
 11
-387.1928195780861
 21
-87.27292738560887
 31
0
  0
LINE
  8
1
 62
3
  6
DIVIDE
 10
-387.1928195780861
 20
-87.27292738560887
 30
0
 11
-392.1928195780861
 21
-92.27292738560887
 31
0
  0
LINE
  8
1
 62
3
  6
DIVIDE
 10
-402.6928195780861
 20
-92.27292738560887
 30
0
 11
-392.1928195780861
 21
-92.27292738560887
 31
0
  0
LINE
  8
1
 62
3
  6
DIVIDE
 10
-402.6928195780861
 20
-92.27292738560887
 30
0
 11
-404.6928195780861
 21
-90.27292738560887
 31
0
  0
LINE
  8
1
 62
3
  6
DIVIDE
 10
-404.6928195780861
 20
-71.39807609892178
 30
0
 11
-404.6928195780861
 21
-90.27292738560887
 31
0
  0
LINE
  8
1
 62
3
  6
DIVIDE
 10
-404.6928195780861
 20
-73.27292738560887
 30
0
 11
-403.8928195780862
 21
-72.47292738560888
 31
0
  0
LINE
  8
1
 62
3
 10
-403.8928195780862
 20
-72.47292738560888
 30
0
 11
-403.8928195780862
 21
-68.97292738560888
 31
0
  0
LINE
  8
1
 62
3
  6
DIVIDE
 10
-403.8928195780862
 20
-68.97292738560888
 30
0
 11
-407.3928195780862
 21
-68.97292738560888
 31
0
  0
LINE
  8
1
 62
3
  6
DIVIDE
 10
-407.3928195780862
 20
-68.97292738560888
 30
0
 11
-408.1928195780862
 21
-69.77292738560887
 31
0
  0
LINE
  8
1
 62
3
  6
DASHDOT
 10
-422.1928195780861
 20
-44.17617470145378
 30
0
 11
-422.1928195780861
 21
-100.1761747014538
 31
0
  0
LINE
  8
1
 62
3
  6
DIVIDE
 10
-436.1928195780861
 20
-69.77292738560887
 30
0
 11
-408.1928195780862
 21
-69.77292738560887
 31
0
  0
LINE
  8
1
 62
3
  6
DIVIDE
 10
-436.9928195780861
 20
-68.97292738560888
 30
0
 11
-440.4928195780861
 21
-68.97292738560888
 31
0
  0
LINE
  8
1
 62
3
  6
DIVIDE
 10
-436.1928195780861
 20
-69.77292738560887
 30
0
 11
-436.9928195780861
 21
-68.97292738560888
 31
0
  0
LINE
  8
1
 62
3
  6
DIVIDE
 10
-440.4928195780861
 20
-68.97292738560888
 30
0
 11
-440.4928195780861
 21
-72.47292738560888
 31
0
  0
LINE
  8
1
 62
3
  6
DIVIDE
 10
-440.4928195780861
 20
-72.47292738560888
 30
0
 11
-439.6928195780861
 21
-73.2729273856089
 31
0
  0
LINE
  8
1
 62
3
  6
DIVIDE
 10
-439.6928195780861
 20
-71.39807609892181
 30
0
 11
-439.6928195780861
 21
-90.2729273856089
 31
0
  0
LINE
  8
1
 62
3
  6
DIVIDE
 10
-439.6928195780861
 20
-90.2729273856089
 30
0
 11
-441.6928195780861
 21
-92.27292738560887
 31
0
  0
LINE
  8
1
 62
3
  6
DIVIDE
 10
-452.1928195780861
 20
-92.27292738560887
 30
0
 11
-441.6928195780861
 21
-92.27292738560887
 31
0
  0
LINE
  8
1
 62
3
  6
DIVIDE
 10
-452.1928195780861
 20
-92.27292738560887
 30
0
 11
-457.1928195780861
 21
-87.27292738560887
 31
0
  0
LINE
  8
1
 62
3
  6
DASHDOT
 10
-457.1928195780861
 20
-44.17617470145378
 30
0
 11
-457.1928195780861
 21
-100.1761747014538
 31
0
  0
LINE
  8
1
 62
3
  6
DIVIDE
 10
-457.1928195780861
 20
-49.77292738560887
 30
0
 11
-457.1928195780861
 21
-87.27292738560887
 31
0
  0
LINE
  8
1
 62
3
  6
DIVIDE
 10
-387.1928195780861
 20
197.7270726143911
 30
0
 11
-387.1928195780861
 21
160.2270726143911
 31
0
  0
LINE
  8
1
 62
3
  6
DIVIDE
 10
-392.1928195780861
 20
202.7270726143911
 30
0
 11
-387.1928195780861
 21
197.7270726143911
 31
0
  0
LINE
  8
1
 62
3
  6
DIVIDE
 10
-392.1928195780861
 20
202.7270726143911
 30
0
 11
-402.6928195780861
 21
202.7270726143911
 31
0
  0
LINE
  8
1
 62
3
  6
DIVIDE
 10
-404.6928195780861
 20
200.7270726143911
 30
0
 11
-402.6928195780861
 21
202.7270726143911
 31
0
  0
LINE
  8
1
 62
3
  6
DIVIDE
 10
-404.6928195780861
 20
200.7270726143911
 30
0
 11
-404.6928195780861
 21
181.852221327704
 31
0
  0
LINE
  8
1
 62
3
  6
DIVIDE
 10
-403.8928195780862
 20
182.9270726143911
 30
0
 11
-404.6928195780861
 21
183.7270726143911
 31
0
  0
LINE
  8
1
 62
3
  6
DIVIDE
 10
-403.8928195780862
 20
179.4270726143911
 30
0
 11
-403.8928195780862
 21
182.9270726143911
 31
0
  0
LINE
  8
1
 62
3
  6
DIVIDE
 10
-407.3928195780862
 20
179.4270726143911
 30
0
 11
-403.8928195780862
 21
179.4270726143911
 31
0
  0
LINE
  8
1
 62
3
  6
DIVIDE
 10
-408.1928195780862
 20
180.2270726143911
 30
0
 11
-407.3928195780862
 21
179.4270726143911
 31
0
  0
LINE
  8
1
 62
3
  6
DIVIDE
 10
-408.1928195780862
 20
180.2270726143911
 30
0
 11
-436.1928195780861
 21
180.2270726143911
 31
0
  0
LINE
  8
1
 62
3
  6
DIVIDE
 10
-440.4928195780861
 20
179.4270726143911
 30
0
 11
-436.9928195780861
 21
179.4270726143911
 31
0
  0
LINE
  8
1
 62
3
  6
DIVIDE
 10
-436.9928195780861
 20
179.4270726143911
 30
0
 11
-436.1928195780861
 21
180.2270726143911
 31
0
  0
LINE
  8
1
 62
3
  6
DIVIDE
 10
-439.6928195780861
 20
183.7270726143911
 30
0
 11
-440.4928195780861
 21
182.9270726143911
 31
0
  0
LINE
  8
1
 62
3
  6
DIVIDE
 10
-440.4928195780861
 20
182.9270726143911
 30
0
 11
-440.4928195780861
 21
179.4270726143911
 31
0
  0
LINE
  8
1
 62
3
  6
DIVIDE
 10
-441.6928195780861
 20
202.7270726143911
 30
0
 11
-439.6928195780861
 21
200.7270726143911
 31
0
  0
LINE
  8
1
 62
3
 10
-439.6928195780861
 20
181.852221327704
 30
0
 11
-439.6928195780861
 21
200.7270726143911
 31
0
  0
LINE
  8
1
 62
3
  6
DIVIDE
 10
-441.6928195780861
 20
202.7270726143911
 30
0
 11
-452.1928195780861
 21
202.7270726143911
 31
0
  0
LINE
  8
1
 62
3
  6
DIVIDE
 10
-457.1928195780861
 20
197.7270726143911
 30
0
 11
-452.1928195780861
 21
202.7270726143911
 31
0
  0
LINE
  8
1
 62
3
  6
DIVIDE
 10
-457.1928195780861
 20
197.7270726143911
 30
0
 11
-457.1928195780861
 21
160.2270726143911
 31
0
  0
LINE
  8
1
 62
3
  6
DIVIDE
 10
-457.1928195780861
 20
180.2270726143911
 30
0
 11
-437.1928195780861
 21
160.2270726143911
 31
0
  0
LINE
  8
1
 62
3
  6
DASHDOT
 10
-422.1928195780861
 20
210.630319930236
 30
0
 11
-422.1928195780861
 21
154.630319930236
 31
0
  0
LINE
  8
1
 62
3
  6
DASHDOT
 10
-457.1928195780861
 20
210.630319930236
 30
0
 11
-457.1928195780861
 21
154.630319930236
 31
0
  0
LINE
  8
1
 62
7
 10
-860.3514495191313
 20
-33.0440705559086
 30
0
 11
-858.7926037923193
 21
-32.14407055590857
 31
0
  0
LINE
  8
1
 62
7
 10
-861.9102952459432
 20
-32.14407055590865
 30
0
 11
-860.3514495191313
 21
-33.0440705559086
 31
0
  0
LINE
  8
1
 62
7
 10
-861.9102952459433
 20
-30.34407055590865
 30
0
 11
-861.9102952459432
 21
-32.14407055590865
 31
0
  0
LINE
  8
1
 62
7
 10
-860.3514495191313
 20
-29.44407055590861
 30
0
 11
-861.9102952459433
 21
-30.34407055590865
 31
0
  0
LINE
  8
1
 62
7
 10
-858.7926037923194
 20
-30.34407055590857
 30
0
 11
-860.3514495191313
 21
-29.44407055590861
 31
0
  0
LINE
  8
1
 62
7
 10
-858.7926037923193
 20
-32.14407055590857
 30
0
 11
-858.7926037923194
 21
-30.34407055590857
 31
0
  0
LINE
  8
1
 62
7
 10
-1023.337430511363
 20
45.79821578469088
 30
0
 11
-1023.337430511363
 21
47.59821578469087
 31
0
  0
LINE
  8
1
 62
7
 10
-1024.896276238175
 20
44.89821578469088
 30
0
 11
-1023.337430511363
 21
45.79821578469088
 31
0
  0
LINE
  8
1
 62
7
 10
-1026.455121964987
 20
45.79821578469088
 30
0
 11
-1024.896276238175
 21
44.89821578469088
 31
0
  0
LINE
  8
1
 62
7
 10
-1026.455121964987
 20
47.59821578469087
 30
0
 11
-1026.455121964987
 21
45.79821578469088
 31
0
  0
LINE
  8
1
 62
7
 10
-1024.896276238175
 20
48.49821578469087
 30
0
 11
-1026.455121964987
 21
47.59821578469087
 31
0
  0
LINE
  8
1
 62
7
 10
-1023.337430511363
 20
47.59821578469087
 30
0
 11
-1024.896276238175
 21
48.49821578469087
 31
0
  0
LINE
  8
1
 62
7
 10
-876.682708605465
 20
149.3270726143911
 30
0
 11
-875.123862878653
 21
148.4270726143911
 31
0
  0
LINE
  8
1
 62
7
 10
-876.682708605465
 20
151.1270726143911
 30
0
 11
-876.682708605465
 21
149.3270726143911
 31
0
  0
LINE
  8
1
 62
7
 10
-875.123862878653
 20
152.0270726143911
 30
0
 11
-876.682708605465
 21
151.1270726143911
 31
0
  0
LINE
  8
1
 62
7
 10
-873.565017151841
 20
151.1270726143911
 30
0
 11
-875.123862878653
 21
152.0270726143911
 31
0
  0
LINE
  8
1
 62
7
 10
-873.565017151841
 20
149.3270726143911
 30
0
 11
-873.565017151841
 21
151.1270726143911
 31
0
  0
LINE
  8
1
 62
7
 10
-875.123862878653
 20
148.4270726143911
 30
0
 11
-873.565017151841
 21
149.3270726143911
 31
0
  0
LINE
  8
1
 62
7
 10
-856.6097797683292
 20
1.236691557624226
 30
0
 11
-841.6097797683292
 21
27.2174536711575
 31
0
  0
LINE
  8
1
 62
7
 10
-998.637945988977
 20
27.21745367115784
 30
0
 11
-983.6379459889772
 21
1.236691557624681
 31
0
  0
LINE
  8
1
 62
7
 10
-860.0738813834669
 20
3.236691557624497
 30
0
 11
-789.9258236769275
 21
-37.26330844237555
 31
0
  0
LINE
  8
1
 62
7
 10
-995.173844373839
 20
29.21745367115772
 30
0
 11
-1065.321902080379
 21
-11.28254632884216
 31
0
  0
LINE
  8
1
 62
7
 10
-789.9258236769275
 20
-37.26330844237555
 30
0
 11
-774.9258236769275
 21
-11.28254632884239
 31
0
  0
LINE
  8
1
 62
7
 10
-1065.321902080379
 20
-11.28254632884216
 30
0
 11
-1050.321902080379
 21
-37.26330844237532
 31
0
  0
LINE
  8
1
 62
7
 10
-845.0738813834669
 20
29.21745367115761
 30
0
 11
-774.9258236769275
 21
-11.28254632884239
 31
0
  0
LINE
  8
1
 62
7
 10
-980.1738443738391
 20
3.236691557624596
 30
0
 11
-1050.321902080379
 21
-37.26330844237532
 31
0
  0
LINE
  8
1
 62
7
 10
-905.123862878653
 20
137.2270726143911
 30
0
 11
-935.123862878653
 21
137.2270726143911
 31
0
  0
LINE
  8
1
 62
7
 10
-905.123862878653
 20
214.227072614391
 30
0
 11
-935.123862878653
 21
214.227072614391
 31
0
  0
LINE
  8
1
 62
7
 10
-935.123862878653
 20
133.2270726143911
 30
0
 11
-935.123862878653
 21
214.227072614391
 31
0
  0
LINE
  8
1
 62
7
 10
-905.123862878653
 20
133.2270726143911
 30
0
 11
-905.123862878653
 21
214.227072614391
 31
0
  0
LINE
  8
1
 62
7
 10
-619.0513445502425
 20
175.2270726143911
 30
0
 11
-601.1928195780861
 21
175.2270726143911
 31
0
  0
LINE
  8
1
 62
7
 10
-904.123862878653
 20
-14.77292738560891
 30
0
 11
-904.123862878653
 21
-2.600256564812809
 31
0
  0
LINE
  8
1
 62
7
 10
-936.123862878653
 20
-14.77292738560891
 30
0
 11
-904.123862878653
 21
-14.77292738560891
 31
0
  0
LINE
  8
1
 62
7
 10
-936.123862878653
 20
-2.600256564812809
 30
0
 11
-936.123862878653
 21
-14.77292738560891
 31
0
  0
LINE
  8
1
 62
7
 10
-647.1928195780861
 20
-24.77292738560891
 30
0
 11
-647.1928195780861
 21
135.2270726143911
 31
0
  0
LINE
  8
1
 62
7
 10
-647.1928195780861
 20
135.2270726143911
 30
0
 11
-645.1928195780861
 21
137.2270726143911
 31
0
  0
LINE
  8
1
 62
7
 10
-645.1928195780861
 20
137.2270726143911
 30
0
 11
-645.1928195780861
 21
173.2270726143911
 31
0
  0
LINE
  8
1
 62
7
 10
-643.1928195780861
 20
175.2270726143911
 30
0
 11
-640.252401103724
 21
175.2270726143911
 31
0
  0
LINE
  8
1
 62
7
 10
-525.1928195780861
 20
175.2270726143911
 30
0
 11
-525.1928195780861
 21
179.2270726143911
 31
0
  0
LINE
  8
1
 62
7
 10
-525.1928195780861
 20
179.2270726143911
 30
0
 11
-493.0588449818704
 21
179.2270726143911
 31
0
  0
LINE
  8
1
 62
7
 10
-493.0588449818704
 20
179.2270726143911
 30
0
 11
-492.1928195780861
 21
177.7270726143911
 31
0
  0
LINE
  8
1
 62
7
 10
-492.1928195780861
 20
160.2270726143911
 30
0
 11
-386.1928195780861
 21
160.2270726143911
 31
0
  0
LINE
  8
1
 62
7
 10
-384.1928195780861
 20
158.2270726143911
 30
0
 11
-384.1928195780861
 21
137.2270726143911
 31
0
  0
LINE
  8
1
 62
7
 10
-384.1928195780861
 20
137.2270726143911
 30
0
 11
-382.1928195780861
 21
135.2270726143911
 31
0
  0
LINE
  8
1
 62
7
 10
-382.1928195780861
 20
135.2270726143911
 30
0
 11
-382.1928195780861
 21
-24.77292738560891
 31
0
  0
LINE
  8
1
 62
7
 10
-384.1928195780861
 20
158.2270726143911
 30
0
 11
-386.1928195780861
 21
160.2270726143911
 31
0
  0
LINE
  8
1
 62
7
 10
-643.1928195780861
 20
175.2270726143911
 30
0
 11
-645.1928195780861
 21
173.2270726143911
 31
0
  0
LINE
  8
1
 62
7
 10
-645.1928195780861
 20
-26.77292738560891
 30
0
 11
-647.1928195780861
 21
-24.77292738560891
 31
0
  0
LINE
  8
1
 62
7
 10
-645.1928195780861
 20
-62.77292738560891
 30
0
 11
-645.1928195780861
 21
-26.77292738560891
 31
0
  0
LINE
  8
1
 62
7
 10
-525.1928195780861
 20
-64.77292738560891
 30
0
 11
-527.1928195780861
 21
-64.77292738560891
 31
0
  0
LINE
  8
1
 62
7
 10
-386.1928195780861
 20
-49.77292738560891
 30
0
 11
-492.1928195780861
 21
-49.77292738560891
 31
0
  0
LINE
  8
1
 62
7
 10
-384.1928195780861
 20
-26.77292738560891
 30
0
 11
-384.1928195780861
 21
-47.77292738560891
 31
0
  0
LINE
  8
1
 62
7
 10
-382.1928195780861
 20
-24.77292738560891
 30
0
 11
-384.1928195780861
 21
-26.77292738560891
 31
0
  0
LINE
  8
1
 62
7
 10
-386.1928195780861
 20
-49.77292738560891
 30
0
 11
-384.1928195780861
 21
-47.77292738560891
 31
0
  0
LINE
  8
1
 62
7
 10
-645.1928195780861
 20
-62.77292738560891
 30
0
 11
-643.1928195780861
 21
-64.77292738560891
 31
0
  0
LINE
  8
1
 62
7
 10
-382.1928195780861
 20
-4.772927385608909
 30
0
 11
-497.1928195780861
 21
-4.772927385608909
 31
0
  0
LINE
  8
1
 62
7
 10
-647.1928195780861
 20
-14.77292738560891
 30
0
 11
-382.1928195780861
 21
-14.77292738560891
 31
0
  0
LINE
  8
1
 62
7
 10
-527.1928195780861
 20
177.0138297819748
 30
0
 11
-504.192819578086
 21
177.0138297819748
 31
0
  0
LINE
  8
1
 62
7
 10
-935.123862878653
 20
133.2270726143911
 30
0
 11
-905.123862878653
 21
133.2270726143911
 31
0
  0
LINE
  8
1
 62
7
 10
-935.123862878653
 20
-52.77292738560891
 30
0
 11
-905.123862878653
 21
-52.77292738560891
 31
0
  0
LINE
  8
1
 62
7
 10
-905.123862878653
 20
-52.77292738560891
 30
0
 11
-905.123862878653
 21
-63.83173638351551
 31
0
  0
LINE
  8
1
 62
7
 10
-980.1738443738391
 20
3.236691557624596
 30
0
 11
-995.173844373839
 21
29.21745367115772
 31
0
  0
LINE
  8
1
 62
7
 10
-845.0738813834669
 20
29.21745367115761
 30
0
 11
-860.0738813834669
 21
3.236691557624497
 31
0
  0
LINE
  8
1
 62
7
 10
-819.0931192699337
 20
96.23669155762457
 30
0
 11
-834.0931192699337
 21
122.2174536711577
 31
0
  0
LINE
  8
1
 62
7
 10
-1006.154606487372
 20
122.2174536711577
 30
0
 11
-1021.154606487372
 21
96.23669155762457
 31
0
  0
LINE
  8
1
 62
7
 10
-834.0931192699337
 20
122.2174536711577
 30
0
 11
-824.5159097421465
 21
127.746858170111
 31
0
  0
LINE
  8
1
 62
7
 10
-1021.154606487372
 20
96.23669155762457
 30
0
 11
-1030.731816015159
 21
101.7660960565779
 31
0
  0
LINE
  8
1
 62
7
 10
-645.1928195780861
 20
-52.77292738560891
 30
0
 11
-492.1928195780861
 21
-52.77292738560891
 31
0
  0
LINE
  8
1
 62
7
 10
-422.1928195780861
 20
160.2270726143911
 30
0
 11
-422.1928195780861
 21
133.2270726143911
 31
0
  0
LINE
  8
1
 62
7
 10
-422.1928195780861
 20
133.2270726143911
 30
0
 11
-647.1928195780861
 21
133.2270726143911
 31
0
  0
LINE
  8
1
 62
7
 10
-607.1928195780861
 20
-6.272927385608893
 30
0
 11
-497.1928195780861
 21
-6.272927385608893
 31
0
  0
LINE
  8
1
 62
3
  6
DIVIDE
 10
-388.1928195780861
 20
170.2270726143911
 30
0
 11
-388.1928195780861
 21
150.2270726143911
 31
0
  0
LINE
  8
1
 62
3
  6
DIVIDE
 10
-388.1928195780861
 20
150.2270726143911
 30
0
 11
-488.1928195780861
 21
150.2270726143911
 31
0
  0
LINE
  8
1
 62
3
  6
DIVIDE
 10
-488.1928195780861
 20
150.2270726143911
 30
0
 11
-488.1928195780861
 21
170.2270726143911
 31
0
  0
LINE
  8
1
 62
7
 10
-647.1928195780861
 20
115.2270726143911
 30
0
 11
-607.1928195780861
 21
115.2270726143911
 31
0
  0
LINE
  8
1
 62
7
 10
-497.1928195780861
 20
-6.272927385608893
 30
0
 11
-497.1928195780861
 21
116.7270726143911
 31
0
  0
LINE
  8
1
 62
7
 10
-607.1928195780861
 20
116.7270726143911
 30
0
 11
-607.1928195780861
 21
-6.272927385608893
 31
0
  0
LINE
  8
1
 62
7
 10
-497.1928195780861
 20
116.7270726143911
 30
0
 11
-607.1928195780861
 21
116.7270726143911
 31
0
  0
LINE
  8
1
 62
3
  6
DIVIDE
 10
-388.1928195780861
 20
170.2270726143911
 30
0
 11
-488.1928195780861
 21
170.2270726143911
 31
0
  0
LINE
  8
1
 62
7
 10
-833.1020938661492
 20
122.5009473202116
 30
0
 11
-818.3520938661492
 21
96.95319790857064
 31
0
  0
LINE
  8
1
 62
7
 10
-809.5159097421466
 20
101.7660960565779
 30
0
 11
-819.0931192699337
 21
96.23669155762457
 31
0
  0
LINE
  8
1
 62
7
 10
-833.1020938661492
 20
122.5009473202116
 30
0
 11
-823.9275559205962
 21
127.797869272767
 31
0
  0
LINE
  8
1
 62
7
 10
-818.3520938661492
 20
96.95319790857064
 30
0
 11
-809.1775559205962
 21
102.2501198611261
 31
0
  0
LINE
  8
1
 62
7
 10
-1021.895631891157
 20
96.9531979085707
 30
0
 11
-1031.07016983671
 21
102.250119861126
 31
0
  0
LINE
  8
1
 62
7
 10
-905.3738628786532
 20
-53.77292738560891
 30
0
 11
-905.3738628786532
 21
-64.36677129071978
 31
0
  0
LINE
  8
1
 62
7
 10
-1021.895631891157
 20
96.9531979085707
 30
0
 11
-1007.145631891157
 21
122.5009473202116
 31
0
  0
LINE
  8
1
 62
7
 10
-905.3738628786532
 20
-53.77292738560891
 30
0
 11
-934.8738628786532
 21
-53.77292738560903
 31
0
  0
LINE
  8
1
 62
7
 10
-1007.145631891157
 20
122.5009473202116
 30
0
 11
-1016.32016983671
 21
127.7978692727669
 31
0
  0
LINE
  8
1
 62
7
 10
-934.8738628786532
 20
-53.77292738560903
 30
0
 11
-934.8738628786532
 21
-64.36677129071968
 31
0
  0
LINE
  8
1
 62
7
 10
-1015.731816015159
 20
127.746858170111
 30
0
 11
-1006.154606487372
 21
122.2174536711577
 31
0
  0
LINE
  8
1
 62
7
 10
-935.123862878653
 20
-63.83173638351551
 30
0
 11
-935.123862878653
 21
-52.77292738560891
 31
0
  0
LINE
  8
1
 62
7
 10
-635.0733015193196
 20
206.6889346090487
 30
0
 11
-644.0201823820901
 21
152.3386510511187
 31
0
  0
LINE
  8
1
 62
7
 10
-462.1928195780859
 20
137.2270726143911
 30
0
 11
-631.1928195780861
 21
137.2270726143911
 31
0
  0
LINE
  8
1
 62
7
 10
-597.1928195780861
 20
229.2270726143911
 30
0
 11
-597.1928195780861
 21
164.2270726143911
 31
0
  0
LINE
  8
1
 62
7
 10
-597.1928195780861
 20
229.2270726143911
 30
0
 11
-612.1928195780861
 21
229.2270726143911
 31
0
  0
LINE
  8
1
 62
7
 10
-617.1928195780861
 20
224.2270726143911
 30
0
 11
-617.1928195780861
 21
175.2270726143911
 31
0
  0
LINE
  8
1
 62
7
 10
-617.1928195780861
 20
224.2270726143911
 30
0
 11
-612.1928195780861
 21
229.2270726143911
 31
0
  0
LINE
  8
1
 62
7
 10
-601.1928195780861
 20
164.2270726143911
 30
0
 11
-601.1928195780861
 21
177.2270726143911
 31
0
  0
LINE
  8
1
 62
7
 10
-601.1928195780861
 20
177.2270726143911
 30
0
 11
-617.1928195780861
 21
193.2270726143911
 31
0
  0
LINE
  8
1
 62
7
 10
-597.1928195780861
 20
229.2270726143911
 30
0
 11
-597.1928195780861
 21
242.2270726143911
 31
0
  0
LINE
  8
1
 62
7
 10
-597.1928195780861
 20
242.2270726143911
 30
0
 11
-534.192819578086
 21
242.2270726143911
 31
0
  0
LINE
  8
1
 62
7
 10
-534.192819578086
 20
242.2270726143911
 30
0
 11
-534.192819578086
 21
164.2270726143911
 31
0
  0
LINE
  8
1
 62
7
 10
-527.1928195780861
 20
164.2270726143911
 30
0
 11
-601.1928195780861
 21
164.2270726143911
 31
0
  0
LINE
  8
1
 62
3
 10
-597.1928195780861
 20
242.2270726143911
 30
0
 11
-534.192819578086
 21
164.2270726143911
 31
0
  0
LINE
  8
1
 62
3
 10
-597.1928195780861
 20
164.2270726143911
 30
0
 11
-534.192819578086
 21
242.2270726143911
 31
0
  0
LINE
  8
1
 62
7
 10
-527.1928195780861
 20
229.2270726143911
 30
0
 11
-527.1928195780861
 21
219.2270726143911
 31
0
  0
LINE
  8
1
 62
7
 10
-527.1928195780861
 20
175.2270726143911
 30
0
 11
-525.1928195780861
 21
175.2270726143911
 31
0
  0
LINE
  8
1
 62
7
 10
-527.1928195780861
 20
200.9770726143911
 30
0
 11
-534.1928195780861
 21
200.9770726143911
 31
0
  0
LINE
  8
1
 62
7
 10
-534.1928195780861
 20
219.4770726143911
 30
0
 11
-527.1928195780861
 21
219.4770726143911
 31
0
  0
LINE
  8
1
 62
7
 10
-597.1928195780861
 20
-53.77292738560887
 30
0
 11
-597.1928195780861
 21
-118.7729273856089
 31
0
  0
LINE
  8
1
 62
7
 10
-601.1928195780861
 20
-66.77292738560887
 30
0
 11
-601.1928195780861
 21
-53.77292738560887
 31
0
  0
LINE
  8
1
 62
7
 10
-597.1928195780861
 20
-131.7729273856089
 30
0
 11
-597.1928195780861
 21
-118.7729273856089
 31
0
  0
LINE
  8
1
 62
7
 10
-534.1928195780861
 20
-131.7729273856089
 30
0
 11
-597.1928195780861
 21
-131.7729273856089
 31
0
  0
LINE
  8
1
 62
7
 10
-534.1928195780861
 20
-53.77292738560887
 30
0
 11
-534.1928195780861
 21
-131.7729273856089
 31
0
  0
LINE
  8
1
 62
7
 10
-601.1928195780861
 20
-53.77292738560887
 30
0
 11
-527.1928195780861
 21
-53.77292738560887
 31
0
  0
LINE
  8
1
 62
3
 10
-534.1928195780861
 20
-53.77292738560887
 30
0
 11
-597.1928195780861
 21
-131.7729273856089
 31
0
  0
LINE
  8
1
 62
3
 10
-534.1928195780861
 20
-131.7729273856089
 30
0
 11
-597.1928195780861
 21
-53.77292738560887
 31
0
  0
LINE
  8
1
 62
7
 10
-527.1928195780861
 20
-53.77292738560887
 30
0
 11
-527.1928195780861
 21
-118.7729273856089
 31
0
  0
LINE
  8
1
 62
7
 10
-534.1928195780861
 20
-90.52292738560887
 30
0
 11
-527.1928195780861
 21
-90.52292738560887
 31
0
  0
LINE
  8
1
 62
7
 10
-527.1928195780861
 20
-109.0229273856089
 30
0
 11
-534.1928195780861
 21
-109.0229273856089
 31
0
  0
LINE
  8
1
 62
7
 10
-617.1928195780861
 20
-82.77292738560887
 30
0
 11
-601.1928195780861
 21
-66.77292738560887
 31
0
  0
LINE
  8
1
 62
7
 10
-617.1928195780861
 20
-64.77292738560891
 30
0
 11
-617.1928195780861
 21
-113.7729273856089
 31
0
  0
LINE
  8
1
 62
7
 10
-612.1928195780861
 20
-118.7729273856089
 30
0
 11
-617.1928195780861
 21
-113.7729273856089
 31
0
  0
LINE
  8
1
 62
7
 10
-612.1928195780861
 20
-118.7729273856089
 30
0
 11
-597.1928195780861
 21
-118.7729273856089
 31
0
  0
LINE
  8
1
 62
7
 10
-497.192819578086
 20
224.2270726143911
 30
0
 11
-497.192819578086
 21
179.2270726143911
 31
0
  0
LINE
  8
1
 62
7
 10
-497.192819578086
 20
182.2270726143911
 30
0
 11
-504.192819578086
 21
182.2270726143911
 31
0
  0
LINE
  8
1
 62
7
 10
-497.192819578086
 20
224.2270726143911
 30
0
 11
-501.592819578086
 21
228.6270726143911
 31
0
  0
LINE
  8
1
 62
3
 10
-525.1928195780861
 20
179.2270726143911
 30
0
 11
-527.1928195780861
 21
179.2270726143911
 31
0
  0
LINE
  8
1
 62
3
 10
-504.192819578086
 20
177.0138297819748
 30
0
 11
-492.1928195780861
 21
177.0138297819748
 31
0
  0
LINE
  8
1
 62
7
 10
-508.192819578086
 20
219.2270726143911
 30
0
 11
-508.192819578086
 21
216.2270726143911
 31
0
  0
LINE
  8
1
 62
7
 10
-522.6928195780861
 20
204.2270726143911
 30
0
 11
-504.192819578086
 21
204.2270726143911
 31
0
  0
LINE
  8
1
 62
7
 10
-508.192819578086
 20
204.2270726143911
 30
0
 11
-508.1928195780861
 21
201.2270726143911
 31
0
  0
LINE
  8
1
 62
7
 10
-533.6928195780861
 20
201.2270726143911
 30
0
 11
-508.1928195780861
 21
201.2270726143911
 31
0
  0
LINE
  8
1
 62
7
 10
-493.0588449818704
 20
-68.77292738560888
 30
0
 11
-525.1928195780861
 21
-68.77292738560888
 31
0
  0
LINE
  8
1
 62
7
 10
-492.1928195780861
 20
-67.27292738560891
 30
0
 11
-493.0588449818704
 21
-68.77292738560888
 31
0
  0
LINE
  8
1
 62
7
 10
-504.192819578086
 20
-66.5596845531926
 30
0
 11
-527.1928195780861
 21
-66.5596845531926
 31
0
  0
LINE
  8
1
 62
7
 10
-502.192819578086
 20
-118.7729273856089
 30
0
 11
-534.1928195780861
 21
-118.7729273856089
 31
0
  0
LINE
  8
1
 62
7
 10
-497.192819578086
 20
-68.77292738560888
 30
0
 11
-497.192819578086
 21
-113.7729273856089
 31
0
  0
LINE
  8
1
 62
7
 10
-504.192819578086
 20
-71.77292738560888
 30
0
 11
-497.192819578086
 21
-71.77292738560888
 31
0
  0
LINE
  8
1
 62
7
 10
-502.192819578086
 20
-118.7729273856089
 30
0
 11
-497.192819578086
 21
-113.7729273856089
 31
0
  0
LINE
  8
1
 62
3
 10
-527.1928195780861
 20
-68.77292738560888
 30
0
 11
-525.1928195780861
 21
-68.77292738560888
 31
0
  0
LINE
  8
1
 62
3
 10
-492.1928195780861
 20
-66.5596845531926
 30
0
 11
-504.192819578086
 21
-66.5596845531926
 31
0
  0
LINE
  8
1
 62
7
 10
-525.1928195780861
 20
-64.77292738560891
 30
0
 11
-525.1928195780861
 21
-68.77292738560888
 31
0
  0
LINE
  8
1
 62
7
 10
-504.192819578086
 20
-71.77292738560888
 30
0
 11
-504.192819578086
 21
-66.5596845531926
 31
0
  0
LINE
  8
1
 62
7
 10
-527.1928195780861
 20
201.2270726143911
 30
0
 11
-527.1928195780861
 21
164.2270726143911
 31
0
  0
LINE
  8
1
 62
7
 10
-508.192819578086
 20
219.2270726143911
 30
0
 11
-533.6928195780861
 21
219.2270726143911
 31
0
  0
LINE
  8
1
 62
7
 10
-522.6928195780861
 20
219.2270726143911
 30
0
 11
-522.6928195780861
 21
201.2270726143911
 31
0
  0
LINE
  8
1
 62
7
 10
-533.6928195780861
 20
201.2270726143911
 30
0
 11
-533.6928195780861
 21
219.2270726143911
 31
0
  0
LINE
  8
1
 62
7
 10
-504.192819578086
 20
216.2270726143911
 30
0
 11
-522.6928195780861
 21
216.2270726143911
 31
0
  0
LINE
  8
1
 62
7
 10
-501.592819578086
 20
201.2270726143911
 30
0
 11
-501.592819578086
 21
243.2270726143911
 31
0
  0
LINE
  8
1
 62
7
 10
-504.192819578086
 20
177.0138297819748
 30
0
 11
-504.192819578086
 21
243.2270726143911
 31
0
  0
LINE
  8
1
 62
7
 10
-501.592819578086
 20
243.2270726143911
 30
0
 11
-504.192819578086
 21
243.2270726143911
 31
0
  0
LINE
  8
1
 62
7
 10
-501.592819578086
 20
201.2270726143911
 30
0
 11
-504.192819578086
 21
201.2270726143911
 31
0
  0
LINE
  8
1
 62
7
 10
-504.192819578086
 20
229.2270726143911
 30
0
 11
-534.1928195780861
 21
229.2270726143911
 31
0
  0
LINE
  8
1
 62
7
 10
-518.1928195780861
 20
-118.7729273856089
 30
0
 11
-518.1928195780861
 21
-100.7729273856089
 31
0
  0
LINE
  8
1
 62
7
 10
-518.1928195780861
 20
-100.7729273856089
 30
0
 11
-506.192819578086
 21
-100.7729273856089
 31
0
  0
LINE
  8
1
 62
7
 10
-506.192819578086
 20
-100.7729273856089
 30
0
 11
-506.192819578086
 21
-118.7729273856089
 31
0
  0
LINE
  8
1
 62
7
 10
-518.1928195780861
 20
-100.7729273856089
 30
0
 11
-512.1928195780861
 21
-97.30882577047113
 31
0
  0
LINE
  8
1
 62
7
 10
-512.1928195780861
 20
-97.30882577047113
 30
0
 11
-506.192819578086
 21
-100.7729273856089
 31
0
  0
LINE
  8
1
 62
7
 10
-522.0929613047916
 20
217.1140322171455
 30
0
 11
-522.1122430352862
 21
216.2270726143911
 31
0
  0
LINE
  8
1
 62
7
 10
-520.5734148219038
 20
217.2052816016366
 30
0
 11
-520.7020199372042
 21
216.2270726143911
 31
0
  0
LINE
  8
1
 62
7
 10
-519.3836529056969
 20
217.0488636271456
 30
0
 11
-519.4916937531294
 21
216.2270726143911
 31
0
  0
LINE
  8
1
 62
7
 10
-516.9448433933324
 20
217.2052816016366
 30
0
 11
-517.0734485086327
 21
216.2270726143911
 31
0
  0
LINE
  8
1
 62
7
 10
-515.7550814771255
 20
217.0488636271456
 30
0
 11
-515.8631223245579
 21
216.2270726143911
 31
0
  0
LINE
  8
1
 62
7
 10
-513.316271964761
 20
217.2052816016366
 30
0
 11
-513.4448770800614
 21
216.2270726143911
 31
0
  0
LINE
  8
1
 62
7
 10
-512.126510048554
 20
217.0488636271456
 30
0
 11
-512.2345508959866
 21
216.2270726143911
 31
0
  0
LINE
  8
1
 62
7
 10
-509.6877005361894
 20
217.2052816016366
 30
0
 11
-509.8163056514898
 21
216.2270726143911
 31
0
  0
LINE
  8
1
 62
7
 10
-508.4979386199826
 20
217.0488636271456
 30
0
 11
-508.6059794674151
 21
216.2270726143911
 31
0
  0
LINE
  8
1
 62
7
 10
-508.4926778513803
 20
217.1401130116366
 30
0
 11
-508.5125265556683
 21
216.2270726143911
 31
0
  0
LINE
  8
1
 62
7
 10
-522.279659688757
 20
204.2270726143911
 30
0
 11
-522.3877005361895
 21
203.4052816016366
 31
0
  0
LINE
  8
1
 62
7
 10
-521.0693335046822
 20
204.2270726143911
 30
0
 11
-521.1979386199826
 21
203.2488636271456
 31
0
  0
LINE
  8
1
 62
7
 10
-518.6510882601856
 20
204.2270726143911
 30
0
 11
-518.759129107618
 21
203.4052816016366
 31
0
  0
LINE
  8
1
 62
7
 10
-517.4407620761108
 20
204.2270726143911
 30
0
 11
-517.5693671914112
 21
203.2488636271457
 31
0
  0
LINE
  8
1
 62
7
 10
-515.0225168316141
 20
204.2270726143911
 30
0
 11
-515.1305576790467
 21
203.4052816016366
 31
0
  0
LINE
  8
1
 62
7
 10
-513.8121906475393
 20
204.2270726143911
 30
0
 11
-513.9407957628398
 21
203.2488636271456
 31
0
  0
LINE
  8
1
 62
7
 10
-511.3939454030426
 20
204.2270726143911
 30
0
 11
-511.5019862504751
 21
203.4052816016366
 31
0
  0
LINE
  8
1
 62
7
 10
-510.1836192189679
 20
204.2270726143911
 30
0
 11
-510.3122243342683
 21
203.2488636271456
 31
0
  0
LINE
  8
1
 62
7
 10
-508.7733961208857
 20
204.2270726143911
 30
0
 11
-508.7926778513804
 21
203.3401130116367
 31
0
  0
LINE
  8
1
 62
7
 10
-522.3731126005037
 20
204.2270726143911
 30
0
 11
-522.3929613047917
 21
203.3140322171456
 31
0
  0
LINE
  8
1
 62
7
 10
-422.1928195780861
 20
197.7270726143911
 30
0
 11
-422.1928195780861
 21
160.2270726143911
 31
0
  0
LINE
  8
1
 62
7
 10
-427.1928195780861
 20
202.7270726143911
 30
0
 11
-437.6928195780861
 21
202.7270726143911
 31
0
  0
LINE
  8
1
 62
7
 10
-443.1928195780862
 20
180.2270726143911
 30
0
 11
-471.1928195780861
 21
180.2270726143911
 31
0
  0
LINE
  8
1
 62
7
 10
-476.6928195780861
 20
202.7270726143911
 30
0
 11
-487.1928195780861
 21
202.7270726143911
 31
0
  0
LINE
  8
1
 62
7
 10
-492.1928195780861
 20
197.7270726143911
 30
0
 11
-492.1928195780861
 21
160.2270726143911
 31
0
  0
LINE
  8
1
 62
7
 10
-427.1928195780861
 20
202.7270726143911
 30
0
 11
-422.1928195780861
 21
197.7270726143911
 31
0
  0
LINE
  8
1
 62
7
 10
-492.1928195780861
 20
197.7270726143911
 30
0
 11
-487.1928195780861
 21
202.7270726143911
 31
0
  0
LINE
  8
1
 62
7
 10
-476.6928195780861
 20
202.7270726143911
 30
0
 11
-474.6928195780861
 21
200.7270726143911
 31
0
  0
LINE
  8
1
 62
7
 10
-439.6928195780861
 20
200.7270726143911
 30
0
 11
-437.6928195780861
 21
202.7270726143911
 31
0
  0
LINE
  8
1
 62
7
 10
-492.1928195780861
 20
180.2270726143911
 30
0
 11
-472.1928195780861
 21
160.2270726143911
 31
0
  0
LINE
  8
1
 62
7
 10
-474.6928195780861
 20
183.7270726143911
 30
0
 11
-475.4928195780861
 21
182.9270726143911
 31
0
  0
LINE
  8
1
 62
7
 10
-475.4928195780861
 20
182.9270726143911
 30
0
 11
-475.4928195780861
 21
179.4270726143911
 31
0
  0
LINE
  8
1
 62
7
 10
-475.4928195780861
 20
179.4270726143911
 30
0
 11
-471.9928195780861
 21
179.4270726143911
 31
0
  0
LINE
  8
1
 62
7
 10
-471.9928195780861
 20
179.4270726143911
 30
0
 11
-471.1928195780861
 21
180.2270726143911
 31
0
  0
LINE
  8
1
 62
7
 10
-474.6928195780861
 20
181.852221327704
 30
0
 11
-474.6928195780861
 21
200.7270726143911
 31
0
  0
LINE
  8
1
 62
7
 10
-438.8928195780862
 20
182.9270726143911
 30
0
 11
-439.6928195780861
 21
183.7270726143911
 31
0
  0
LINE
  8
1
 62
7
 10
-438.8928195780862
 20
179.4270726143911
 30
0
 11
-438.8928195780862
 21
182.9270726143911
 31
0
  0
LINE
  8
1
 62
7
 10
-442.3928195780862
 20
179.4270726143911
 30
0
 11
-438.8928195780862
 21
179.4270726143911
 31
0
  0
LINE
  8
1
 62
7
 10
-443.1928195780862
 20
180.2270726143911
 30
0
 11
-442.3928195780862
 21
179.4270726143911
 31
0
  0
LINE
  8
1
 62
7
 10
-437.6928195780861
 20
-92.2729273856089
 30
0
 11
-427.1928195780861
 21
-92.2729273856089
 31
0
  0
LINE
  8
1
 62
7
 10
-471.1928195780861
 20
-69.7729273856089
 30
0
 11
-443.1928195780862
 21
-69.7729273856089
 31
0
  0
LINE
  8
1
 62
7
 10
-422.1928195780861
 20
-87.2729273856089
 30
0
 11
-427.1928195780861
 21
-92.2729273856089
 31
0
  0
LINE
  8
1
 62
7
 10
-474.6928195780861
 20
-90.2729273856089
 30
0
 11
-476.6928195780861
 21
-92.2729273856089
 31
0
  0
LINE
  8
1
 62
7
 10
-437.6928195780861
 20
-92.2729273856089
 30
0
 11
-439.6928195780861
 21
-90.2729273856089
 31
0
  0
LINE
  8
1
 62
7
 10
-475.4928195780861
 20
-72.47292738560888
 30
0
 11
-474.6928195780861
 21
-73.2729273856089
 31
0
  0
LINE
  8
1
 62
7
 10
-475.4928195780861
 20
-68.97292738560888
 30
0
 11
-475.4928195780861
 21
-72.47292738560888
 31
0
  0
LINE
  8
1
 62
7
 10
-471.9928195780861
 20
-68.97292738560888
 30
0
 11
-475.4928195780861
 21
-68.97292738560888
 31
0
  0
LINE
  8
1
 62
7
 10
-471.1928195780861
 20
-69.7729273856089
 30
0
 11
-471.9928195780861
 21
-68.97292738560888
 31
0
  0
LINE
  8
1
 62
7
 10
-474.6928195780861
 20
-90.2729273856089
 30
0
 11
-474.6928195780861
 21
-71.39807609892181
 31
0
  0
LINE
  8
1
 62
7
 10
-439.6928195780861
 20
-73.2729273856089
 30
0
 11
-438.8928195780862
 21
-72.47292738560888
 31
0
  0
LINE
  8
1
 62
7
 10
-438.8928195780862
 20
-72.47292738560888
 30
0
 11
-438.8928195780862
 21
-68.97292738560888
 31
0
  0
LINE
  8
1
 62
7
 10
-438.8928195780862
 20
-68.97292738560888
 30
0
 11
-442.3928195780862
 21
-68.97292738560888
 31
0
  0
LINE
  8
1
 62
7
 10
-442.3928195780862
 20
-68.97292738560888
 30
0
 11
-443.1928195780862
 21
-69.7729273856089
 31
0
  0
LINE
  8
1
 62
7
 10
-487.1928195780861
 20
-92.2729273856089
 30
0
 11
-476.6928195780861
 21
-92.2729273856089
 31
0
  0
LINE
  8
1
 62
7
 10
-487.1928195780861
 20
-92.2729273856089
 30
0
 11
-492.1928195780861
 21
-87.2729273856089
 31
0
  0
LINE
  8
1
 62
7
 10
-422.1928195780861
 20
-87.2729273856089
 30
0
 11
-422.1928195780861
 21
-49.77292738560891
 31
0
  0
LINE
  8
1
 62
7
 10
-492.1928195780861
 20
-87.2729273856089
 30
0
 11
-492.1928195780861
 21
-49.77292738560891
 31
0
  0
LINE
  8
1
 62
7
 10
-601.1928195780861
 20
-64.77292738560891
 30
0
 11
-643.1928195780861
 21
-64.77292738560891
 31
0
  0
LINE
  8
1
 62
7
 10
-607.1928195780861
 20
-4.772927385608909
 30
0
 11
-647.1928195780861
 21
-4.772927385608909
 31
0
  0
LINE
  8
1
 62
7
 10
-497.1928195780861
 20
115.2270726143911
 30
0
 11
-382.1928195780861
 21
115.2270726143911
 31
0
  0
LINE
  8
1
 62
7
 10
-495.2613758175818
 20
149.7708077097369
 30
0
 11
-593.8747207011712
 21
157.3564496238592
 31
0
  0
LINE
  8
1
 62
3
  6
DASHDOT
 10
-922.623862878653
 20
55.22707261439111
 30
0
 11
-920.123862878653
 21
55.22707261439111
 31
0
  0
LINE
  8
1
 62
3
  6
DASHDOT
 10
-920.123862878653
 20
57.72707261439111
 30
0
 11
-920.123862878653
 21
55.22707261439111
 31
0
  0
LINE
  8
1
 62
3
  6
DASHDOT
 10
-917.623862878653
 20
55.22707261439111
 30
0
 11
-920.123862878653
 21
55.22707261439111
 31
0
  0
LINE
  8
1
 62
3
  6
DASHDOT
 10
-920.123862878653
 20
52.72707261439111
 30
0
 11
-920.123862878653
 21
55.22707261439111
 31
0
  0
LINE
  8
1
 62
3
  6
DASHDOT
 10
-379.6928195780861
 20
55.22707261439112
 30
0
 11
-382.1928195780861
 21
55.22707261439111
 31
0
  0
LINE
  8
1
 62
3
  6
DASHDOT
 10
-647.1928195780861
 20
55.22707261439111
 30
0
 11
-649.6928195780861
 21
55.22707261439111
 31
0
  0
ARC
  8
1
 62
7
 10
-920.123862878653
 20
55.22707261439111
 30
0
 40
120.0000000000001
 50
37.18075578145827
 51
82.81924421854171
  0
ARC
  8
1
 62
7
 10
-920.123862878653
 20
55.22707261439111
 30
0
 40
79.99999999999993
 50
65.722883649122
 51
79.19307712513965
  0
ARC
  8
1
 62
7
 10
-920.123862878653
 20
55.22707261439111
 30
0
 40
119.9999999999996
 50
217.1807557814583
 51
262.8192442185417
  0
ARC
  8
1
 62
7
 10
-920.123862878653
 20
55.22707261439111
 30
0
 40
120.0000000000001
 50
277.1807557814583
 51
322.8192442185417
  0
ARC
  8
1
 62
7
 10
-920.123862878653
 20
55.22707261439111
 30
0
 40
80
 50
245.722883649122
 51
319.1930771251395
  0
ARC
  8
1
 62
7
 10
-920.123862878653
 20
55.22707261439111
 30
0
 40
120
 50
337.1807557814582
 51
22.81924421854176
  0
ARC
  8
1
 62
7
 10
-920.123862878653
 20
55.22707261439111
 30
0
 40
120
 50
97.18075578145829
 51
142.8192442185416
  0
ARC
  8
1
 62
7
 10
-920.123862878653
 20
55.22707261439111
 30
0
 40
119.9999999999997
 50
157.1807557814582
 51
202.8192442185417
  0
ARC
  8
1
 62
7
 10
-920.123862878653
 20
55.22707261439111
 30
0
 40
79.9999999999999
 50
100.8069228748604
 51
199.1930771251396
  0
ARC
  8
1
 62
7
 10
-920.123862878653
 20
55.22707261439111
 30
0
 40
79.99999999999997
 50
340.8069228748602
 51
54.27711635087802
  0
ARC
  8
1
 62
7
 10
-920.123862878653
 20
55.22707261439111
 30
0
 40
79.99999999999992
 50
220.8069228748604
 51
234.277116350878
  0
ARC
  8
1
 62
7
 10
-920.123862878653
 20
55.22707261439111
 30
0
 40
60.00000000000008
 50
285.4660099534206
 51
254.5339900465795
  0
ARC
  8
1
 62
7
 10
-920.123862878653
 20
55.22707261439111
 30
0
 40
81.99999999999993
 50
65.2812565105358
 51
79.45971403479061
  0
ARC
  8
1
 62
7
 10
-920.123862878653
 20
55.22707261439111
 30
0
 40
81.99999999999993
 50
100.5402859652094
 51
199.4597140347906
  0
ARC
  8
1
 62
7
 10
-920.123862878653
 20
55.22707261439111
 30
0
 40
81.99999999999999
 50
245.2812565105358
 51
319.4597140347906
  0
ARC
  8
1
 62
7
 10
-920.123862878653
 20
55.22707261439111
 30
0
 40
82.00000000000004
 50
340.5402859652093
 51
54.71874348946422
  0
ARC
  8
1
 62
7
 10
-920.123862878653
 20
55.22707261439111
 30
0
 40
82
 50
220.5402859652094
 51
234.7187434894642
  0
ARC
  8
1
 62
7
 10
-920.123862878653
 20
55.22707261439111
 30
0
 40
118
 50
37.30312131497372
 51
82.69687868502631
  0
ARC
  8
1
 62
7
 10
-920.123862878653
 20
55.22707261439111
 30
0
 40
118
 50
337.3031213149737
 51
22.69687868502632
  0
ARC
  8
1
 62
7
 10
-920.123862878653
 20
55.22707261439111
 30
0
 40
118
 50
277.3031213149737
 51
322.6968786850263
  0
ARC
  8
1
 62
7
 10
-920.123862878653
 20
55.22707261439111
 30
0
 40
118.0000000000002
 50
217.3031213149736
 51
262.6968786850263
  0
ARC
  8
1
 62
7
 10
-920.123862878653
 20
55.22707261439111
 30
0
 40
118.0000000000003
 50
157.3031213149737
 51
202.6968786850263
  0
ARC
  8
1
 62
7
 10
-920.123862878653
 20
55.22707261439111
 30
0
 40
118
 50
97.30312131497369
 51
142.6968786850263
  0
ARC
  8
1
 62
7
 10
-920.123862878653
 20
55.22707261439111
 30
0
 40
138
 50
336.2401310982577
 51
83.75986890174224
  0
ARC
  8
1
 62
7
 10
-920.123862878653
 20
55.22707261439111
 30
0
 40
138.0000000000001
 50
216.2401310982577
 51
323.7598689017422
  0
ARC
  8
1
 62
7
 10
-920.123862878653
 20
55.22707261439111
 30
0
 40
138
 50
96.24013109825775
 51
203.7598689017422
  0
ARC
  8
1
 62
7
 10
-920.123862878653
 20
55.22707261439111
 30
0
 40
120.5
 50
97.15080411204737
 51
142.9689830092225
  0
ARC
  8
1
 62
7
 10
-920.123862878653
 20
55.22707261439111
 30
0
 40
120.5
 50
337.1508041120473
 51
22.96898300922243
  0
ARC
  8
1
 62
7
 10
-920.123862878653
 20
55.22707261439111
 30
0
 40
120.4999999999998
 50
217.1508041120474
 51
262.9689830092223
  0
ARC
  8
1
 62
7
 10
-920.123862878653
 20
55.22707261439111
 30
0
 40
120.5000000000001
 50
37.03101699077757
 51
82.84919588795265
  0
ARC
  8
1
 62
7
 10
-920.123862878653
 20
55.22707261439111
 30
0
 40
122.0000000000002
 50
97.06243355375672
 51
180
  0
ARC
  8
1
 62
7
 10
-920.123862878653
 20
55.22707261439111
 30
0
 40
122.0000000000001
 50
337.0624335537567
 51
82.93756644624327
  0
ARC
  8
1
 62
7
 10
-920.123862878653
 20
55.22707261439111
 30
0
 40
120.5000000000001
 50
277.0310169907775
 51
322.8491958879525
  0
ARC
  8
1
 62
7
 10
-920.123862878653
 20
55.22707261439111
 30
0
 40
121.9999999999998
 50
217.0624335537568
 51
322.9375664462432
  0
ARC
  8
1
 62
7
 10
-920.123862878653
 20
55.22707261439111
 30
0
 40
120.5000000000003
 50
157.0310169907777
 51
202.8491958879527
  0
ARC
  8
1
 62
7
 10
-920.123862878653
 20
55.22707261439111
 30
0
 40
122
 50
180
 51
202.9375664462434
  0
ARC
  8
1
 62
7
 10
-631.1928195780861
 20
150.2270726143911
 30
0
 40
12.99999999999993
 50
170.6520812989436
 51
270
  0
ARC
  8
1
 62
7
 10
-522.6928195780861
 20
217.1270726143911
 30
0
 40
0.5999999999999943
 50
270
 51
90
  0
ARC
  8
1
 62
7
 10
-522.9928195780861
 20
203.3270726143911
 30
0
 40
0.6000000000000686
 50
300.0000000000037
 51
59.99999999999491
  0
ARC
  8
1
 62
7
 10
-507.892819578086
 20
217.1270726143911
 30
0
 40
0.5999999999999662
 50
120.0000000000031
 51
239.9999999999956
  0
ARC
  8
1
 62
7
 10
-508.192819578086
 20
203.3270726143911
 30
0
 40
0.5999999999999943
 50
90
 51
270
  0
ARC
  8
1
 62
7
 10
-462.1928195780859
 20
147.2270726143911
 30
0
 40
10
 50
270
 51
119.1586044069246
  0
ARC
  8
1
 62
7
 10
-462.1928195780859
 20
147.2270726143911
 30
0
 40
12.5
 50
233.130102354156
 51
152.2815446146691
  0
ARC
  8
1
 62
7
 10
-626.1928195780861
 20
205.2270726143911
 30
0
 40
8.999999999999966
 50
332.5814703838025
 51
170.6520812989433
  0
ARC
  8
1
 62
7
 10
-591.5738257346291
 20
187.2680841889066
 30
0
 40
30.00000000000004
 50
152.5814703838029
 51
265.6012946450044
  0
CIRCLE
  8
1
 62
3
 10
-860.3514495191313
 20
-31.24407055590861
 30
0
 40
2.399999999999977
  0
CIRCLE
  8
1
 62
7
 10
-860.3514495191313
 20
-31.24407055590861
 30
0
 40
3
  0
CIRCLE
  8
1
 62
3
 10
-1024.896276238175
 20
46.69821578469087
 30
0
 40
2.400000000000091
  0
CIRCLE
  8
1
 62
7
 10
-1024.896276238175
 20
46.69821578469087
 30
0
 40
3
  0
CIRCLE
  8
1
 62
3
 10
-875.123862878653
 20
150.2270726143911
 30
0
 40
2.399999999999977
  0
CIRCLE
  8
1
 62
7
 10
-875.123862878653
 20
150.2270726143911
 30
0
 40
3
  0
CIRCLE
  8
1
 62
7
 10
-631.1928195780861
 20
150.2270726143911
 30
0
 40
6
  0
CIRCLE
  8
1
 62
7
 10
-880.623862878653
 20
123.6430795133618
 30
0
 40
6.399999999999977
  0
CIRCLE
  8
1
 62
3
 10
-880.623862878653
 20
123.6430795133618
 30
0
 40
8
  0
CIRCLE
  8
1
 62
7
 10
-959.623862878653
 20
-13.18893428457949
 30
0
 40
6.400000000000091
  0
CIRCLE
  8
1
 62
3
 10
-959.623862878653
 20
-13.18893428457949
 30
0
 40
8
  0
CIRCLE
  8
1
 62
7
 10
-920.123862878653
 20
55.22707261439111
 30
0
 40
187
  0
CIRCLE
  8
1
 62
3
 10
-920.123862878653
 20
55.22707261439111
 30
0
 40
177.5
  0
CIRCLE
  8
1
 62
7
 10
-920.123862878653
 20
55.22707261439111
 30
0
 40
174
  0
CIRCLE
  8
1
 62
7
 10
-920.123862878653
 20
55.22707261439111
 30
0
 40
169
  0
CIRCLE
  8
1
 62
7
 10
-462.1928195780859
 20
147.2270726143911
 30
0
 40
5
  0
CIRCLE
  8
1
 62
7
 10
-519.9785338638003
 20
217.1270726143911
 30
0
 40
0.5999999999999091
  0
CIRCLE
  8
1
 62
7
 10
-521.792819578086
 20
203.3270726143911
 30
0
 40
0.6000000000000227
  0
CIRCLE
  8
1
 62
7
 10
-516.3499624352288
 20
217.1270726143911
 30
0
 40
0.6000000000001364
  0
CIRCLE
  8
1
 62
7
 10
-518.1642481495146
 20
203.3270726143911
 30
0
 40
0.6000000000000227
  0
CIRCLE
  8
1
 62
7
 10
-512.7213910066574
 20
217.1270726143911
 30
0
 40
0.6000000000000227
  0
CIRCLE
  8
1
 62
7
 10
-514.5356767209432
 20
203.3270726143911
 30
0
 40
0.5999999999999091
  0
CIRCLE
  8
1
 62
7
 10
-509.092819578086
 20
217.1270726143911
 30
0
 40
0.6000000000000227
  0
CIRCLE
  8
1
 62
7
 10
-510.9071052923717
 20
203.3270726143911
 30
0
 40
0.6000000000001364
  0
POLYLINE
  8
1
 62
7
 66
1
  0
VERTEX
  8
1
 10
-501.592819578086
 20
214.2270726143911
 30
0
 42
-0.0319757337036929
  0
VERTEX
  8
1
 10
-500.5547572943489
 20
213.2858961438028
 30
0
 42
-0.04284194860015949
  0
VERTEX
  8
1
 10
-499.7935116196085
 20
212.3447196732146
 30
0
 42
-0.05629168526482299
  0
VERTEX
  8
1
 10
-499.3090825538645
 20
211.4035432026264
 30
0
 42
-0.06877688111862895
  0
VERTEX
  8
1
 10
-499.101470097117
 20
210.4623667320382
 30
0
 42
-0.0732004189016489
  0
VERTEX
  8
1
 10
-499.1706742493662
 20
209.5211902614499
 30
0
 42
-0.06611232422784281
  0
VERTEX
  8
1
 10
-499.5166950106119
 20
208.5800137908617
 30
0
 42
-0.05280342124426901
  0
VERTEX
  8
1
 10
-500.1395323808541
 20
207.6388373202735
 30
0
 42
-0.03983460099630879
  0
VERTEX
  8
1
 10
-501.0391863600929
 20
206.6976608496852
 30
0
  0
VERTEX
  8
1
 10
-501.592819578086
 20
206.2270726143911
 30
0
  0
SEQEND
  8
1
  0
ARC
  8
1
 62
7
 10
-491.426550873345
 20
199.623531984816
 30
0
 40
49.99999999999999
 50
265.6012946450045
 51
299.1586044069253
  0
TEXT
  8
1
 62
7
 10
-975.893508497936
 20
304.205297582324
 30
0
 40
15
  1
DS 1406MG
 41
0.9
  7
SIMPLEX
 72
1
 11
-915.143508497936
 21
304.205297582324
 31
0
  0
ENDSEC
  0
EOF
