  0
SECTION
  2
HEADER
  9
$ACADVER
  1
AC1009
  9
$INSBASE
 10
0
 20
0
  9
$EXTMIN
 10
233.8
 20
123
  9
$EXTMAX
 10
576
 20
335.901160443995
  9
$LIMMIN
 10
233.8
 20
123
  9
$LIMMAX
 10
576
 20
335.901160443995
  9
$VIEWCTR
 10
10
 20
10
  9
$VIEWSIZE
 40
10
  9
$SNAPMODE
 70
0
  9
$SNAPUNIT
 10
1
 20
1
  9
$SNAPBASE
 10
0
 20
0
  9
$SNAPANG
 50
0
  9
$SNAPSTYLE
 70
0
  9
$SNAPISOPAIR
 70
0
  9
$GRIDMODE
 70
0
  9
$GRIDUNIT
 10
0
 20
0
  9
$ORTHOMODE
 70
0
  9
$REGENMODE
 70
1
  9
$FILLMODE
 70
1
  9
$QTEXTMODE
 70
0
  9
$DRAGMODE
 70
2
  9
$LTSCALE
 40
1
  9
$OSMODE
 70
0
  9
$ATTMODE
 70
1
  9
$TEXTSIZE
 40
3.5
  9
$TRACEWID
 40
0.5
  9
$TEXTSTYLE
  7
STANDARD
  9
$CLAYER
  8
0
  9
$CELTYPE
  6
BYLAYER
  9
$CECOLOR
 62
256
  9
$DIMSCALE
 40
1
  9
$DIMASZ
 40
0.18
  9
$DIMEXO
 40
0.0625
  9
$DIMDLI
 40
0.38
  9
$DIMRND
 40
0
  9
$DIMDLE
 40
0
  9
$DIMEXE
 40
0.18
  9
$DIMTP
 40
0
  9
$DIMTM
 40
0
  9
$DIMTXT
 40
0.18
  9
$DIMCEN
 40
0.09
  9
$DIMTSZ
 40
0
  9
$DIMTOL
 70
0
  9
$DIMLIM
 70
0
  9
$DIMTIH
 70
1
  9
$DIMTOH
 70
1
  9
$DIMSE1
 70
0
  9
$DIMSE2
 70
0
  9
$DIMTAD
 70
0
  9
$DIMZIN
 70
0
  9
$DIMBLK
  1

  9
$DIMASO
 70
1
  9
$DIMSHO
 70
1
  9
$DIMPOST
  1

  9
$DIMAPOST
  1

  9
$DIMALT
 70
0
  9
$DIMALTD
 70
2
  9
$DIMALTF
 40
25.4
  9
$DIMLFAC
 40
1
  9
$DIMTOFL
 70
0
  9
$DIMTVP
 40
0
  9
$DIMTIX
 70
0
  9
$DIMSOXD
 70
0
  9
$DIMSAH
 70
0
  9
$DIMBLK1
  1

  9
$DIMBLK2
  1

  9
$DIMSTYLE
  2
*UNNAMED
  9
$DIMCLRD
 70
0
  9
$DIMCLRE
 70
0
  9
$DIMCLRT
 70
0
  9
$DIMTFAC
 40
1
  9
$DIMGAP
 40
0.09
  9
$LUNITS
 70
2
  9
$LUPREC
 70
4
  9
$AXISMODE
 70
0
  9
$AXISUNIT
 10
0
 20
0
  9
$SKETCHINC
 40
0.1
  9
$FILLETRAD
 40
2
  9
$AUNITS
 70
0
  9
$AUPREC
 70
0
  9
$MENU
  1
ACAD
  9
$ELEVATION
 40
0
  9
$THICKNESS
 40
0
  9
$VIEWDIR
 10
0
 20
0
 30
1
  9
$LIMCHECK
 70
0
  9
$BLIPMODE
 70
1
  9
$CHAMFERA
 40
0
  9
$CHAMFERB
 40
0
  9
$FASTZOOM
 70
1
  9
$SKPOLY
 70
0
  9
$ANGBASE
 50
0
  9
$ANGDIR
 70
0
  9
$PDMODE
 70
0
  9
$PDSIZE
 40
0
  9
$PLINEWID
 40
0
  9
$COORDS
 70
2
  0
ENDSEC
  0
SECTION
  2
TABLES
  0
TABLE
  2
DIMSTYLE
 70
0
  0
ENDTAB
  0
TABLE
  2
LTYPE
 70
9
  0
LTYPE
  2
CONTINUOUS
 70
64
  3
Solid line
 72
65
 73
0
 40
0
  0
LTYPE
  2
BORDER
 70
64
  3
__ __ . __ __ .
 72
65
 73
6
 40
15.75921052631579
 49
4.502631578947368
 49
-2.251315789473684
 49
4.502631578947368
 49
-2.251315789473684
 49
0
 49
-2.251315789473684
  0
LTYPE
  2
CENTER
 70
64
  3
____ _ ____ _
 72
65
 73
4
 40
18.01052631578947
 49
11.25657894736842
 49
-2.251315789473684
 49
2.251315789473684
 49
-2.251315789473684
  0
LTYPE
  2
DASHDOT
 70
64
  3
__ . __ . __ .
 72
65
 73
4
 40
9.005263157894737
 49
4.502631578947368
 49
-2.251315789473684
 49
0
 49
-2.251315789473684
  0
LTYPE
  2
DASHED
 70
64
  3
__ __ __ __ __
 72
65
 73
2
 40
6.753947368421052
 49
4.502631578947368
 49
-2.251315789473684
  0
LTYPE
  2
DIVIDE
 70
64
  3
__ . . __ . . 
 72
65
 73
6
 40
11.25657894736842
 49
4.502631578947368
 49
-2.251315789473684
 49
0
 49
-2.251315789473684
 49
0
 49
-2.251315789473684
  0
LTYPE
  2
DOT
 70
64
  3
..............
 72
65
 73
4
 40
4.502631578947368
 49
0
 49
-2.251315789473684
 49
0
 49
-2.251315789473684
  0
LTYPE
  2
HIDDEN
 70
64
  3
_ _ _ _ _ _ _
 72
65
 73
2
 40
3.376973684210526
 49
2.251315789473684
 49
-1.125657894736842
  0
LTYPE
  2
PHANTOM
 70
64
  3
_____ _ _ _____ _ _ 
 72
65
 73
6
 40
22.51315789473684
 49
11.25657894736842
 49
-2.251315789473684
 49
2.251315789473684
 49
-2.251315789473684
 49
2.251315789473684
 49
-2.251315789473684
  0
ENDTAB
  0
TABLE
  2
LAYER
 70
3
  0
LAYER
  2
1
 70
0
 62
7
  6
CONTINUOUS
  0
LAYER
  2
0
 70
0
 62
7
  6
CONTINUOUS
  0
ENDTAB
  0
TABLE
  2
STYLE
 70
4
  0
STYLE
  2
STANDARD
 70
0
 40
0
 41
1
 50
0
 71
0
 42
3.5
  3
txt
  4

  0
STYLE
  2
SIMPLEX
 70
0
 40
0
 41
1
 50
0
 71
0
 42
3.5
  3
simplex
  4

  0
STYLE
  2
COMPLEX
 70
0
 40
0
 41
1
 50
0
 71
0
 42
3.5
  3
complex
  4

  0
STYLE
  2
ITALIC
 70
0
 40
0
 41
1
 50
0
 71
0
 42
3.5
  3
italic
  4

  0
ENDTAB
  0
TABLE
  2
VIEW
 70
0
  0
ENDTAB
  0
ENDSEC
  0
SECTION
  2
BLOCKS
  0
ENDSEC
  0
SECTION
  2
ENTITIES
  0
LINE
  8
1
 62
3
  6
DIVIDE
 10
559.2628573872432
 20
180.7500000000001
 30
0
 11
559.2628573872432
 21
162.5
 31
0
  0
LINE
  8
1
 62
3
  6
DIVIDE
 10
553.7628573872432
 20
160
 30
0
 11
556.7628573872432
 21
160
 31
0
  0
LINE
  8
1
 62
3
  6
DIVIDE
 10
553.7628573872432
 20
160
 30
0
 11
552.2628573872432
 21
161.5
 31
0
  0
LINE
  8
1
 62
3
  6
DIVIDE
 10
552.2628573872432
 20
161.5
 30
0
 11
552.2628573872432
 21
172.5
 31
0
  0
LINE
  8
1
 62
3
  6
DASHDOT
 10
541.2628573872432
 20
183.7500000000001
 30
0
 11
541.2628573872432
 21
169.5
 31
0
  0
LINE
  8
1
 62
3
  6
DIVIDE
 10
530.2628573872432
 20
172.5
 30
0
 11
552.2628573872432
 21
172.5
 31
0
  0
LINE
  8
1
 62
3
  6
DIVIDE
 10
530.2628573872432
 20
161.5
 30
0
 11
530.2628573872432
 21
172.5
 31
0
  0
LINE
  8
1
 62
3
  6
DIVIDE
 10
528.7628573872432
 20
160
 30
0
 11
530.2628573872432
 21
161.5
 31
0
  0
LINE
  8
1
 62
3
  6
DIVIDE
 10
525.7628573872432
 20
160
 30
0
 11
528.7628573872432
 21
160
 31
0
  0
LINE
  8
1
 62
3
  6
DIVIDE
 10
523.2628573872432
 20
162.5
 30
0
 11
525.7628573872432
 21
160
 31
0
  0
LINE
  8
1
 62
3
  6
DIVIDE
 10
523.2628573872432
 20
162.5
 30
0
 11
523.2628573872432
 21
180.7500000000001
 31
0
  0
LINE
  8
1
 62
3
  6
DASHDOT
 10
523.2628573872432
 20
183.7500000000001
 30
0
 11
523.2628573872432
 21
169.5
 31
0
  0
LINE
  8
1
 62
3
  6
DIVIDE
 10
559.2628573872432
 20
297.5
 30
0
 11
559.2628573872432
 21
279.2499999999999
 31
0
  0
LINE
  8
1
 62
3
  6
DIVIDE
 10
556.7628573872432
 20
300
 30
0
 11
553.7628573872432
 21
300
 31
0
  0
LINE
  8
1
 62
3
  6
DIVIDE
 10
552.2628573872432
 20
298.5
 30
0
 11
553.7628573872432
 21
300
 31
0
  0
LINE
  8
1
 62
3
  6
DIVIDE
 10
552.2628573872432
 20
287.5
 30
0
 11
552.2628573872432
 21
298.5
 31
0
  0
LINE
  8
1
 62
3
  6
DIVIDE
 10
552.2628573872432
 20
287.5
 30
0
 11
530.2628573872432
 21
287.5
 31
0
  0
LINE
  8
1
 62
3
  6
DIVIDE
 10
530.2628573872432
 20
298.5
 30
0
 11
528.7628573872432
 21
300
 31
0
  0
LINE
  8
1
 62
3
  6
DIVIDE
 10
530.2628573872432
 20
287.5
 30
0
 11
530.2628573872432
 21
298.5
 31
0
  0
LINE
  8
1
 62
3
  6
DIVIDE
 10
528.7628573872432
 20
300
 30
0
 11
525.7628573872432
 21
300
 31
0
  0
LINE
  8
1
 62
3
  6
DIVIDE
 10
525.7628573872432
 20
300
 30
0
 11
523.2628573872432
 21
297.5
 31
0
  0
LINE
  8
1
 62
3
  6
DIVIDE
 10
523.2628573872432
 20
279.2499999999999
 30
0
 11
523.2628573872432
 21
297.5
 31
0
  0
LINE
  8
1
 62
7
 10
270.7135355814323
 20
245.7538475772937
 30
0
 11
276.7135355814322
 21
256.1461524227069
 31
0
  0
LINE
  8
1
 62
7
 10
343.2864644185681
 20
256.1461524227063
 30
0
 11
349.2864644185681
 21
245.7538475772931
 31
0
  0
LINE
  8
1
 62
3
 10
453.2628573872433
 20
306.2
 30
0
 11
479.2628573872435
 21
277.4999999999999
 31
0
  0
LINE
  8
1
 62
3
 10
479.2628573872435
 20
306.2
 30
0
 11
453.2628573872433
 21
277.4999999999999
 31
0
  0
LINE
  8
1
 62
7
 10
479.2628573872435
 20
306.2
 30
0
 11
453.2628573872433
 21
306.2
 31
0
  0
LINE
  8
1
 62
3
 10
453.2628573872433
 20
153.8
 30
0
 11
479.2628573872435
 21
188.1
 31
0
  0
LINE
  8
1
 62
3
 10
479.2628573872435
 20
153.8
 30
0
 11
453.2628573872433
 21
188.1
 31
0
  0
LINE
  8
1
 62
7
 10
445.7628573872433
 20
160.5
 30
0
 11
453.2628573872433
 21
160.5
 31
0
  0
LINE
  8
1
 62
7
 10
479.2628573872435
 20
153.8
 30
0
 11
453.2628573872433
 21
153.8
 31
0
  0
LINE
  8
1
 62
7
 10
451.2628573872435
 20
188.1
 30
0
 11
482.2628573872435
 21
188.1
 31
0
  0
LINE
  8
1
 62
7
 10
453.2628573872433
 20
188.1
 30
0
 11
453.2628573872433
 21
153.8
 31
0
  0
LINE
  8
1
 62
7
 10
560.2628573872432
 20
257.5
 30
0
 11
430.2628573872432
 21
257.5
 31
0
  0
LINE
  8
1
 62
7
 10
560.2628573872432
 20
202.5
 30
0
 11
430.2628573872432
 21
202.5
 31
0
  0
LINE
  8
1
 62
7
 10
435.4725539796336
 20
292.7944090804095
 30
0
 11
431.3842034938616
 21
270.3436765688519
 31
0
  0
LINE
  8
1
 62
7
 10
439.2035851607458
 20
261.5129605964931
 30
0
 11
522.5592905197881
 21
266.4197298081548
 31
0
  0
LINE
  8
1
 62
7
 10
453.2731956670415
 20
272.9385638453075
 30
0
 11
504.8748709186299
 21
271.0048780096441
 31
0
  0
LINE
  8
1
 62
7
 10
508.9059729676725
 20
277.1359287527942
 30
0
 11
509.0177467277995
 21
275.2371272779095
 31
0
  0
LINE
  8
1
 62
7
 10
511.8454181392773
 20
281.1407350377402
 30
0
 11
511.8454181392755
 21
281.1407350377331
 31
0
  0
LINE
  8
1
 62
3
  6
DASHDOT
 10
560.2628573872432
 20
230
 30
0
 11
565.2628573872432
 21
230
 31
0
  0
LINE
  8
1
 62
7
 10
505.2628573872432
 20
162.5
 30
0
 11
505.2628573872432
 21
180.7500000000001
 31
0
  0
LINE
  8
1
 62
7
 10
541.2628573872432
 20
180.7500000000001
 30
0
 11
541.2628573872432
 21
162.5
 31
0
  0
LINE
  8
1
 62
7
 10
535.7628573872432
 20
160
 30
0
 11
538.7628573872432
 21
160
 31
0
  0
LINE
  8
1
 62
7
 10
512.2628573872432
 20
172.5
 30
0
 11
534.2628573872432
 21
172.5
 31
0
  0
LINE
  8
1
 62
7
 10
507.7628573872432
 20
160
 30
0
 11
510.7628573872432
 21
160
 31
0
  0
LINE
  8
1
 62
7
 10
534.2628573872432
 20
161.5
 30
0
 11
534.2628573872432
 21
172.5
 31
0
  0
LINE
  8
1
 62
7
 10
512.2628573872432
 20
161.5
 30
0
 11
512.2628573872432
 21
172.5
 31
0
  0
LINE
  8
1
 62
7
 10
505.2628573872432
 20
162.5
 30
0
 11
507.7628573872432
 21
160
 31
0
  0
LINE
  8
1
 62
7
 10
510.7628573872432
 20
160
 30
0
 11
512.2628573872432
 21
161.5
 31
0
  0
LINE
  8
1
 62
7
 10
535.7628573872432
 20
160
 30
0
 11
534.2628573872432
 21
161.5
 31
0
  0
LINE
  8
1
 62
3
  6
DASHDOT
 10
541.2628573872432
 20
290.5
 30
0
 11
541.2628573872432
 21
276.2499999999999
 31
0
  0
LINE
  8
1
 62
3
  6
DASHDOT
 10
523.2628573872432
 20
290.5
 30
0
 11
523.2628573872432
 21
276.2499999999999
 31
0
  0
LINE
  8
1
 62
7
 10
534.2628573872432
 20
298.5
 30
0
 11
535.7628573872432
 21
300
 31
0
  0
LINE
  8
1
 62
7
 10
512.2628573872432
 20
298.5
 30
0
 11
510.7628573872432
 21
300
 31
0
  0
LINE
  8
1
 62
7
 10
507.7628573872432
 20
300
 30
0
 11
505.2628573872432
 21
297.5
 31
0
  0
LINE
  8
1
 62
7
 10
512.2628573872432
 20
287.5
 30
0
 11
512.2628573872432
 21
298.5
 31
0
  0
LINE
  8
1
 62
7
 10
534.2628573872432
 20
287.5
 30
0
 11
534.2628573872432
 21
298.5
 31
0
  0
LINE
  8
1
 62
7
 10
510.7628573872432
 20
300
 30
0
 11
507.7628573872432
 21
300
 31
0
  0
LINE
  8
1
 62
7
 10
534.2628573872432
 20
287.5
 30
0
 11
512.2628573872432
 21
287.5
 31
0
  0
LINE
  8
1
 62
7
 10
538.7628573872432
 20
300
 30
0
 11
535.7628573872432
 21
300
 31
0
  0
LINE
  8
1
 62
7
 10
541.2628573872432
 20
297.5
 30
0
 11
541.2628573872432
 21
279.2499999999999
 31
0
  0
LINE
  8
1
 62
7
 10
505.2628573872432
 20
279.2499999999999
 30
0
 11
505.2628573872432
 21
297.5
 31
0
  0
LINE
  8
1
 62
7
 10
484.5515325218381
 20
277.9999999999999
 30
0
 11
500.2628573872435
 21
277.9999999999999
 31
0
  0
LINE
  8
1
 62
3
  6
DASHDOT
 10
425.2628573872433
 20
230
 30
0
 11
430.2628573872433
 21
230
 31
0
  0
LINE
  8
1
 62
7
 10
503.2628573872432
 20
260.9999999999999
 30
0
 11
430.2628573872433
 21
260.9999999999999
 31
0
  0
LINE
  8
1
 62
3
 10
503.6855071180536
 20
277.9999999999999
 30
0
 11
504.2628573872432
 21
278.9999999999999
 31
0
  0
LINE
  8
1
 62
7
 10
431.2628573872433
 20
277.4999999999999
 30
0
 11
431.2628573872433
 21
265.9999999999999
 31
0
  0
LINE
  8
1
 62
7
 10
430.2628573872433
 20
264.9999999999999
 30
0
 11
431.2628573872433
 21
265.9999999999999
 31
0
  0
LINE
  8
1
 62
7
 10
559.2628573872432
 20
279.2499999999999
 30
0
 11
504.4071949545405
 21
279.2499999999999
 31
0
  0
LINE
  8
1
 62
7
 10
504.2628573872432
 20
278.9999999999999
 30
0
 11
504.4071949545405
 21
279.2499999999999
 31
0
  0
LINE
  8
1
 62
7
 10
504.2628573872432
 20
278.9999999999999
 30
0
 11
500.2628573872435
 21
278.9999999999999
 31
0
  0
LINE
  8
1
 62
3
 10
485.1288827910277
 20
278.9999999999999
 30
0
 11
484.5515325218381
 21
277.9999999999999
 31
0
  0
LINE
  8
1
 62
7
 10
560.2628573872432
 20
264.9999999999999
 30
0
 11
559.2628573872432
 21
265.9999999999999
 31
0
  0
LINE
  8
1
 62
7
 10
431.2628573872433
 20
188.5000000000001
 30
0
 11
485.2628573872433
 21
188.5000000000001
 31
0
  0
LINE
  8
1
 62
7
 10
559.2628573872432
 20
194
 30
0
 11
560.2628573872432
 21
195.0000000000001
 31
0
  0
LINE
  8
1
 62
7
 10
559.2628573872432
 20
180.7500000000001
 30
0
 11
559.2628573872432
 21
194
 31
0
  0
LINE
  8
1
 62
7
 10
560.2628573872432
 20
264.9999999999999
 30
0
 11
560.2628573872432
 21
195.0000000000001
 31
0
  0
LINE
  8
1
 62
7
 10
504.4071949545405
 20
180.7500000000001
 30
0
 11
559.2628573872432
 21
180.7500000000001
 31
0
  0
LINE
  8
1
 62
7
 10
431.2628573872433
 20
182.5000000000001
 30
0
 11
451.2628573872433
 21
182.5000000000001
 31
0
  0
LINE
  8
1
 62
7
 10
431.2628573872433
 20
194.0000000000001
 30
0
 11
431.2628573872433
 21
182.5000000000001
 31
0
  0
LINE
  8
1
 62
7
 10
431.2628573872433
 20
194.0000000000001
 30
0
 11
430.2628573872433
 21
195.0000000000001
 31
0
  0
LINE
  8
1
 62
7
 10
430.2628573872433
 20
264.9999999999999
 30
0
 11
430.2628573872433
 21
195.0000000000001
 31
0
  0
LINE
  8
1
 62
7
 10
315.9999999999999
 20
296.0708692588917
 30
0
 11
316.0000000000003
 21
260.9999999999998
 31
0
  0
LINE
  8
1
 62
7
 10
304.0000000000002
 20
260.9999999999999
 30
0
 11
304
 21
296.0708692588917
 31
0
  0
LINE
  8
1
 62
7
 10
316.0000000000003
 20
260.9999999999998
 30
0
 11
304.0000000000002
 21
260.9999999999999
 31
0
  0
LINE
  8
1
 62
7
 10
317.4999999999998
 20
203.5424868893541
 30
0
 11
317.4999999999998
 21
197.4999999999998
 31
0
  0
LINE
  8
1
 62
7
 10
317.4999999999998
 20
197.4999999999998
 30
0
 11
302.4999999999997
 21
197.5000000000001
 31
0
  0
LINE
  8
1
 62
7
 10
302.4999999999997
 20
197.5000000000001
 30
0
 11
302.4999999999998
 21
203.5424868893542
 31
0
  0
LINE
  8
1
 62
7
 10
315.9999999999996
 20
182.8804711398764
 30
0
 11
315.9999999999996
 21
188.4999999999997
 31
0
  0
LINE
  8
1
 62
7
 10
315.9999999999996
 20
188.4999999999997
 30
0
 11
303.9999999999996
 21
188.4999999999999
 31
0
  0
LINE
  8
1
 62
7
 10
303.9999999999996
 20
188.4999999999999
 30
0
 11
304
 21
182.8804711398765
 31
0
  0
LINE
  8
1
 62
7
 10
559.2628573872432
 20
265.9999999999999
 30
0
 11
559.2628573872432
 21
279.2499999999999
 31
0
  0
LINE
  8
1
 62
7
 10
432.6873929715775
 20
277.4999999999999
 30
0
 11
431.2628573872433
 21
277.4999999999999
 31
0
  0
LINE
  8
1
 62
7
 10
443.2628573872433
 20
297
 30
0
 11
443.2628573872433
 21
279.0484280565951
 31
0
  0
LINE
  8
1
 62
7
 10
445.7628573872433
 20
299.5
 30
0
 11
453.2628573872433
 21
299.5
 31
0
  0
LINE
  8
1
 62
7
 10
453.2628573872433
 20
278.5
 30
0
 11
451.2628573872433
 21
278.5
 31
0
  0
LINE
  8
1
 62
7
 10
451.2628573872433
 20
278.5
 30
0
 11
443.2628573872433
 21
286.5
 31
0
  0
LINE
  8
1
 62
7
 10
451.2628573872433
 20
278.5
 30
0
 11
451.2628573872433
 21
277.4999999999999
 31
0
  0
LINE
  8
1
 62
7
 10
443.2628573872433
 20
173.5
 30
0
 11
451.2628573872433
 21
181.5
 31
0
  0
LINE
  8
1
 62
7
 10
451.2628573872435
 20
188.1
 30
0
 11
451.2628573872433
 21
181.5
 31
0
  0
LINE
  8
1
 62
7
 10
443.2628573872433
 20
182.5000000000001
 30
0
 11
443.2628573872433
 21
163
 31
0
  0
LINE
  8
1
 62
7
 10
479.2628573872435
 20
277.4999999999999
 30
0
 11
479.2628573872435
 21
306.2
 31
0
  0
LINE
  8
1
 62
7
 10
479.2628573872435
 20
153.8
 30
0
 11
479.2628573872435
 21
188.1
 31
0
  0
LINE
  8
1
 62
7
 10
453.2628573872433
 20
277.4999999999999
 30
0
 11
453.2628573872433
 21
306.2
 31
0
  0
LINE
  8
1
 62
7
 10
484.2628573872433
 20
277.4999999999999
 30
0
 11
444.2995609297304
 21
277.4999999999999
 31
0
  0
LINE
  8
1
 62
7
 10
482.2628573872435
 20
188.1
 30
0
 11
482.2628573872435
 21
160.5
 31
0
  0
LINE
  8
1
 62
7
 10
445.7628573872433
 20
160.5
 30
0
 11
443.2628573872433
 21
163
 31
0
  0
LINE
  8
1
 62
7
 10
445.7628573872433
 20
299.5
 30
0
 11
443.2628573872433
 21
297
 31
0
  0
LINE
  8
1
 62
7
 10
503.2628573872435
 20
297
 30
0
 11
503.2628573872435
 21
278.9999999999999
 31
0
  0
LINE
  8
1
 62
7
 10
482.2628573872435
 20
296
 30
0
 11
497.7628573872435
 21
296
 31
0
  0
LINE
  8
1
 62
7
 10
497.7628573872435
 20
296
 30
0
 11
497.7628573872435
 21
294.5
 31
0
  0
LINE
  8
1
 62
7
 10
497.7628573872435
 20
286
 30
0
 11
482.2628573872435
 21
286
 31
0
  0
LINE
  8
1
 62
7
 10
488.4628573872435
 20
294.5
 30
0
 11
500.2628573872435
 21
294.5
 31
0
  0
LINE
  8
1
 62
7
 10
488.4628573872435
 20
287.5
 30
0
 11
500.2628573872435
 21
287.5
 31
0
  0
LINE
  8
1
 62
7
 10
503.2628573872435
 20
297
 30
0
 11
502.2628573872435
 21
298
 31
0
  0
LINE
  8
1
 62
7
 10
479.2628573872435
 20
160.5
 30
0
 11
500.7628573872435
 21
160.4999999999999
 31
0
  0
LINE
  8
1
 62
7
 10
500.7628573872435
 20
160.4999999999999
 30
0
 11
503.2628573872435
 21
162.9999999999999
 31
0
  0
LINE
  8
1
 62
7
 10
503.2628573872435
 20
182.0000000000001
 30
0
 11
503.2628573872435
 21
162.9999999999999
 31
0
  0
LINE
  8
1
 62
7
 10
503.2628573872435
 20
280
 30
0
 11
500.2628573872435
 21
280
 31
0
  0
LINE
  8
1
 62
3
 10
485.1288827910277
 20
278.9999999999999
 30
0
 11
482.2628573872435
 21
278.9999999999999
 31
0
  0
LINE
  8
1
 62
7
 10
484.5515325218381
 20
277.9999999999999
 30
0
 11
482.2628573872435
 21
277.9999999999999
 31
0
  0
LINE
  8
1
 62
3
 10
500.2628573872435
 20
277.9999999999999
 30
0
 11
503.6855071180536
 21
277.9999999999999
 31
0
  0
LINE
  8
1
 62
3
 10
500.2628573872435
 20
278.9999999999999
 30
0
 11
485.1288827910277
 21
278.9999999999999
 31
0
  0
LINE
  8
1
 62
7
 10
484.5515325218381
 20
277.9999999999999
 30
0
 11
484.2628573872433
 21
277.4999999999999
 31
0
  0
LINE
  8
1
 62
7
 10
500.2628573872435
 20
277.9999999999999
 30
0
 11
500.2628573872435
 21
307
 31
0
  0
LINE
  8
1
 62
7
 10
500.2628573872435
 20
182.0000000000001
 30
0
 11
484.5515325218381
 21
182.0000000000001
 31
0
  0
LINE
  8
1
 62
3
 10
504.2628573872432
 20
181.0000000000001
 30
0
 11
503.6855071180536
 21
182.0000000000001
 31
0
  0
LINE
  8
1
 62
7
 10
482.2628573872435
 20
182.5000000000001
 30
0
 11
484.2628573872433
 21
182.5000000000001
 31
0
  0
LINE
  8
1
 62
7
 10
504.4071949545405
 20
180.7500000000001
 30
0
 11
504.2628573872432
 21
181.0000000000001
 31
0
  0
LINE
  8
1
 62
7
 10
500.2628573872435
 20
181.0000000000001
 30
0
 11
504.2628573872432
 21
181.0000000000001
 31
0
  0
LINE
  8
1
 62
3
 10
484.5515325218381
 20
182.0000000000001
 30
0
 11
485.1288827910277
 21
181.0000000000001
 31
0
  0
LINE
  8
1
 62
7
 10
500.2628573872435
 20
179.9999999999999
 30
0
 11
503.2628573872435
 21
179.9999999999999
 31
0
  0
LINE
  8
1
 62
7
 10
500.2628573872435
 20
182.0000000000001
 30
0
 11
500.2628573872435
 21
179.9999999999999
 31
0
  0
LINE
  8
1
 62
3
 10
482.2628573872435
 20
181.0000000000001
 30
0
 11
485.1288827910277
 21
181.0000000000001
 31
0
  0
LINE
  8
1
 62
7
 10
482.2628573872435
 20
182.0000000000001
 30
0
 11
484.5515325218381
 21
182.0000000000001
 31
0
  0
LINE
  8
1
 62
3
 10
503.6855071180536
 20
182.0000000000001
 30
0
 11
500.2628573872435
 21
182.0000000000001
 31
0
  0
LINE
  8
1
 62
3
 10
485.1288827910277
 20
181.0000000000001
 30
0
 11
500.2628573872435
 21
181.0000000000001
 31
0
  0
LINE
  8
1
 62
7
 10
484.2628573872433
 20
182.5000000000001
 30
0
 11
484.5515325218381
 21
182.0000000000001
 31
0
  0
LINE
  8
1
 62
7
 10
482.2628573872435
 20
165.5
 30
0
 11
479.2628573872435
 21
165.5
 31
0
  0
LINE
  8
1
 62
7
 10
479.2628573872435
 20
172.5
 30
0
 11
482.2628573872435
 21
172.5
 31
0
  0
LINE
  8
1
 62
7
 10
488.7628573872435
 20
160.4999999999999
 30
0
 11
488.7628573872435
 21
172.4999999999999
 31
0
  0
LINE
  8
1
 62
7
 10
488.7628573872435
 20
172.4999999999999
 30
0
 11
496.7628573872436
 21
172.4999999999999
 31
0
  0
LINE
  8
1
 62
7
 10
496.7628573872436
 20
172.4999999999999
 30
0
 11
496.7628573872435
 21
160.4999999999999
 31
0
  0
LINE
  8
1
 62
7
 10
488.7628573872435
 20
172.4999999999999
 30
0
 11
492.7628573872435
 21
174.8094010767584
 31
0
  0
LINE
  8
1
 62
7
 10
492.7628573872435
 20
174.8094010767584
 30
0
 11
496.7628573872436
 21
172.4999999999999
 31
0
  0
LINE
  8
1
 62
7
 10
482.2628573872435
 20
294.25
 30
0
 11
479.2628573872435
 21
294.25
 31
0
  0
LINE
  8
1
 62
7
 10
482.2628573872435
 20
287.75
 30
0
 11
479.2628573872435
 21
287.75
 31
0
  0
LINE
  8
1
 62
7
 10
482.2628573872435
 20
296
 30
0
 11
482.2628573872435
 21
277.4999999999999
 31
0
  0
LINE
  8
1
 62
7
 10
488.4628573872435
 20
286
 30
0
 11
488.4628573872435
 21
296
 31
0
  0
LINE
  8
1
 62
7
 10
497.7628573872435
 20
287.5
 30
0
 11
497.7628573872435
 21
286
 31
0
  0
LINE
  8
1
 62
7
 10
503.2628573872435
 20
293
 30
0
 11
500.2628573872435
 21
293
 31
0
  0
LINE
  8
1
 62
7
 10
503.2628573872435
 20
289
 30
0
 11
500.2628573872435
 21
289
 31
0
  0
LINE
  8
1
 62
7
 10
500.2628573872435
 20
307
 30
0
 11
502.2628573872435
 21
307
 31
0
  0
LINE
  8
1
 62
7
 10
500.2628573872435
 20
285
 30
0
 11
502.2628573872435
 21
285
 31
0
  0
LINE
  8
1
 62
7
 10
502.2628573872435
 20
285
 30
0
 11
502.2628573872435
 21
289
 31
0
  0
LINE
  8
1
 62
7
 10
502.2628573872435
 20
293
 30
0
 11
502.2628573872435
 21
307
 31
0
  0
LINE
  8
1
 62
7
 10
500.2628573872435
 20
299.5
 30
0
 11
479.2628573872435
 21
299.5
 31
0
  0
LINE
  8
1
 62
7
 10
315.9999999999999
 20
296.0708692588917
 30
0
 11
304
 21
296.0708692588917
 31
0
  0
LINE
  8
1
 62
7
 10
316.0000000000003
 20
261.5129605964931
 30
0
 11
304.0000000000002
 21
261.5129605964931
 31
0
  0
LINE
  8
1
 62
7
 10
249.7809487716795
 20
202.1607177932607
 30
0
 11
280.1532124826823
 21
219.6961524227068
 31
0
  0
LINE
  8
1
 62
7
 10
286.1532124826822
 20
209.3038475772935
 30
0
 11
255.7809487716795
 21
191.7684129478475
 31
0
  0
LINE
  8
1
 62
7
 10
280.1532124826823
 20
219.6961524227068
 30
0
 11
286.1532124826822
 21
209.3038475772935
 31
0
  0
LINE
  8
1
 62
7
 10
249.7809487716795
 20
202.1607177932607
 30
0
 11
255.7809487716795
 21
191.7684129478475
 31
0
  0
LINE
  8
1
 62
7
 10
279.7089755749789
 20
219.4396721244603
 30
0
 11
285.7089755749788
 21
209.0473672790469
 31
0
  0
LINE
  8
1
 62
7
 10
364.2190512283206
 20
191.7684129478475
 30
0
 11
333.8467875173172
 21
209.3038475772933
 31
0
  0
LINE
  8
1
 62
7
 10
339.8467875173175
 20
219.6961524227065
 30
0
 11
370.2190512283206
 21
202.1607177932607
 31
0
  0
LINE
  8
1
 62
7
 10
333.8467875173172
 20
209.3038475772933
 30
0
 11
339.8467875173175
 21
219.6961524227065
 31
0
  0
LINE
  8
1
 62
7
 10
364.2190512283206
 20
191.7684129478475
 30
0
 11
370.2190512283206
 21
202.1607177932607
 31
0
  0
LINE
  8
1
 62
7
 10
334.2910244250211
 20
209.0473672790465
 30
0
 11
340.2910244250211
 21
219.4396721244599
 31
0
  0
LINE
  8
1
 62
7
 10
315.9999999999997
 20
188.1
 30
0
 11
303.9999999999997
 21
188.1
 31
0
  0
LINE
  8
1
 62
7
 10
347.8067090072208
 20
258.7559168527682
 30
0
 11
342.9400542570547
 21
255.9461524227064
 31
0
  0
LINE
  8
1
 62
7
 10
342.9400542570547
 20
255.9461524227064
 30
0
 11
348.9400542570543
 21
245.5538475772929
 31
0
  0
LINE
  8
1
 62
7
 10
348.9400542570543
 20
245.5538475772929
 30
0
 11
353.8067090072208
 21
248.363612007355
 31
0
  0
LINE
  8
1
 62
7
 10
266.1932909927794
 20
248.3636120073554
 30
0
 11
271.0599457429458
 21
245.5538475772939
 31
0
  0
LINE
  8
1
 62
7
 10
271.0599457429458
 20
245.5538475772939
 30
0
 11
277.059945742946
 21
255.9461524227071
 31
0
  0
LINE
  8
1
 62
7
 10
277.059945742946
 20
255.9461524227071
 30
0
 11
272.193290992779
 21
258.7559168527682
 31
0
  0
LINE
  8
1
 62
7
 10
560.2628573872432
 20
197.4999999999999
 30
0
 11
430.2628573872432
 21
197.4999999999999
 31
0
  0
LINE
  8
1
 62
3
  6
DASHDOT
 10
320
 20
230
 30
0
 11
300
 21
230
 31
0
  0
LINE
  8
1
 62
3
  6
DASHDOT
 10
310
 20
240
 30
0
 11
310
 21
220
 31
0
  0
LINE
  8
1
 62
3
  6
DIVIDE
 10
507.2628573872432
 20
283.2499999999999
 30
0
 11
507.2628573872432
 21
274.7499999999999
 31
0
  0
LINE
  8
1
 62
3
  6
DIVIDE
 10
557.2628573872432
 20
274.7499999999999
 30
0
 11
557.2628573872432
 21
283.2499999999999
 31
0
  0
LINE
  8
1
 62
3
  6
DIVIDE
 10
557.2628573872432
 20
283.2499999999999
 30
0
 11
507.2628573872432
 21
283.2499999999999
 31
0
  0
LINE
  8
1
 62
3
  6
DIVIDE
 10
507.2628573872432
 20
274.7499999999999
 30
0
 11
557.2628573872432
 21
274.7499999999999
 31
0
  0
LINE
  8
1
 62
7
 10
497.7628573872435
 20
294.5
 30
0
 11
497.4983669161808
 21
296
 31
0
  0
LINE
  8
1
 62
7
 10
497.4983669161808
 20
296
 30
0
 11
495.7350971090962
 21
286
 31
0
  0
LINE
  8
1
 62
7
 10
495.7350971090962
 20
286
 30
0
 11
493.9718273020115
 21
296
 31
0
  0
LINE
  8
1
 62
7
 10
493.9718273020115
 20
296
 30
0
 11
492.2085574949268
 21
286
 31
0
  0
LINE
  8
1
 62
7
 10
492.2085574949268
 20
286
 30
0
 11
490.4452876878422
 21
296
 31
0
  0
LINE
  8
1
 62
7
 10
490.4452876878422
 20
296
 30
0
 11
488.6820178807575
 21
286
 31
0
  0
LINE
  8
1
 62
7
 10
488.6820178807575
 20
286
 30
0
 11
488.4628573872435
 21
287.2429209224443
 31
0
  0
ARC
  8
1
 62
3
  6
DIVIDE
 10
556.7628573872432
 20
178.2500000000001
 30
0
 40
2.5
 50
0
 51
90
  0
ARC
  8
1
 62
3
  6
DIVIDE
 10
525.762857387243
 20
178.2500000000001
 30
0
 40
2.5
 50
90
 51
180
  0
ARC
  8
1
 62
3
  6
DIVIDE
 10
556.7628573872432
 20
281.7499999999999
 30
0
 40
2.5
 50
270
 51
0
  0
ARC
  8
1
 62
3
  6
DIVIDE
 10
525.762857387243
 20
281.7499999999999
 30
0
 40
2.5
 50
180
 51
270
  0
ARC
  8
1
 62
7
 10
505.0246590459291
 20
275.002072465375
 30
0
 40
4.000000000000756
 50
267.8539413591383
 51
3.368852950380116
  0
ARC
  8
1
 62
7
 10
439.407836056104
 20
292.0777815770215
 30
0
 40
3.99999999999994
 50
93.36885295038265
 51
169.6793459313748
  0
ARC
  8
1
 62
7
 10
453.7225600489392
 20
284.9301472124984
 30
0
 40
12.0000000000003
 50
150.6500017302805
 51
267.8539413591379
  0
ARC
  8
1
 62
7
 10
506.6594608205924
 20
259.7607012050004
 30
0
 40
19.99999999999938
 50
28.74192064923725
 51
76.36561750176581
  0
ARC
  8
1
 62
7
 10
522.4417631135207
 20
268.4162736490901
 30
0
 40
2.000000000000174
 50
273.3688529503847
 51
28.74192064921733
  0
ARC
  8
1
 62
7
 10
438.7628573872433
 20
268.9999999999999
 30
0
 40
7.499999999999902
 50
169.679345931378
 51
273.3688529503826
  0
ARC
  8
1
 62
7
 10
439.407836056104
 20
292.0777815770215
 30
0
 40
3.999999999999937
 50
15.47320328232842
 51
93.36885295038265
  0
ARC
  8
1
 62
7
 10
510.9025168086077
 20
277.2534561590615
 30
0
 40
1.999999999992689
 50
76.36561750177167
 51
183.3688529503817
  0
ARC
  8
1
 62
7
 10
538.7628573872432
 20
178.2500000000001
 30
0
 40
2.5
 50
0
 51
90
  0
ARC
  8
1
 62
7
 10
507.762857387243
 20
178.2500000000001
 30
0
 40
2.5
 50
90
 51
180
  0
ARC
  8
1
 62
7
 10
507.762857387243
 20
281.7499999999999
 30
0
 40
2.5
 50
180
 51
270
  0
ARC
  8
1
 62
7
 10
538.7628573872432
 20
281.7499999999999
 30
0
 40
2.5
 50
270
 51
0
  0
ARC
  8
1
 62
7
 10
503.2628573872432
 20
310.9999999999999
 30
0
 40
50
 50
270
 51
320.5800155329413
  0
ARC
  8
1
 62
7
 10
485.2628573872433
 20
138.5000000000001
 30
0
 40
49.99999999999994
 50
57.67193587783784
 51
90
  0
ARC
  8
1
 62
7
 10
310
 20
230
 30
0
 40
34.99999999999991
 50
99.8708896061389
 51
200.1291103938601
  0
ARC
  8
1
 62
7
 10
310
 20
230
 30
0
 40
47.49999999999992
 50
97.25674730753678
 51
142.7432526924634
  0
ARC
  8
1
 62
7
 10
310
 20
230
 30
0
 40
47.50000000000016
 50
217.2567473075367
 51
262.7432526924632
  0
ARC
  8
1
 62
7
 10
310
 20
230
 30
0
 40
35.0000000000001
 50
219.870889606139
 51
320.12911039386
  0
ARC
  8
1
 62
7
 10
310
 20
230
 30
0
 40
35.00000000000003
 50
339.8708896061389
 51
80.12911039385999
  0
ARC
  8
1
 62
7
 10
310
 20
230
 30
0
 40
47.49999999999994
 50
337.2567473075367
 51
22.74325269246318
  0
ARC
  8
1
 62
7
 10
310
 20
230
 30
0
 40
47.49999999999987
 50
37.25674730753675
 51
82.74325269246259
  0
ARC
  8
1
 62
7
 10
310
 20
230
 30
0
 40
47.50000000000019
 50
277.2567473075363
 51
322.7432526924627
  0
ARC
  8
1
 62
7
 10
310
 20
230
 30
0
 40
47.49999999999991
 50
157.2567473075362
 51
202.7432526924629
  0
ARC
  8
1
 62
7
 10
310
 20
230
 30
0
 40
35.99999999999999
 50
219.5940682268601
 51
320.4059317731392
  0
ARC
  8
1
 62
7
 10
310
 20
230
 30
0
 40
35.99999999999996
 50
339.5940682268601
 51
80.40593177313917
  0
ARC
  8
1
 62
7
 10
310
 20
230
 30
0
 40
35.99999999999989
 50
99.59406822686012
 51
200.4059317731393
  0
ARC
  8
1
 62
7
 10
310
 20
230
 30
0
 40
56.49999999999996
 50
216.0960021361579
 51
323.9039978638421
  0
ARC
  8
1
 62
7
 10
310
 20
230
 30
0
 40
56.50000000000011
 50
336.0960021361579
 51
83.90399786384201
  0
ARC
  8
1
 62
7
 10
310
 20
230
 30
0
 40
56.50000000000003
 50
96.09600213615778
 51
203.9039978638421
  0
ARC
  8
1
 62
7
 10
310
 20
230
 30
0
 40
27.49999999999992
 50
285.8266201318719
 51
254.1733798681271
  0
ARC
  8
1
 62
7
 10
310
 20
230
 30
0
 40
48.50000000000016
 50
337.1063433978912
 51
82.89365660210858
  0
ARC
  8
1
 62
7
 10
310
 20
230
 30
0
 40
48.50000000000017
 50
217.1063433978912
 51
322.8936566021086
  0
ARC
  8
1
 62
7
 10
310
 20
230
 30
0
 40
48.50000000000013
 50
97.10634339789101
 51
202.8936566021087
  0
CIRCLE
  8
1
 62
3
 10
310
 20
230
 30
0
 40
70.5
  0
CIRCLE
  8
1
 62
7
 10
438.7628573872433
 20
268.9999999999999
 30
0
 40
3.500000000000114
  0
CIRCLE
  8
1
 62
7
 10
310
 20
230
 30
0
 40
67
  0
CIRCLE
  8
1
 62
7
 10
310
 20
230
 30
0
 40
69.5
  0
CIRCLE
  8
1
 62
7
 10
310
 20
230
 30
0
 40
76.19999999999999
  0
ARC
  8
1
 62
3
  6
DIVIDE
 10
556.7628573872432
 20
162.5
 30
0
 40
2.5
 50
270
 51
0
  0
ARC
  8
1
 62
3
  6
DIVIDE
 10
556.7628573872432
 20
297.5
 30
0
 40
2.5
 50
0
 51
90
  0
ARC
  8
1
 62
7
 10
538.7628573872432
 20
162.5
 30
0
 40
2.5
 50
270
 51
0
  0
ARC
  8
1
 62
7
 10
538.7628573872432
 20
297.5
 30
0
 40
2.5
 50
0
 51
90
  0
TEXT
  8
1
 62
3
 10
571.75
 20
123
 30
0
 40
5
  1
 
 41
0.9
  7
SIMPLEX
 72
1
 11
574
 21
123
 31
0
  0
TEXT
  8
1
 62
7
 10
284.690766902119
 20
329.901160443995
 30
0
 40
6
  1
DS 554 MG
 41
0.9
  7
SIMPLEX
 72
1
 11
308.990766902119
 21
329.901160443995
 31
0
  0
ENDSEC
  0
EOF
