  0
SECTION
  2
HEADER
  9
$ACADVER
  1
AC1009
  9
$INSBASE
 10
0
 20
0
  9
$EXTMIN
 10
-43.51390412270069
 20
12.05375951576865
  9
$EXTMAX
 10
212.7973780618864
 20
124.5000918466066
  9
$LIMMIN
 10
-43.51390412270069
 20
12.05375951576865
  9
$LIMMAX
 10
212.7973780618864
 20
124.5000918466066
  9
$VIEWCTR
 10
10
 20
10
  9
$VIEWSIZE
 40
10
  9
$SNAPMODE
 70
0
  9
$SNAPUNIT
 10
1
 20
1
  9
$SNAPBASE
 10
0
 20
0
  9
$SNAPANG
 50
0
  9
$SNAPSTYLE
 70
0
  9
$SNAPISOPAIR
 70
0
  9
$GRIDMODE
 70
0
  9
$GRIDUNIT
 10
0
 20
0
  9
$ORTHOMODE
 70
0
  9
$REGENMODE
 70
1
  9
$FILLMODE
 70
1
  9
$QTEXTMODE
 70
0
  9
$DRAGMODE
 70
2
  9
$LTSCALE
 40
1
  9
$OSMODE
 70
0
  9
$ATTMODE
 70
1
  9
$TEXTSIZE
 40
3.5
  9
$TRACEWID
 40
0.5
  9
$TEXTSTYLE
  7
STANDARD
  9
$CLAYER
  8
0
  9
$CELTYPE
  6
BYLAYER
  9
$CECOLOR
 62
256
  9
$DIMSCALE
 40
1
  9
$DIMASZ
 40
0.18
  9
$DIMEXO
 40
0.0625
  9
$DIMDLI
 40
0.38
  9
$DIMRND
 40
0
  9
$DIMDLE
 40
0
  9
$DIMEXE
 40
0.18
  9
$DIMTP
 40
0
  9
$DIMTM
 40
0
  9
$DIMTXT
 40
0.18
  9
$DIMCEN
 40
0.09
  9
$DIMTSZ
 40
0
  9
$DIMTOL
 70
0
  9
$DIMLIM
 70
0
  9
$DIMTIH
 70
1
  9
$DIMTOH
 70
1
  9
$DIMSE1
 70
0
  9
$DIMSE2
 70
0
  9
$DIMTAD
 70
0
  9
$DIMZIN
 70
0
  9
$DIMBLK
  1

  9
$DIMASO
 70
1
  9
$DIMSHO
 70
1
  9
$DIMPOST
  1

  9
$DIMAPOST
  1

  9
$DIMALT
 70
0
  9
$DIMALTD
 70
2
  9
$DIMALTF
 40
25.4
  9
$DIMLFAC
 40
1
  9
$DIMTOFL
 70
0
  9
$DIMTVP
 40
0
  9
$DIMTIX
 70
0
  9
$DIMSOXD
 70
0
  9
$DIMSAH
 70
0
  9
$DIMBLK1
  1

  9
$DIMBLK2
  1

  9
$DIMSTYLE
  2
*UNNAMED
  9
$DIMCLRD
 70
0
  9
$DIMCLRE
 70
0
  9
$DIMCLRT
 70
0
  9
$DIMTFAC
 40
1
  9
$DIMGAP
 40
0.09
  9
$LUNITS
 70
2
  9
$LUPREC
 70
4
  9
$AXISMODE
 70
0
  9
$AXISUNIT
 10
0
 20
0
  9
$SKETCHINC
 40
0.1
  9
$FILLETRAD
 40
2
  9
$AUNITS
 70
0
  9
$AUPREC
 70
0
  9
$MENU
  1
ACAD
  9
$ELEVATION
 40
0
  9
$THICKNESS
 40
0
  9
$VIEWDIR
 10
0
 20
0
 30
1
  9
$LIMCHECK
 70
0
  9
$BLIPMODE
 70
1
  9
$CHAMFERA
 40
0
  9
$CHAMFERB
 40
0
  9
$FASTZOOM
 70
1
  9
$SKPOLY
 70
0
  9
$ANGBASE
 50
0
  9
$ANGDIR
 70
0
  9
$PDMODE
 70
0
  9
$PDSIZE
 40
0
  9
$PLINEWID
 40
0
  9
$COORDS
 70
2
  0
ENDSEC
  0
SECTION
  2
TABLES
  0
TABLE
  2
DIMSTYLE
 70
0
  0
ENDTAB
  0
TABLE
  2
LTYPE
 70
9
  0
LTYPE
  2
CONTINUOUS
 70
64
  3
Solid line
 72
65
 73
0
 40
0
  0
LTYPE
  2
BORDER
 70
64
  3
__ __ . __ __ .
 72
65
 73
6
 40
11.80380904797441
 49
3.37251687084983
 49
-1.686258435424915
 49
3.37251687084983
 49
-1.686258435424915
 49
0
 49
-1.686258435424915
  0
LTYPE
  2
CENTER
 70
64
  3
____ _ ____ _
 72
65
 73
4
 40
13.49006748339932
 49
8.431292177124576
 49
-1.686258435424915
 49
1.686258435424915
 49
-1.686258435424915
  0
LTYPE
  2
DASHDOT
 70
64
  3
__ . __ . __ .
 72
65
 73
4
 40
6.74503374169966
 49
3.37251687084983
 49
-1.686258435424915
 49
0
 49
-1.686258435424915
  0
LTYPE
  2
DASHED
 70
64
  3
__ __ __ __ __
 72
65
 73
2
 40
5.058775306274745
 49
3.37251687084983
 49
-1.686258435424915
  0
LTYPE
  2
DIVIDE
 70
64
  3
__ . . __ . . 
 72
65
 73
6
 40
8.431292177124576
 49
3.37251687084983
 49
-1.686258435424915
 49
0
 49
-1.686258435424915
 49
0
 49
-1.686258435424915
  0
LTYPE
  2
DOT
 70
64
  3
..............
 72
65
 73
4
 40
3.37251687084983
 49
0
 49
-1.686258435424915
 49
0
 49
-1.686258435424915
  0
LTYPE
  2
HIDDEN
 70
64
  3
_ _ _ _ _ _ _
 72
65
 73
2
 40
2.529387653137373
 49
1.686258435424915
 49
-0.8431292177124575
  0
LTYPE
  2
PHANTOM
 70
64
  3
_____ _ _ _____ _ _ 
 72
65
 73
6
 40
16.86258435424915
 49
8.431292177124576
 49
-1.686258435424915
 49
1.686258435424915
 49
-1.686258435424915
 49
1.686258435424915
 49
-1.686258435424915
  0
ENDTAB
  0
TABLE
  2
LAYER
 70
3
  0
LAYER
  2
1
 70
0
 62
7
  6
CONTINUOUS
  0
LAYER
  2
0
 70
0
 62
7
  6
CONTINUOUS
  0
ENDTAB
  0
TABLE
  2
STYLE
 70
4
  0
STYLE
  2
STANDARD
 70
0
 40
0
 41
1
 50
0
 71
0
 42
3.5
  3
txt
  4

  0
STYLE
  2
SIMPLEX
 70
0
 40
0
 41
1
 50
0
 71
0
 42
3.5
  3
simplex
  4

  0
STYLE
  2
COMPLEX
 70
0
 40
0
 41
1
 50
0
 71
0
 42
3.5
  3
complex
  4

  0
STYLE
  2
ITALIC
 70
0
 40
0
 41
1
 50
0
 71
0
 42
3.5
  3
italic
  4

  0
ENDTAB
  0
TABLE
  2
VIEW
 70
0
  0
ENDTAB
  0
ENDSEC
  0
SECTION
  2
BLOCKS
  0
ENDSEC
  0
SECTION
  2
ENTITIES
  0
LINE
  8
1
 62
3
  6
DASHDOT
 10
155.7973780618863
 20
28.05375951576865
 30
0
 11
155.7973780618863
 21
12.05375951576865
 31
0
  0
LINE
  8
1
 62
3
  6
DASHDOT
 10
134.7973780618863
 20
28.05375951576865
 30
0
 11
134.7973780618863
 21
12.05375951576865
 31
0
  0
LINE
  8
1
 62
3
  6
DIVIDE
 10
165.7973780618863
 20
25.34838316634529
 30
0
 11
165.7973780618863
 21
15.34838316634527
 31
0
  0
LINE
  8
1
 62
3
  6
DIVIDE
 10
165.7973780618863
 20
15.34838316634527
 30
0
 11
164.2973780618863
 21
13.84838316634527
 31
0
  0
LINE
  8
1
 62
3
  6
DIVIDE
 10
164.2973780618863
 20
13.84838316634527
 30
0
 11
162.7973780618863
 21
13.84838316634527
 31
0
  0
LINE
  8
1
 62
3
  6
DIVIDE
 10
162.7973780618863
 20
13.84838316634527
 30
0
 11
161.7973780618863
 21
14.84838316634527
 31
0
  0
LINE
  8
1
 62
3
  6
DIVIDE
 10
161.7973780618863
 20
20.23884807815244
 30
0
 11
161.7973780618863
 21
14.84838316634527
 31
0
  0
LINE
  8
1
 62
3
  6
DIVIDE
 10
162.1973780618863
 20
19.74838316634528
 30
0
 11
161.7973780618863
 21
19.34838316634527
 31
0
  0
LINE
  8
1
 62
3
  6
DIVIDE
 10
162.1973780618863
 20
20.84838316634527
 30
0
 11
162.1973780618863
 21
19.74838316634528
 31
0
  0
LINE
  8
1
 62
3
  6
DIVIDE
 10
160.3973780618863
 20
21.24838316634528
 30
0
 11
159.9973780618863
 21
20.84838316634527
 31
0
  0
LINE
  8
1
 62
3
  6
DIVIDE
 10
160.3973780618863
 20
21.24838316634528
 30
0
 11
161.7973780618863
 21
21.24838316634528
 31
0
  0
LINE
  8
1
 62
3
  6
DIVIDE
 10
159.9973780618863
 20
20.84838316634527
 30
0
 11
151.5973780618864
 21
20.84838316634527
 31
0
  0
LINE
  8
1
 62
3
  6
DIVIDE
 10
151.5973780618864
 20
20.84838316634527
 30
0
 11
151.1973780618864
 21
21.24838316634528
 31
0
  0
LINE
  8
1
 62
3
  6
DIVIDE
 10
149.7973780618863
 20
21.24838316634528
 30
0
 11
151.1973780618864
 21
21.24838316634528
 31
0
  0
LINE
  8
1
 62
3
  6
DIVIDE
 10
149.7973780618863
 20
19.34838316634527
 30
0
 11
149.3973780618863
 21
19.74838316634528
 31
0
  0
LINE
  8
1
 62
3
  6
DIVIDE
 10
149.3973780618863
 20
19.74838316634528
 30
0
 11
149.3973780618863
 21
20.84838316634527
 31
0
  0
LINE
  8
1
 62
3
  6
DIVIDE
 10
149.7973780618863
 20
14.84838316634527
 30
0
 11
149.7973780618863
 21
20.23884807815244
 31
0
  0
LINE
  8
1
 62
3
  6
DIVIDE
 10
149.7973780618863
 20
14.84838316634527
 30
0
 11
148.7973780618863
 21
13.84838316634527
 31
0
  0
LINE
  8
1
 62
3
  6
DIVIDE
 10
148.7973780618863
 20
13.84838316634527
 30
0
 11
147.2973780618863
 21
13.84838316634527
 31
0
  0
LINE
  8
1
 62
3
  6
DIVIDE
 10
147.2973780618863
 20
13.84838316634527
 30
0
 11
145.7973780618863
 21
15.34838316634527
 31
0
  0
LINE
  8
1
 62
3
  6
DIVIDE
 10
145.7973780618863
 20
15.34838316634527
 30
0
 11
145.7973780618863
 21
25.34838316634529
 31
0
  0
LINE
  8
1
 62
3
  6
DIVIDE
 10
165.7973780618863
 20
90.34838316634527
 30
0
 11
165.7973780618863
 21
80.34838316634526
 31
0
  0
LINE
  8
1
 62
3
  6
DIVIDE
 10
164.2973780618863
 20
91.84838316634527
 30
0
 11
165.7973780618863
 21
90.34838316634527
 31
0
  0
LINE
  8
1
 62
3
  6
DIVIDE
 10
162.7973780618863
 20
91.84838316634527
 30
0
 11
164.2973780618863
 21
91.84838316634527
 31
0
  0
LINE
  8
1
 62
3
  6
DIVIDE
 10
161.7973780618863
 20
90.84838316634527
 30
0
 11
162.7973780618863
 21
91.84838316634527
 31
0
  0
LINE
  8
1
 62
3
  6
DIVIDE
 10
161.7973780618863
 20
86.34838316634527
 30
0
 11
162.1973780618863
 21
85.94838316634527
 31
0
  0
LINE
  8
1
 62
3
  6
DIVIDE
 10
162.1973780618863
 20
85.94838316634527
 30
0
 11
162.1973780618863
 21
84.84838316634527
 31
0
  0
LINE
  8
1
 62
3
  6
DIVIDE
 10
161.7973780618863
 20
90.84838316634527
 30
0
 11
161.7973780618863
 21
85.4579182545381
 31
0
  0
LINE
  8
1
 62
3
  6
DIVIDE
 10
159.9973780618863
 20
84.84838316634527
 30
0
 11
160.3973780618863
 21
84.44838316634527
 31
0
  0
LINE
  8
1
 62
3
  6
DIVIDE
 10
161.7973780618863
 20
84.44838316634527
 30
0
 11
160.3973780618863
 21
84.44838316634527
 31
0
  0
LINE
  8
1
 62
3
  6
DIVIDE
 10
151.5973780618864
 20
84.84838316634527
 30
0
 11
159.9973780618863
 21
84.84838316634527
 31
0
  0
LINE
  8
1
 62
3
  6
DIVIDE
 10
151.1973780618864
 20
84.44838316634527
 30
0
 11
151.5973780618864
 21
84.84838316634527
 31
0
  0
LINE
  8
1
 62
3
  6
DIVIDE
 10
151.1973780618864
 20
84.44838316634527
 30
0
 11
149.7973780618863
 21
84.44838316634527
 31
0
  0
LINE
  8
1
 62
3
  6
DIVIDE
 10
149.3973780618863
 20
85.94838316634527
 30
0
 11
149.7973780618863
 21
86.34838316634527
 31
0
  0
LINE
  8
1
 62
3
  6
DIVIDE
 10
149.3973780618863
 20
84.84838316634527
 30
0
 11
149.3973780618863
 21
85.94838316634527
 31
0
  0
LINE
  8
1
 62
3
  6
DIVIDE
 10
149.7973780618863
 20
85.4579182545381
 30
0
 11
149.7973780618863
 21
90.84838316634527
 31
0
  0
LINE
  8
1
 62
3
  6
DIVIDE
 10
148.7973780618863
 20
91.84838316634527
 30
0
 11
149.7973780618863
 21
90.84838316634527
 31
0
  0
LINE
  8
1
 62
3
  6
DIVIDE
 10
147.2973780618863
 20
91.84838316634527
 30
0
 11
148.7973780618863
 21
91.84838316634527
 31
0
  0
LINE
  8
1
 62
3
  6
DIVIDE
 10
145.7973780618863
 20
90.34838316634527
 30
0
 11
147.2973780618863
 21
91.84838316634527
 31
0
  0
LINE
  8
1
 62
3
  6
DIVIDE
 10
145.7973780618863
 20
80.34838316634526
 30
0
 11
145.7973780618863
 21
90.34838316634527
 31
0
  0
LINE
  8
1
 62
3
  6
DASHDOT
 10
155.7973780618863
 20
93.6430068169219
 30
0
 11
155.7973780618863
 21
77.6430068169219
 31
0
  0
LINE
  8
1
 62
3
  6
DASHDOT
 10
134.7973780618863
 20
93.6430068169219
 30
0
 11
134.7973780618863
 21
77.6430068169219
 31
0
  0
LINE
  8
1
 62
7
 10
143.2973780618863
 20
13.84838316634526
 30
0
 11
144.7973780618863
 21
15.34838316634526
 31
0
  0
LINE
  8
1
 62
7
 10
143.2973780618863
 20
91.84838316634527
 30
0
 11
144.7973780618863
 21
90.34838316634527
 31
0
  0
LINE
  8
1
 62
3
  6
DIVIDE
 10
-8.479439567996188
 20
30.84838316634527
 30
0
 11
-8.479439567996181
 21
39.93521159620032
 31
0
  0
LINE
  8
1
 62
3
  6
DIVIDE
 10
-5.479439567996188
 20
30.84838316634526
 30
0
 11
-5.479439567996188
 21
39.93521159620032
 31
0
  0
LINE
  8
1
 62
7
 10
157.0707119216913
 20
25.34838316634527
 30
0
 11
122.6283047739643
 21
25.34838316634527
 31
0
  0
LINE
  8
1
 62
7
 10
183.2973780618864
 20
27.59838316634527
 30
0
 11
202.6956836906776
 21
27.59838316634527
 31
0
  0
LINE
  8
1
 62
7
 10
209.3847417147611
 20
27.68574681922014
 30
0
 11
209.7973780618864
 21
28.09838316634527
 31
0
  0
LINE
  8
1
 62
3
  6
DASHDOT
 10
-6.979439567996186
 20
52.84838316634527
 30
0
 11
-4.479439567996186
 21
52.84838316634527
 31
0
  0
LINE
  8
1
 62
7
 10
19.83923355557489
 20
33.32316313481552
 30
0
 11
23.3392335555749
 21
39.38534096130658
 31
0
  0
LINE
  8
1
 62
7
 10
3.827928786878182
 20
42.56729425309973
 30
0
 11
19.83923355557489
 21
33.32316313481552
 31
0
  0
LINE
  8
1
 62
7
 10
7.327928786878175
 20
48.62947207959079
 30
0
 11
23.3392335555749
 21
39.38534096130658
 31
0
  0
LINE
  8
1
 62
7
 10
3.827928786878182
 20
42.56729425309973
 30
0
 11
7.327928786878175
 21
48.62947207959079
 31
0
  0
LINE
  8
1
 62
7
 10
7.760941488770399
 20
48.37947207959078
 30
0
 11
4.260941488770406
 21
42.31729425309972
 31
0
  0
LINE
  8
1
 62
7
 10
-37.29811269156728
 20
39.38534096130662
 30
0
 11
-33.79811269156729
 21
33.32316313481555
 31
0
  0
LINE
  8
1
 62
7
 10
-21.28680792287055
 20
48.6294720795908
 30
0
 11
-37.29811269156728
 21
39.38534096130662
 31
0
  0
LINE
  8
1
 62
7
 10
-21.28680792287055
 20
48.6294720795908
 30
0
 11
-17.78680792287055
 21
42.56729425309973
 31
0
  0
LINE
  8
1
 62
7
 10
-18.21982062476278
 20
42.31729425309973
 30
0
 11
-21.71982062476278
 21
48.3794720795908
 31
0
  0
LINE
  8
1
 62
7
 10
-17.78680792287055
 20
42.56729425309973
 30
0
 11
-33.79811269156729
 21
33.32316313481555
 31
0
  0
LINE
  8
1
 62
7
 10
-10.47943956799618
 20
67.84838316634527
 30
0
 11
-3.479439567996181
 21
67.84838316634527
 31
0
  0
LINE
  8
1
 62
7
 10
-3.479439567996181
 20
67.34838316634527
 30
0
 11
-10.47943956799618
 21
67.34838316634527
 31
0
  0
LINE
  8
1
 62
7
 10
-3.479439567996181
 20
85.83664540291366
 30
0
 11
-10.47943956799618
 21
85.83664540291366
 31
0
  0
LINE
  8
1
 62
7
 10
-10.47943956799618
 20
67.34838316634527
 30
0
 11
-10.47943956799618
 21
85.83664540291366
 31
0
  0
LINE
  8
1
 62
7
 10
-3.479439567996181
 20
67.34838316634527
 30
0
 11
-3.479439567996181
 21
85.83664540291366
 31
0
  0
LINE
  8
1
 62
3
  6
DIVIDE
 10
93.79737806188639
 20
39.84838316634526
 30
0
 11
93.79737806188639
 21
30.84838316634526
 31
0
  0
LINE
  8
1
 62
3
  6
DIVIDE
 10
96.79737806188639
 20
30.84838316634526
 30
0
 11
96.79737806188639
 21
39.84838316634526
 31
0
  0
LINE
  8
1
 62
3
  6
DIVIDE
 10
102.7973780618863
 20
39.84838316634526
 30
0
 11
102.7973780618863
 21
30.84838316634526
 31
0
  0
LINE
  8
1
 62
3
  6
DIVIDE
 10
105.7973780618863
 20
30.84838316634526
 30
0
 11
105.7973780618863
 21
39.84838316634526
 31
0
  0
LINE
  8
1
 62
3
  6
DIVIDE
 10
109.2973780618863
 20
39.84838316634526
 30
0
 11
90.29737806188639
 21
39.84838316634526
 31
0
  0
LINE
  8
1
 62
7
 10
124.2973780618863
 20
67.34838316634527
 30
0
 11
80.29737806188638
 21
67.34838316634527
 31
0
  0
LINE
  8
1
 62
7
 10
112.2973780618863
 20
30.84838316634526
 30
0
 11
80.79737806188638
 21
30.84838316634526
 31
0
  0
LINE
  8
1
 62
7
 10
110.2973780618864
 20
78.77520128744438
 30
0
 11
120.7973780618864
 21
78.77520128744438
 31
0
  0
LINE
  8
1
 62
7
 10
111.2973780618863
 20
78.09838316634526
 30
0
 11
112.2654894554849
 21
79.77520128744438
 31
0
  0
LINE
  8
1
 62
7
 10
112.2654894554849
 20
79.77520128744438
 30
0
 11
122.2973780618863
 21
79.77520128744438
 31
0
  0
LINE
  8
1
 62
7
 10
122.2973780618863
 20
79.77520128744438
 30
0
 11
122.6283047739643
 21
80.34838316634526
 31
0
  0
LINE
  8
1
 62
7
 10
80.29737806188638
 20
33.84838316634526
 30
0
 11
80.29737806188638
 21
71.84838316634527
 31
0
  0
LINE
  8
1
 62
7
 10
80.29737806188638
 20
71.84838316634527
 30
0
 11
80.79737806188638
 21
72.34838316634527
 31
0
  0
LINE
  8
1
 62
7
 10
80.79737806188638
 20
72.34838316634527
 30
0
 11
80.79737806188638
 21
77.59838316634526
 31
0
  0
LINE
  8
1
 62
7
 10
81.29737806188638
 20
78.09838316634526
 30
0
 11
81.54740427527702
 21
78.09838316634526
 31
0
  0
LINE
  8
1
 62
7
 10
122.6283047739643
 20
80.34838316634526
 30
0
 11
167.9664513498085
 21
80.34838316634524
 31
0
  0
LINE
  8
1
 62
7
 10
210.2973780618864
 20
40.34838316634526
 30
0
 11
166.2973780618864
 21
40.34838316634526
 31
0
  0
LINE
  8
1
 62
3
 10
121.7200277926967
 20
26.92156504524616
 30
0
 11
120.7973780618864
 21
26.92156504524616
 31
0
  0
LINE
  8
1
 62
3
 10
122.2973780618863
 20
25.92156504524616
 30
0
 11
121.7200277926967
 21
26.92156504524616
 31
0
  0
LINE
  8
1
 62
7
 10
112.2654894554849
 20
25.92156504524616
 30
0
 11
111.2973780618863
 21
27.59838316634526
 31
0
  0
LINE
  8
1
 62
7
 10
122.2973780618863
 20
25.92156504524616
 30
0
 11
112.2654894554849
 21
25.92156504524616
 31
0
  0
LINE
  8
1
 62
7
 10
122.6283047739643
 20
25.34838316634527
 30
0
 11
122.2973780618863
 21
25.92156504524616
 31
0
  0
LINE
  8
1
 62
7
 10
80.79737806188638
 20
33.34838316634526
 30
0
 11
80.29737806188638
 21
33.84838316634526
 31
0
  0
LINE
  8
1
 62
7
 10
80.79737806188638
 20
28.09838316634526
 30
0
 11
80.79737806188638
 21
33.34838316634526
 31
0
  0
LINE
  8
1
 62
7
 10
111.2973780618863
 20
27.59838316634526
 30
0
 11
110.2973780618864
 21
27.59838316634526
 31
0
  0
LINE
  8
1
 62
7
 10
167.9664513498085
 20
25.34838316634527
 30
0
 11
163.9926237503999
 21
25.34838316634527
 31
0
  0
LINE
  8
1
 62
3
 10
122.2973780618863
 20
79.77520128744438
 30
0
 11
121.7200277926967
 21
78.77520128744438
 31
0
  0
LINE
  8
1
 62
7
 10
81.29737806188638
 20
27.59838316634526
 30
0
 11
80.79737806188638
 21
28.09838316634526
 31
0
  0
LINE
  8
1
 62
7
 10
81.29737806188638
 20
78.09838316634526
 30
0
 11
80.79737806188638
 21
77.59838316634526
 31
0
  0
LINE
  8
1
 62
3
  6
DIVIDE
 10
90.29737806188639
 20
39.84838316634526
 30
0
 11
90.29737806188639
 21
65.84838316634527
 31
0
  0
LINE
  8
1
 62
3
  6
DIVIDE
 10
109.2973780618863
 20
65.84838316634527
 30
0
 11
109.2973780618863
 21
39.84838316634526
 31
0
  0
LINE
  8
1
 62
3
  6
DIVIDE
 10
90.29737806188639
 20
65.84838316634527
 30
0
 11
109.2973780618863
 21
65.84838316634527
 31
0
  0
LINE
  8
1
 62
7
 10
92.29737806188639
 20
87.34838316634527
 30
0
 11
89.79737806188639
 21
87.34838316634527
 31
0
  0
LINE
  8
1
 62
7
 10
90.29737806188639
 20
79.34838316634527
 30
0
 11
90.29737806188639
 21
78.09838316634526
 31
0
  0
LINE
  8
1
 62
7
 10
88.29737806188639
 20
85.84838316634527
 30
0
 11
88.29737806188639
 21
79.90638316634528
 31
0
  0
LINE
  8
1
 62
7
 10
88.29737806188639
 20
81.34838316634527
 30
0
 11
90.29737806188639
 21
79.34838316634527
 31
0
  0
LINE
  8
1
 62
7
 10
88.29737806188639
 20
85.84838316634527
 30
0
 11
89.79737806188639
 21
87.34838316634527
 31
0
  0
LINE
  8
1
 62
7
 10
92.29737806188639
 20
30.19838316634527
 30
0
 11
92.29737806188639
 21
14.34838316634527
 31
0
  0
LINE
  8
1
 62
7
 10
89.79737806188639
 20
18.34838316634525
 30
0
 11
92.29737806188639
 21
18.34838316634525
 31
0
  0
LINE
  8
1
 62
7
 10
90.29737806188639
 20
30.19838316634527
 30
0
 11
90.29737806188639
 21
26.34838316634525
 31
0
  0
LINE
  8
1
 62
7
 10
88.29737806188639
 20
25.79038316634524
 30
0
 11
88.29737806188639
 21
19.84838316634525
 31
0
  0
LINE
  8
1
 62
7
 10
90.29737806188639
 20
26.34838316634525
 30
0
 11
88.29737806188639
 21
24.34838316634525
 31
0
  0
LINE
  8
1
 62
7
 10
89.79737806188639
 20
18.34838316634525
 30
0
 11
88.29737806188639
 21
19.84838316634525
 31
0
  0
LINE
  8
1
 62
7
 10
90.29737806188639
 20
27.59838316634526
 30
0
 11
81.29737806188638
 21
27.59838316634526
 31
0
  0
LINE
  8
1
 62
7
 10
107.2973780618864
 20
91.34838316634527
 30
0
 11
92.29737806188639
 21
91.34838316634527
 31
0
  0
LINE
  8
1
 62
7
 10
92.29737806188639
 20
78.09838316634526
 30
0
 11
92.29737806188639
 21
91.34838316634527
 31
0
  0
LINE
  8
1
 62
7
 10
90.29737806188639
 20
78.19838316634527
 30
0
 11
107.2973780618864
 21
78.19838316634527
 31
0
  0
LINE
  8
1
 62
7
 10
107.2973780618864
 20
91.34838316634527
 30
0
 11
107.2973780618864
 21
77.34838316634527
 31
0
  0
LINE
  8
1
 62
3
 10
92.29737806188639
 20
91.34838316634527
 30
0
 11
107.2973780618864
 21
78.19838316634527
 31
0
  0
LINE
  8
1
 62
3
 10
107.2973780618864
 20
91.34838316634527
 30
0
 11
92.29737806188639
 21
78.19838316634527
 31
0
  0
LINE
  8
1
 62
7
 10
92.29737806188639
 20
14.34838316634527
 30
0
 11
107.2973780618864
 21
14.34838316634527
 31
0
  0
LINE
  8
1
 62
7
 10
107.2973780618864
 20
14.34838316634527
 30
0
 11
107.2973780618864
 21
30.34838316634527
 31
0
  0
LINE
  8
1
 62
7
 10
107.2973780618864
 20
30.19838316634527
 30
0
 11
90.29737806188639
 21
30.19838316634527
 31
0
  0
LINE
  8
1
 62
3
 10
92.29737806188639
 20
30.19838316634527
 30
0
 11
107.2973780618864
 21
14.34838316634527
 31
0
  0
LINE
  8
1
 62
3
 10
92.29737806188639
 20
14.34838316634527
 30
0
 11
107.2973780618864
 21
30.19838316634527
 31
0
  0
LINE
  8
1
 62
7
 10
110.2973780618864
 20
18.34838316634527
 30
0
 11
107.2973780618864
 21
18.34838316634527
 31
0
  0
LINE
  8
1
 62
7
 10
110.2973780618864
 20
18.34838316634527
 30
0
 11
110.2973780618864
 21
30.34838316634527
 31
0
  0
LINE
  8
1
 62
7
 10
110.2973780618864
 20
30.34838316634527
 30
0
 11
107.2973780618864
 21
30.34838316634527
 31
0
  0
LINE
  8
1
 62
7
 10
107.2973780618864
 20
87.34838316634527
 30
0
 11
110.2973780618864
 21
87.34838316634527
 31
0
  0
LINE
  8
1
 62
7
 10
110.2973780618864
 20
87.34838316634527
 30
0
 11
110.2973780618864
 21
85.84838316634527
 31
0
  0
LINE
  8
1
 62
7
 10
110.2973780618864
 20
77.34838316634527
 30
0
 11
107.2973780618864
 21
77.34838316634527
 31
0
  0
LINE
  8
1
 62
7
 10
110.2973780618864
 20
78.09838316634526
 30
0
 11
111.2973780618863
 21
78.09838316634526
 31
0
  0
LINE
  8
1
 62
7
 10
107.2973780618864
 20
86.09838316634527
 30
0
 11
110.2973780618864
 21
86.09838316634527
 31
0
  0
LINE
  8
1
 62
7
 10
110.2973780618864
 20
81.59838316634527
 30
0
 11
107.2973780618864
 21
81.59838316634527
 31
0
  0
LINE
  8
1
 62
7
 10
107.2973780618864
 20
24.09838316634527
 30
0
 11
110.2973780618864
 21
24.09838316634527
 31
0
  0
LINE
  8
1
 62
7
 10
110.2973780618864
 20
19.59838316634527
 30
0
 11
107.2973780618864
 21
19.59838316634527
 31
0
  0
LINE
  8
1
 62
7
 10
80.85571155256761
 20
73.60991590410336
 30
0
 11
82.34800485651321
 21
83.29356504556851
 31
0
  0
LINE
  8
1
 62
7
 10
86.03956471177729
 20
67.85425204806107
 30
0
 11
135.9808758946193
 21
70.27611854697062
 31
0
  0
LINE
  8
1
 62
7
 10
124.0226607264883
 20
73.60390553119957
 30
0
 11
92.5765141828517
 21
75.03206715238056
 31
0
  0
LINE
  8
1
 62
7
 10
88.19025443575919
 20
78.09838316634526
 30
0
 11
107.2973780618864
 21
78.09838316634526
 31
0
  0
LINE
  8
1
 62
7
 10
123.2973780618864
 20
80.84838316634527
 30
0
 11
120.7973780618864
 21
80.84838316634527
 31
0
  0
LINE
  8
1
 62
7
 10
120.7973780618864
 20
90.84838316634527
 30
0
 11
120.7973780618864
 21
78.77520128744438
 31
0
  0
LINE
  8
1
 62
3
 10
120.7973780618864
 20
78.77520128744438
 30
0
 11
121.7200277926967
 21
78.77520128744438
 31
0
  0
LINE
  8
1
 62
7
 10
110.2973780618864
 20
86.34838316634527
 30
0
 11
111.2973780618864
 21
87.34838316634527
 31
0
  0
LINE
  8
1
 62
7
 10
123.2973780618864
 20
85.84838316634527
 30
0
 11
123.2973780618864
 21
80.34838316634526
 31
0
  0
LINE
  8
1
 62
7
 10
123.2973780618864
 20
85.84838316634527
 30
0
 11
121.9973780618864
 21
87.14838316634527
 31
0
  0
LINE
  8
1
 62
3
 10
112.2654894554849
 20
79.77520128744438
 30
0
 11
110.2973780618864
 21
79.77520128744438
 31
0
  0
LINE
  8
1
 62
7
 10
110.2973780618864
 20
86.34838316634527
 30
0
 11
118.7973780618864
 21
86.34838316634527
 31
0
  0
LINE
  8
1
 62
7
 10
118.7973780618864
 20
86.34838316634527
 30
0
 11
118.7973780618864
 21
85.34838316634527
 31
0
  0
LINE
  8
1
 62
7
 10
118.7973780618864
 20
81.34838316634527
 30
0
 11
110.2973780618864
 21
81.34838316634527
 31
0
  0
LINE
  8
1
 62
7
 10
113.9973780618864
 20
85.34838316634527
 30
0
 11
120.7973780618864
 21
85.34838316634527
 31
0
  0
LINE
  8
1
 62
7
 10
113.9973780618864
 20
82.34838316634527
 30
0
 11
120.7973780618864
 21
82.34838316634527
 31
0
  0
LINE
  8
1
 62
7
 10
111.2973780618864
 20
18.34838316634526
 30
0
 11
121.7973780618864
 21
18.34838316634526
 31
0
  0
LINE
  8
1
 62
7
 10
111.2973780618864
 20
18.34838316634526
 30
0
 11
110.2973780618864
 21
19.34838316634526
 31
0
  0
LINE
  8
1
 62
7
 10
123.2973780618864
 20
25.34838316634527
 30
0
 11
123.2973780618864
 21
19.84838316634526
 31
0
  0
LINE
  8
1
 62
7
 10
121.7973780618864
 20
18.34838316634526
 30
0
 11
123.2973780618864
 21
19.84838316634526
 31
0
  0
LINE
  8
1
 62
7
 10
120.7973780618864
 20
24.84838316634526
 30
0
 11
123.2973780618864
 21
24.84838316634526
 31
0
  0
LINE
  8
1
 62
7
 10
120.7973780618864
 20
24.84838316634526
 30
0
 11
120.7973780618864
 21
26.92156504524616
 31
0
  0
LINE
  8
1
 62
3
 10
112.2654894554849
 20
25.92156504524616
 30
0
 11
110.2973780618864
 21
25.92156504524616
 31
0
  0
LINE
  8
1
 62
7
 10
120.7973780618864
 20
26.92156504524616
 30
0
 11
110.2973780618864
 21
26.92156504524616
 31
0
  0
LINE
  8
1
 62
7
 10
114.2973780618864
 20
18.34838316634526
 30
0
 11
114.2973780618864
 21
23.34838316634526
 31
0
  0
LINE
  8
1
 62
7
 10
114.2973780618864
 20
23.34838316634526
 30
0
 11
119.2973780618864
 21
23.34838316634526
 31
0
  0
LINE
  8
1
 62
7
 10
119.2973780618864
 20
23.34838316634526
 30
0
 11
119.2973780618864
 21
18.34838316634526
 31
0
  0
LINE
  8
1
 62
7
 10
114.2973780618864
 20
23.34838316634526
 30
0
 11
116.7973780618864
 21
24.79175883931932
 31
0
  0
LINE
  8
1
 62
7
 10
116.7973780618864
 20
24.79175883931932
 30
0
 11
119.2973780618864
 21
23.34838316634526
 31
0
  0
LINE
  8
1
 62
7
 10
118.7973780618864
 20
82.34838316634527
 30
0
 11
118.7973780618864
 21
81.34838316634527
 31
0
  0
LINE
  8
1
 62
7
 10
113.9973780618864
 20
86.34838316634527
 30
0
 11
113.9973780618864
 21
81.34838316634527
 31
0
  0
LINE
  8
1
 62
7
 10
110.4973780618864
 20
81.34838316634527
 30
0
 11
110.4973780618864
 21
86.34838316634527
 31
0
  0
LINE
  8
1
 62
7
 10
110.4973780618864
 20
85.84838316634527
 30
0
 11
107.9973780618864
 21
85.84838316634527
 31
0
  0
LINE
  8
1
 62
7
 10
107.9973780618864
 20
81.84838316634527
 30
0
 11
110.4973780618864
 21
81.84838316634527
 31
0
  0
LINE
  8
1
 62
7
 10
107.9973780618864
 20
85.84838316634527
 30
0
 11
107.9973780618864
 21
81.84838316634527
 31
0
  0
LINE
  8
1
 62
7
 10
110.2973780618864
 20
81.84838316634527
 30
0
 11
110.2973780618864
 21
77.34838316634527
 31
0
  0
LINE
  8
1
 62
7
 10
121.9973780618864
 20
90.84838316634527
 30
0
 11
121.9973780618864
 21
81.34838316634527
 31
0
  0
LINE
  8
1
 62
7
 10
121.9973780618864
 20
90.84838316634527
 30
0
 11
120.7973780618864
 21
90.84838316634527
 31
0
  0
LINE
  8
1
 62
7
 10
121.9973780618864
 20
81.34838316634527
 30
0
 11
120.7973780618864
 21
81.34838316634527
 31
0
  0
LINE
  8
1
 62
7
 10
120.7973780618864
 20
87.34838316634527
 30
0
 11
111.2973780618864
 21
87.34838316634527
 31
0
  0
LINE
  8
1
 62
7
 10
114.1723328831067
 20
85.76940692040844
 30
0
 11
114.1627641614235
 21
85.34838316634527
 31
0
  0
LINE
  8
1
 62
7
 10
114.9440401075583
 20
85.81132250425451
 30
0
 11
114.8412315013473
 21
85.34838316634527
 31
0
  0
LINE
  8
1
 62
7
 10
115.2857160162145
 20
85.73544382843605
 30
0
 11
115.1997583886593
 21
85.34838316634527
 31
0
  0
LINE
  8
1
 62
7
 10
116.6540401075583
 20
85.81132250425451
 30
0
 11
116.5512315013473
 21
85.34838316634527
 31
0
  0
LINE
  8
1
 62
7
 10
116.9957160162145
 20
85.73544382843605
 30
0
 11
116.9097583886593
 21
85.34838316634527
 31
0
  0
LINE
  8
1
 62
7
 10
118.3640401075583
 20
85.81132250425451
 30
0
 11
118.2612315013473
 21
85.34838316634527
 31
0
  0
LINE
  8
1
 62
7
 10
118.7057160162145
 20
85.73544382843605
 30
0
 11
118.6197583886593
 21
85.34838316634527
 31
0
  0
LINE
  8
1
 62
7
 10
118.709923240666
 20
85.7773594122821
 30
0
 11
118.7001737805311
 21
85.34838316634527
 31
0
  0
LINE
  8
1
 62
7
 10
118.6319919623493
 20
82.34838316634527
 30
0
 11
118.622423240666
 21
81.9273594122821
 31
0
  0
LINE
  8
1
 62
7
 10
117.9535246224255
 20
82.34838316634527
 30
0
 11
117.8507160162145
 21
81.88544382843605
 31
0
  0
LINE
  8
1
 62
7
 10
117.5949977351135
 20
82.34838316634527
 30
0
 11
117.5090401075583
 21
81.96132250425451
 31
0
  0
LINE
  8
1
 62
7
 10
116.2435246224255
 20
82.34838316634527
 30
0
 11
116.1407160162145
 21
81.88544382843605
 31
0
  0
LINE
  8
1
 62
7
 10
115.8849977351135
 20
82.34838316634527
 30
0
 11
115.7990401075583
 21
81.96132250425451
 31
0
  0
LINE
  8
1
 62
7
 10
114.5335246224255
 20
82.34838316634527
 30
0
 11
114.4307160162145
 21
81.88544382843605
 31
0
  0
LINE
  8
1
 62
7
 10
114.1749977351135
 20
82.34838316634527
 30
0
 11
114.0890401075583
 21
81.96132250425451
 31
0
  0
LINE
  8
1
 62
7
 10
114.0945823432417
 20
82.34838316634527
 30
0
 11
114.0848328831067
 21
81.91940692040845
 31
0
  0
LINE
  8
1
 62
7
 10
141.7973780618863
 20
91.84838316634527
 30
0
 11
143.2973780618863
 21
91.84838316634527
 31
0
  0
LINE
  8
1
 62
7
 10
130.5973780618864
 20
84.84838316634527
 30
0
 11
138.9973780618863
 21
84.84838316634527
 31
0
  0
LINE
  8
1
 62
7
 10
140.7973780618863
 20
90.84838316634527
 30
0
 11
140.7973780618863
 21
85.4579182545381
 31
0
  0
LINE
  8
1
 62
7
 10
144.7973780618863
 20
90.34838316634527
 30
0
 11
144.7973780618863
 21
80.34838316634526
 31
0
  0
LINE
  8
1
 62
7
 10
140.7973780618863
 20
90.84838316634527
 30
0
 11
141.7973780618863
 21
91.84838316634527
 31
0
  0
LINE
  8
1
 62
7
 10
138.9973780618863
 20
84.84838316634527
 30
0
 11
139.3973780618863
 21
84.44838316634527
 31
0
  0
LINE
  8
1
 62
7
 10
140.7973780618863
 20
86.34838316634527
 30
0
 11
141.1973780618863
 21
85.94838316634527
 31
0
  0
LINE
  8
1
 62
7
 10
141.1973780618863
 20
85.94838316634527
 30
0
 11
141.1973780618863
 21
84.84838316634527
 31
0
  0
LINE
  8
1
 62
7
 10
140.7973780618863
 20
84.44838316634527
 30
0
 11
139.3973780618863
 21
84.44838316634527
 31
0
  0
LINE
  8
1
 62
7
 10
126.2973780618863
 20
91.84838316634527
 30
0
 11
127.7973780618863
 21
91.84838316634527
 31
0
  0
LINE
  8
1
 62
7
 10
128.7973780618863
 20
85.4579182545381
 30
0
 11
128.7973780618863
 21
90.84838316634527
 31
0
  0
LINE
  8
1
 62
7
 10
124.7973780618863
 20
80.34838316634526
 30
0
 11
124.7973780618863
 21
90.34838316634527
 31
0
  0
LINE
  8
1
 62
7
 10
127.7973780618863
 20
91.84838316634527
 30
0
 11
128.7973780618863
 21
90.84838316634527
 31
0
  0
LINE
  8
1
 62
7
 10
130.1973780618864
 20
84.44838316634527
 30
0
 11
130.5973780618864
 21
84.84838316634527
 31
0
  0
LINE
  8
1
 62
7
 10
128.3973780618863
 20
85.94838316634527
 30
0
 11
128.7973780618863
 21
86.34838316634527
 31
0
  0
LINE
  8
1
 62
7
 10
128.3973780618863
 20
84.84838316634527
 30
0
 11
128.3973780618863
 21
85.94838316634527
 31
0
  0
LINE
  8
1
 62
7
 10
130.1973780618864
 20
84.44838316634527
 30
0
 11
128.7973780618863
 21
84.44838316634527
 31
0
  0
LINE
  8
1
 62
7
 10
124.7973780618863
 20
90.34838316634527
 30
0
 11
126.2973780618863
 21
91.84838316634527
 31
0
  0
LINE
  8
1
 62
7
 10
143.2973780618863
 20
13.84838316634526
 30
0
 11
141.7973780618863
 21
13.84838316634526
 31
0
  0
LINE
  8
1
 62
7
 10
138.9973780618863
 20
20.84838316634526
 30
0
 11
130.5973780618864
 21
20.84838316634526
 31
0
  0
LINE
  8
1
 62
7
 10
140.7973780618863
 20
20.23884807815243
 30
0
 11
140.7973780618863
 21
14.84838316634526
 31
0
  0
LINE
  8
1
 62
7
 10
144.7973780618863
 20
25.34838316634527
 30
0
 11
144.7973780618863
 21
15.34838316634526
 31
0
  0
LINE
  8
1
 62
7
 10
141.7973780618863
 20
13.84838316634526
 30
0
 11
140.7973780618863
 21
14.84838316634526
 31
0
  0
LINE
  8
1
 62
7
 10
139.3973780618863
 20
21.24838316634527
 30
0
 11
138.9973780618863
 21
20.84838316634526
 31
0
  0
LINE
  8
1
 62
7
 10
141.1973780618863
 20
19.74838316634527
 30
0
 11
140.7973780618863
 21
19.34838316634526
 31
0
  0
LINE
  8
1
 62
7
 10
141.1973780618863
 20
20.84838316634526
 30
0
 11
141.1973780618863
 21
19.74838316634527
 31
0
  0
LINE
  8
1
 62
7
 10
139.3973780618863
 20
21.24838316634527
 30
0
 11
140.7973780618863
 21
21.24838316634527
 31
0
  0
LINE
  8
1
 62
7
 10
127.7973780618863
 20
13.84838316634526
 30
0
 11
126.2973780618863
 21
13.84838316634526
 31
0
  0
LINE
  8
1
 62
7
 10
128.7973780618863
 20
14.84838316634526
 30
0
 11
128.7973780618863
 21
20.23884807815243
 31
0
  0
LINE
  8
1
 62
7
 10
124.7973780618863
 20
15.34838316634526
 30
0
 11
124.7973780618863
 21
25.34838316634527
 31
0
  0
LINE
  8
1
 62
7
 10
128.7973780618863
 20
14.84838316634526
 30
0
 11
127.7973780618863
 21
13.84838316634526
 31
0
  0
LINE
  8
1
 62
7
 10
130.5973780618864
 20
20.84838316634526
 30
0
 11
130.1973780618864
 21
21.24838316634527
 31
0
  0
LINE
  8
1
 62
7
 10
128.7973780618863
 20
19.34838316634526
 30
0
 11
128.3973780618863
 21
19.74838316634527
 31
0
  0
LINE
  8
1
 62
7
 10
128.3973780618863
 20
19.74838316634527
 30
0
 11
128.3973780618863
 21
20.84838316634526
 31
0
  0
LINE
  8
1
 62
7
 10
128.7973780618863
 20
21.24838316634527
 30
0
 11
130.1973780618864
 21
21.24838316634527
 31
0
  0
LINE
  8
1
 62
7
 10
126.2973780618863
 20
13.84838316634526
 30
0
 11
124.7973780618863
 21
15.34838316634526
 31
0
  0
LINE
  8
1
 62
3
  6
DIVIDE
 10
125.2973780618863
 20
82.84838316634526
 30
0
 11
125.2973780618863
 21
77.34838316634526
 31
0
  0
LINE
  8
1
 62
3
  6
DIVIDE
 10
125.2973780618863
 20
77.34838316634526
 30
0
 11
165.2973780618864
 21
77.34838316634526
 31
0
  0
LINE
  8
1
 62
3
  6
DIVIDE
 10
165.2973780618864
 20
77.34838316634526
 30
0
 11
165.2973780618864
 21
82.84838316634523
 31
0
  0
LINE
  8
1
 62
3
  6
DIVIDE
 10
165.2973780618864
 20
82.84838316634523
 30
0
 11
125.2973780618863
 21
82.84838316634526
 31
0
  0
LINE
  8
1
 62
3
  6
DASHDOT
 10
-6.979439567996186
 20
52.84838316634527
 30
0
 11
-6.979439567996186
 21
55.34838316634527
 31
0
  0
LINE
  8
1
 62
3
  6
DASHDOT
 10
-6.979439567996186
 20
52.84838316634527
 30
0
 11
-9.479439567996186
 21
52.84838316634527
 31
0
  0
LINE
  8
1
 62
3
  6
DASHDOT
 10
-6.979439567996186
 20
52.84838316634527
 30
0
 11
-6.979439567996186
 21
50.34838316634527
 31
0
  0
LINE
  8
1
 62
7
 10
0.7705604320038137
 20
86.97956392529353
 30
0
 11
0.7705604320038137
 21
90.56028447084064
 31
0
  0
LINE
  8
1
 62
7
 10
-14.72943956799619
 20
86.97956392529353
 30
0
 11
-14.72943956799619
 21
90.56028447084064
 31
0
  0
LINE
  8
1
 62
7
 10
-32.66290916640403
 20
76.6256704251488
 30
0
 11
-35.76390412270069
 21
78.41603069792235
 31
0
  0
LINE
  8
1
 62
7
 10
-40.41290916640403
 20
63.20227666649
 30
0
 11
-43.51390412270069
 21
64.99263693926356
 31
0
  0
LINE
  8
1
 62
7
 10
-40.41290916640403
 20
42.49448966620054
 30
0
 11
-43.51390412270069
 21
40.70412939342698
 31
0
  0
LINE
  8
1
 62
7
 10
-32.66290916640403
 20
29.07109590754174
 30
0
 11
-35.76390412270069
 21
27.28073563476819
 31
0
  0
LINE
  8
1
 62
7
 10
-14.72943956799619
 20
18.717202407397
 30
0
 11
-14.72943956799619
 21
15.13648186184989
 31
0
  0
LINE
  8
1
 62
7
 10
0.7705604320038137
 20
18.717202407397
 30
0
 11
0.7705604320038137
 21
15.13648186184989
 31
0
  0
LINE
  8
1
 62
7
 10
18.70403003041163
 20
29.07109590754173
 30
0
 11
21.80502498670832
 21
27.28073563476817
 31
0
  0
LINE
  8
1
 62
7
 10
26.45403003041165
 20
42.49448966620053
 30
0
 11
29.55502498670833
 21
40.70412939342697
 31
0
  0
LINE
  8
1
 62
7
 10
26.45403003041165
 20
63.20227666648998
 30
0
 11
29.55502498670833
 21
64.99263693926353
 31
0
  0
LINE
  8
1
 62
7
 10
18.70403003041167
 20
76.62567042514878
 30
0
 11
21.80502498670834
 21
78.41603069792234
 31
0
  0
LINE
  8
1
 62
7
 10
5.020560432003812
 20
49.34838316634527
 30
0
 11
8.520560432003812
 21
49.34838316634526
 31
0
  0
LINE
  8
1
 62
7
 10
8.520560432003812
 20
49.34838316634526
 30
0
 11
8.520560432003812
 21
56.34838316634527
 31
0
  0
LINE
  8
1
 62
7
 10
8.520560432003812
 20
56.34838316634527
 30
0
 11
5.020560432003812
 21
56.34838316634527
 31
0
  0
LINE
  8
1
 62
7
 10
-10.47943956799618
 20
30.84838316634526
 30
0
 11
-3.479439567996181
 21
30.84838316634526
 31
0
  0
LINE
  8
1
 62
7
 10
-3.479439567996181
 20
30.84838316634526
 30
0
 11
-3.479439567996188
 21
27.84213394740002
 31
0
  0
LINE
  8
1
 62
7
 10
13.82311931526148
 20
60.81729425309973
 30
0
 11
10.32311931526148
 21
66.8794720795908
 31
0
  0
LINE
  8
1
 62
7
 10
10.32311931526148
 20
66.8794720795908
 30
0
 11
12.92660750897517
 21
68.38259668906342
 31
0
  0
LINE
  8
1
 62
7
 10
-24.28199845125383
 20
66.87947207959081
 30
0
 11
-27.78199845125383
 21
60.81729425309974
 31
0
  0
LINE
  8
1
 62
7
 10
-27.78199845125383
 20
60.81729425309974
 30
0
 11
-30.38548664496754
 21
62.32041886257237
 31
0
  0
LINE
  8
1
 62
3
  6
DIVIDE
 10
3.453695055176334
 20
60.6040070570944
 30
0
 11
11.32311931526148
 21
65.14742127202193
 31
0
  0
LINE
  8
1
 62
3
  6
DIVIDE
 10
4.953695055176334
 20
58.00593084574109
 30
0
 11
12.82311931526148
 21
62.54934506066862
 31
0
  0
LINE
  8
1
 62
3
  6
DIVIDE
 10
-25.28199845125385
 20
65.14742127202193
 30
0
 11
-17.41257419116871
 21
60.6040070570944
 31
0
  0
LINE
  8
1
 62
3
  6
DIVIDE
 10
-26.78199845125384
 20
62.54934506066862
 30
0
 11
-18.91257419116871
 21
58.00593084574109
 31
0
  0
LINE
  8
1
 62
3
  6
DIVIDE
 10
196.7973780618864
 20
65.84838316634527
 30
0
 11
196.7973780618864
 21
74.84838316634527
 31
0
  0
LINE
  8
1
 62
3
  6
DIVIDE
 10
193.7973780618864
 20
74.84838316634527
 30
0
 11
193.7973780618864
 21
65.84838316634527
 31
0
  0
LINE
  8
1
 62
3
  6
DIVIDE
 10
187.7973780618865
 20
65.84838316634527
 30
0
 11
187.7973780618865
 21
74.84838316634527
 31
0
  0
LINE
  8
1
 62
3
  6
DIVIDE
 10
184.7973780618865
 20
74.84838316634527
 30
0
 11
184.7973780618865
 21
65.84838316634527
 31
0
  0
LINE
  8
1
 62
3
  6
DIVIDE
 10
200.2973780618864
 20
65.84838316634527
 30
0
 11
200.2973780618864
 21
39.84838316634526
 31
0
  0
LINE
  8
1
 62
3
  6
DIVIDE
 10
181.2973780618865
 20
65.84838316634527
 30
0
 11
200.2973780618864
 21
65.84838316634527
 31
0
  0
LINE
  8
1
 62
3
  6
DIVIDE
 10
181.2973780618865
 20
39.84838316634526
 30
0
 11
181.2973780618865
 21
65.84838316634527
 31
0
  0
LINE
  8
1
 62
7
 10
166.2973780618865
 20
38.34838316634526
 30
0
 11
210.2973780618864
 21
38.34838316634526
 31
0
  0
LINE
  8
1
 62
7
 10
178.2973780618865
 20
74.84838316634527
 30
0
 11
209.7973780618864
 21
74.84838316634527
 31
0
  0
LINE
  8
1
 62
7
 10
180.2973780618864
 20
26.92156504524616
 30
0
 11
169.7973780618864
 21
26.92156504524616
 31
0
  0
LINE
  8
1
 62
7
 10
179.2973780618865
 20
27.59838316634527
 30
0
 11
178.3292666682879
 21
25.92156504524616
 31
0
  0
LINE
  8
1
 62
7
 10
178.3292666682879
 20
25.92156504524616
 30
0
 11
168.2973780618865
 21
25.92156504524616
 31
0
  0
LINE
  8
1
 62
7
 10
168.2973780618865
 20
25.92156504524616
 30
0
 11
167.9664513498085
 21
25.34838316634527
 31
0
  0
LINE
  8
1
 62
7
 10
210.2973780618864
 20
33.84838316634526
 30
0
 11
209.7973780618864
 21
33.34838316634526
 31
0
  0
LINE
  8
1
 62
7
 10
209.7973780618864
 20
33.34838316634526
 30
0
 11
209.7973780618864
 21
28.09838316634527
 31
0
  0
LINE
  8
1
 62
3
 10
168.8747283310761
 20
78.77520128744438
 30
0
 11
169.7973780618864
 21
78.77520128744438
 31
0
  0
LINE
  8
1
 62
3
 10
168.2973780618865
 20
79.77520128744438
 30
0
 11
168.8747283310761
 21
78.77520128744438
 31
0
  0
LINE
  8
1
 62
7
 10
178.3292666682879
 20
79.77520128744438
 30
0
 11
179.2973780618865
 21
78.09838316634527
 31
0
  0
LINE
  8
1
 62
7
 10
168.2973780618865
 20
79.77520128744438
 30
0
 11
178.3292666682879
 21
79.77520128744438
 31
0
  0
LINE
  8
1
 62
7
 10
167.9664513498085
 20
80.34838316634524
 30
0
 11
168.2973780618865
 21
79.77520128744438
 31
0
  0
LINE
  8
1
 62
7
 10
210.2973780618864
 20
71.84838316634527
 30
0
 11
210.2973780618864
 21
33.84838316634526
 31
0
  0
LINE
  8
1
 62
7
 10
209.7973780618864
 20
72.34838316634527
 30
0
 11
210.2973780618864
 21
71.84838316634527
 31
0
  0
LINE
  8
1
 62
7
 10
209.7973780618864
 20
77.59838316634527
 30
0
 11
209.7973780618864
 21
72.34838316634527
 31
0
  0
LINE
  8
1
 62
7
 10
179.2973780618865
 20
78.09838316634527
 30
0
 11
180.2973780618864
 21
78.09838316634527
 31
0
  0
LINE
  8
1
 62
3
 10
168.2973780618865
 20
25.92156504524616
 30
0
 11
168.8747283310761
 21
26.92156504524616
 31
0
  0
LINE
  8
1
 62
7
 10
209.2973780618864
 20
78.09838316634527
 30
0
 11
209.7973780618864
 21
77.59838316634527
 31
0
  0
LINE
  8
1
 62
3
  6
DIVIDE
 10
200.2973780618864
 20
39.84838316634526
 30
0
 11
181.2973780618865
 21
39.84838316634526
 31
0
  0
LINE
  8
1
 62
7
 10
198.2973780618864
 20
18.34838316634526
 30
0
 11
200.7973780618864
 21
18.34838316634526
 31
0
  0
LINE
  8
1
 62
7
 10
200.2973780618864
 20
26.34838316634526
 30
0
 11
200.2973780618864
 21
27.59838316634527
 31
0
  0
LINE
  8
1
 62
7
 10
202.2973780618864
 20
19.84838316634526
 30
0
 11
202.2973780618864
 21
25.79038316634525
 31
0
  0
LINE
  8
1
 62
7
 10
202.2973780618864
 20
24.34838316634526
 30
0
 11
200.2973780618864
 21
26.34838316634526
 31
0
  0
LINE
  8
1
 62
7
 10
202.2973780618864
 20
19.84838316634526
 30
0
 11
200.7973780618864
 21
18.34838316634526
 31
0
  0
LINE
  8
1
 62
7
 10
198.2973780618864
 20
75.49838316634528
 30
0
 11
198.2973780618864
 21
91.34838316634524
 31
0
  0
LINE
  8
1
 62
7
 10
200.7973780618864
 20
87.34838316634527
 30
0
 11
198.2973780618864
 21
87.34838316634527
 31
0
  0
LINE
  8
1
 62
7
 10
200.2973780618864
 20
75.49838316634528
 30
0
 11
200.2973780618864
 21
79.34838316634527
 31
0
  0
LINE
  8
1
 62
7
 10
202.2973780618864
 20
79.90638316634529
 30
0
 11
202.2973780618864
 21
85.84838316634527
 31
0
  0
LINE
  8
1
 62
7
 10
200.2973780618864
 20
79.34838316634527
 30
0
 11
202.2973780618864
 21
81.34838316634527
 31
0
  0
LINE
  8
1
 62
7
 10
200.7973780618864
 20
87.34838316634527
 30
0
 11
202.2973780618864
 21
85.84838316634527
 31
0
  0
LINE
  8
1
 62
7
 10
200.2973780618864
 20
78.09838316634527
 30
0
 11
209.2973780618864
 21
78.09838316634527
 31
0
  0
LINE
  8
1
 62
7
 10
183.2973780618864
 20
14.34838316634526
 30
0
 11
198.2973780618864
 21
14.34838316634526
 31
0
  0
LINE
  8
1
 62
7
 10
198.2973780618864
 20
27.59838316634527
 30
0
 11
198.2973780618864
 21
14.34838316634526
 31
0
  0
LINE
  8
1
 62
7
 10
200.2973780618864
 20
27.49838316634526
 30
0
 11
183.2973780618864
 21
27.49838316634526
 31
0
  0
LINE
  8
1
 62
7
 10
183.2973780618864
 20
14.34838316634526
 30
0
 11
183.2973780618864
 21
28.34838316634526
 31
0
  0
LINE
  8
1
 62
3
 10
198.2973780618864
 20
14.34838316634526
 30
0
 11
183.2973780618864
 21
27.49838316634526
 31
0
  0
LINE
  8
1
 62
3
 10
183.2973780618864
 20
14.34838316634526
 30
0
 11
198.2973780618864
 21
27.49838316634526
 31
0
  0
LINE
  8
1
 62
7
 10
198.2973780618864
 20
91.34838316634524
 30
0
 11
183.2973780618864
 21
91.34838316634524
 31
0
  0
LINE
  8
1
 62
7
 10
183.2973780618864
 20
91.34838316634524
 30
0
 11
183.2973780618864
 21
75.34838316634524
 31
0
  0
LINE
  8
1
 62
7
 10
183.2973780618864
 20
75.49838316634528
 30
0
 11
200.2973780618864
 21
75.49838316634528
 31
0
  0
LINE
  8
1
 62
3
 10
198.2973780618864
 20
75.49838316634528
 30
0
 11
183.2973780618864
 21
91.34838316634524
 31
0
  0
LINE
  8
1
 62
3
 10
198.2973780618864
 20
91.34838316634524
 30
0
 11
183.2973780618864
 21
75.49838316634528
 31
0
  0
LINE
  8
1
 62
7
 10
180.2973780618864
 20
87.34838316634524
 30
0
 11
183.2973780618864
 21
87.34838316634524
 31
0
  0
LINE
  8
1
 62
7
 10
180.2973780618864
 20
87.34838316634524
 30
0
 11
180.2973780618864
 21
75.34838316634524
 31
0
  0
LINE
  8
1
 62
7
 10
180.2973780618864
 20
75.34838316634524
 30
0
 11
183.2973780618864
 21
75.34838316634524
 31
0
  0
LINE
  8
1
 62
7
 10
183.2973780618864
 20
18.34838316634526
 30
0
 11
180.2973780618864
 21
18.34838316634526
 31
0
  0
LINE
  8
1
 62
7
 10
180.2973780618864
 20
18.34838316634526
 30
0
 11
180.2973780618864
 21
19.84838316634526
 31
0
  0
LINE
  8
1
 62
7
 10
180.2973780618864
 20
28.34838316634526
 30
0
 11
183.2973780618864
 21
28.34838316634526
 31
0
  0
LINE
  8
1
 62
7
 10
180.2973780618864
 20
27.59838316634527
 30
0
 11
179.2973780618865
 21
27.59838316634527
 31
0
  0
LINE
  8
1
 62
7
 10
183.2973780618864
 20
19.59838316634526
 30
0
 11
180.2973780618864
 21
19.59838316634526
 31
0
  0
LINE
  8
1
 62
7
 10
180.2973780618864
 20
24.09838316634526
 30
0
 11
183.2973780618864
 21
24.09838316634526
 31
0
  0
LINE
  8
1
 62
7
 10
183.2973780618864
 20
81.59838316634524
 30
0
 11
180.2973780618864
 21
81.59838316634524
 31
0
  0
LINE
  8
1
 62
7
 10
180.2973780618864
 20
86.09838316634524
 30
0
 11
183.2973780618864
 21
86.09838316634524
 31
0
  0
LINE
  8
1
 62
7
 10
209.7801287583825
 20
32.43341871417137
 30
0
 11
208.9669678230067
 21
22.6692613366411
 31
0
  0
LINE
  8
1
 62
7
 10
204.207408390275
 20
37.81345474554518
 30
0
 11
154.5566925982759
 21
31.91375802943129
 31
0
  0
LINE
  8
1
 62
7
 10
166.7179128406665
 20
29.42824028944425
 30
0
 11
198.1870816704309
 21
30.19712989391841
 31
0
  0
LINE
  8
1
 62
7
 10
167.2973780618864
 20
24.84838316634526
 30
0
 11
169.7973780618864
 21
24.84838316634526
 31
0
  0
LINE
  8
1
 62
7
 10
169.7973780618864
 20
14.84838316634526
 30
0
 11
169.7973780618864
 21
26.92156504524616
 31
0
  0
LINE
  8
1
 62
3
 10
169.7973780618864
 20
26.92156504524616
 30
0
 11
168.8747283310761
 21
26.92156504524616
 31
0
  0
LINE
  8
1
 62
7
 10
180.2973780618864
 20
19.34838316634526
 30
0
 11
179.2973780618864
 21
18.34838316634526
 31
0
  0
LINE
  8
1
 62
7
 10
167.2973780618864
 20
19.84838316634526
 30
0
 11
167.2973780618864
 21
25.34838316634527
 31
0
  0
LINE
  8
1
 62
7
 10
167.2973780618864
 20
19.84838316634526
 30
0
 11
168.5973780618864
 21
18.54838316634526
 31
0
  0
LINE
  8
1
 62
3
 10
178.3292666682879
 20
25.92156504524616
 30
0
 11
180.2973780618864
 21
25.92156504524616
 31
0
  0
LINE
  8
1
 62
7
 10
180.2973780618864
 20
19.34838316634526
 30
0
 11
171.7973780618864
 21
19.34838316634526
 31
0
  0
LINE
  8
1
 62
7
 10
171.7973780618864
 20
19.34838316634526
 30
0
 11
171.7973780618864
 21
20.34838316634526
 31
0
  0
LINE
  8
1
 62
7
 10
171.7973780618864
 20
24.34838316634526
 30
0
 11
180.2973780618864
 21
24.34838316634526
 31
0
  0
LINE
  8
1
 62
7
 10
176.5973780618864
 20
20.34838316634526
 30
0
 11
169.7973780618864
 21
20.34838316634526
 31
0
  0
LINE
  8
1
 62
7
 10
176.5973780618864
 20
23.34838316634526
 30
0
 11
169.7973780618864
 21
23.34838316634526
 31
0
  0
LINE
  8
1
 62
7
 10
179.2973780618864
 20
87.34838316634527
 30
0
 11
168.7973780618864
 21
87.34838316634527
 31
0
  0
LINE
  8
1
 62
7
 10
179.2973780618864
 20
87.34838316634527
 30
0
 11
180.2973780618864
 21
86.34838316634527
 31
0
  0
LINE
  8
1
 62
7
 10
167.2973780618864
 20
80.34838316634524
 30
0
 11
167.2973780618864
 21
85.84838316634527
 31
0
  0
LINE
  8
1
 62
7
 10
168.7973780618864
 20
87.34838316634527
 30
0
 11
167.2973780618864
 21
85.84838316634527
 31
0
  0
LINE
  8
1
 62
7
 10
169.7973780618864
 20
80.84838316634527
 30
0
 11
167.2973780618864
 21
80.84838316634527
 31
0
  0
LINE
  8
1
 62
7
 10
169.7973780618864
 20
80.84838316634527
 30
0
 11
169.7973780618864
 21
78.77520128744438
 31
0
  0
LINE
  8
1
 62
3
 10
178.3292666682879
 20
79.77520128744438
 30
0
 11
180.2973780618864
 21
79.77520128744438
 31
0
  0
LINE
  8
1
 62
7
 10
169.7973780618864
 20
78.77520128744438
 30
0
 11
180.2973780618864
 21
78.77520128744438
 31
0
  0
LINE
  8
1
 62
7
 10
176.2973780618864
 20
87.34838316634527
 30
0
 11
176.2973780618864
 21
82.34838316634527
 31
0
  0
LINE
  8
1
 62
7
 10
176.2973780618864
 20
82.34838316634527
 30
0
 11
171.2973780618864
 21
82.34838316634527
 31
0
  0
LINE
  8
1
 62
7
 10
171.2973780618864
 20
82.34838316634527
 30
0
 11
171.2973780618864
 21
87.34838316634527
 31
0
  0
LINE
  8
1
 62
7
 10
176.2973780618864
 20
82.34838316634527
 30
0
 11
173.7973780618864
 21
80.9050074933712
 31
0
  0
LINE
  8
1
 62
7
 10
173.7973780618864
 20
80.9050074933712
 30
0
 11
171.2973780618864
 21
82.34838316634527
 31
0
  0
LINE
  8
1
 62
7
 10
171.7973780618864
 20
23.34838316634526
 30
0
 11
171.7973780618864
 21
24.34838316634526
 31
0
  0
LINE
  8
1
 62
7
 10
176.5973780618864
 20
19.34838316634526
 30
0
 11
176.5973780618864
 21
24.34838316634526
 31
0
  0
LINE
  8
1
 62
7
 10
180.0973780618864
 20
24.34838316634526
 30
0
 11
180.0973780618864
 21
19.34838316634526
 31
0
  0
LINE
  8
1
 62
7
 10
180.0973780618864
 20
19.84838316634526
 30
0
 11
182.5973780618864
 21
19.84838316634526
 31
0
  0
LINE
  8
1
 62
7
 10
182.5973780618864
 20
23.84838316634526
 30
0
 11
180.0973780618864
 21
23.84838316634526
 31
0
  0
LINE
  8
1
 62
7
 10
182.5973780618864
 20
19.84838316634526
 30
0
 11
182.5973780618864
 21
23.84838316634526
 31
0
  0
LINE
  8
1
 62
7
 10
180.2973780618864
 20
23.84838316634526
 30
0
 11
180.2973780618864
 21
28.34838316634526
 31
0
  0
LINE
  8
1
 62
7
 10
168.5973780618864
 20
14.84838316634526
 30
0
 11
168.5973780618864
 21
24.34838316634526
 31
0
  0
LINE
  8
1
 62
7
 10
168.5973780618864
 20
14.84838316634526
 30
0
 11
169.7973780618864
 21
14.84838316634526
 31
0
  0
LINE
  8
1
 62
7
 10
168.5973780618864
 20
24.34838316634526
 30
0
 11
169.7973780618864
 21
24.34838316634526
 31
0
  0
LINE
  8
1
 62
7
 10
169.7973780618864
 20
18.34838316634526
 30
0
 11
179.2973780618864
 21
18.34838316634526
 31
0
  0
LINE
  8
1
 62
7
 10
176.4224232406661
 20
19.92735941228209
 30
0
 11
176.4319919623493
 21
20.34838316634526
 31
0
  0
LINE
  8
1
 62
7
 10
175.6507160162145
 20
19.88544382843602
 30
0
 11
175.7535246224255
 21
20.34838316634526
 31
0
  0
LINE
  8
1
 62
7
 10
175.3090401075583
 20
19.96132250425448
 30
0
 11
175.3949977351135
 21
20.34838316634526
 31
0
  0
LINE
  8
1
 62
7
 10
173.9407160162145
 20
19.88544382843602
 30
0
 11
174.0435246224255
 21
20.34838316634526
 31
0
  0
LINE
  8
1
 62
7
 10
173.5990401075583
 20
19.96132250425448
 30
0
 11
173.6849977351135
 21
20.34838316634526
 31
0
  0
LINE
  8
1
 62
7
 10
172.2307160162145
 20
19.88544382843602
 30
0
 11
172.3335246224255
 21
20.34838316634526
 31
0
  0
LINE
  8
1
 62
7
 10
171.8890401075583
 20
19.96132250425448
 30
0
 11
171.9749977351135
 21
20.34838316634526
 31
0
  0
LINE
  8
1
 62
7
 10
171.8848328831068
 20
19.91940692040843
 30
0
 11
171.8945823432417
 21
20.34838316634526
 31
0
  0
LINE
  8
1
 62
7
 10
171.9627641614235
 20
23.34838316634526
 30
0
 11
171.9723328831068
 21
23.76940692040843
 31
0
  0
LINE
  8
1
 62
7
 10
172.6412315013473
 20
23.34838316634526
 30
0
 11
172.7440401075583
 21
23.81132250425448
 31
0
  0
LINE
  8
1
 62
7
 10
172.9997583886593
 20
23.34838316634526
 30
0
 11
173.0857160162145
 21
23.73544382843602
 31
0
  0
LINE
  8
1
 62
7
 10
174.3512315013473
 20
23.34838316634526
 30
0
 11
174.4540401075583
 21
23.81132250425448
 31
0
  0
LINE
  8
1
 62
7
 10
174.7097583886593
 20
23.34838316634526
 30
0
 11
174.7957160162145
 21
23.73544382843602
 31
0
  0
LINE
  8
1
 62
7
 10
176.0612315013473
 20
23.34838316634526
 30
0
 11
176.1640401075583
 21
23.81132250425448
 31
0
  0
LINE
  8
1
 62
7
 10
176.4197583886593
 20
23.34838316634526
 30
0
 11
176.5057160162145
 21
23.73544382843602
 31
0
  0
LINE
  8
1
 62
7
 10
176.5001737805311
 20
23.34838316634526
 30
0
 11
176.5099232406661
 21
23.77735941228208
 31
0
  0
LINE
  8
1
 62
7
 10
80.29737806188638
 20
65.34838316634527
 30
0
 11
124.2973780618864
 21
65.34838316634527
 31
0
  0
LINE
  8
1
 62
7
 10
124.2973780618864
 20
39.84838316634527
 30
0
 11
124.2973780618864
 21
65.84838316634527
 31
0
  0
LINE
  8
1
 62
7
 10
124.2973780618864
 20
65.84838316634527
 30
0
 11
166.2973780618864
 21
65.84838316634527
 31
0
  0
LINE
  8
1
 62
7
 10
166.2973780618864
 20
65.84838316634527
 30
0
 11
166.2973780618864
 21
39.84838316634527
 31
0
  0
LINE
  8
1
 62
7
 10
166.2973780618864
 20
39.84838316634527
 30
0
 11
124.2973780618864
 21
39.84838316634527
 31
0
  0
LINE
  8
1
 62
7
 10
166.2973780618864
 20
65.34838316634527
 30
0
 11
210.2973780618864
 21
65.34838316634527
 31
0
  0
LINE
  8
1
 62
7
 10
124.2973780618864
 20
40.34838316634526
 30
0
 11
80.29737806188638
 21
40.34838316634526
 31
0
  0
LINE
  8
1
 62
7
 10
-3.729439567996187
 20
30.19838316634527
 30
0
 11
-3.729439567996187
 21
27.70757967878744
 31
0
  0
LINE
  8
1
 62
7
 10
-3.729439567996187
 20
30.19838316634527
 30
0
 11
-10.22943956799619
 21
30.19838316634527
 31
0
  0
LINE
  8
1
 62
7
 10
-10.22943956799619
 20
27.70757967878744
 30
0
 11
-10.22943956799619
 21
30.19838316634527
 31
0
  0
LINE
  8
1
 62
7
 10
-10.47943956799619
 20
27.84213394740002
 30
0
 11
-10.47943956799618
 21
30.84838316634526
 31
0
  0
LINE
  8
1
 62
7
 10
11.01103582772135
 20
66.9879657286447
 30
0
 11
13.16813492378131
 21
68.23336747242361
 31
0
  0
LINE
  8
1
 62
7
 10
-28.21991496371373
 20
61.35880060404586
 30
0
 11
-30.37701405977369
 21
62.60420234782478
 31
0
  0
LINE
  8
1
 62
7
 10
11.01103582772135
 20
66.9879657286447
 30
0
 11
14.26103582772135
 21
61.35880060404584
 31
0
  0
LINE
  8
1
 62
7
 10
-28.21991496371373
 20
61.35880060404586
 30
0
 11
-24.96991496371373
 21
66.98796572864471
 31
0
  0
LINE
  8
1
 62
7
 10
16.41813492378131
 20
62.60420234782476
 30
0
 11
14.26103582772135
 21
61.35880060404584
 31
0
  0
LINE
  8
1
 62
7
 10
-27.12701405977369
 20
68.23336747242362
 30
0
 11
-24.96991496371373
 21
66.98796572864471
 31
0
  0
LINE
  8
1
 62
7
 10
16.42660750897517
 20
62.32041886257235
 30
0
 11
13.82311931526148
 21
60.81729425309973
 31
0
  0
LINE
  8
1
 62
7
 10
-26.88548664496754
 20
68.38259668906342
 30
0
 11
-24.28199845125383
 21
66.87947207959081
 31
0
  0
LINE
  8
1
 62
3
  6
DASHDOT
 10
210.2973780618864
 20
52.84838316634527
 30
0
 11
212.7973780618864
 21
52.84838316634527
 31
0
  0
LINE
  8
1
 62
3
  6
DASHDOT
 10
80.29737806188638
 20
52.84838316634527
 30
0
 11
77.79737806188638
 21
52.84838316634527
 31
0
  0
ARC
  8
1
 62
7
 10
-6.979439567996186
 20
52.84838316634527
 30
0
 40
25.24999999999999
 50
157.9676443191758
 51
202.0323556808242
  0
ARC
  8
1
 62
7
 10
-6.979439567996186
 20
52.84838316634527
 30
0
 40
24.75
 50
158.129684778608
 51
201.870315221392
  0
ARC
  8
1
 62
7
 10
-6.979439567996186
 20
52.84838316634527
 30
0
 40
19.5
 50
100.3398908939275
 51
199.6601091060725
  0
ARC
  8
1
 62
7
 10
-6.979439567996186
 20
52.84838316634527
 30
0
 40
18.99999999999999
 50
100.6151078507079
 51
199.3848921492921
  0
ARC
  8
1
 62
7
 10
-6.979439567996186
 20
52.84838316634527
 30
0
 40
25.35
 50
277.3658858289646
 51
322.0639891920554
  0
ARC
  8
1
 62
7
 10
-6.979439567996186
 20
52.84838316634527
 30
0
 40
25.25
 50
277.9676443191758
 51
322.0323556808242
  0
ARC
  8
1
 62
7
 10
-6.979439567996186
 20
52.84838316634527
 30
0
 40
24.75
 50
278.129684778608
 51
321.8703152213919
  0
ARC
  8
1
 62
7
 10
-6.979439567996186
 20
52.84838316634527
 30
0
 40
19.50000000000001
 50
220.3398908939276
 51
319.6601091060724
  0
ARC
  8
1
 62
7
 10
-6.979439567996186
 20
52.84838316634527
 30
0
 40
19.00000000000001
 50
220.6151078507079
 51
319.3848921492921
  0
ARC
  8
1
 62
7
 10
-6.979439567996186
 20
52.84838316634527
 30
0
 40
33.00000000000001
 50
328.4717788349703
 51
331.5282211650288
  0
ARC
  8
1
 62
7
 10
-6.979439567996186
 20
52.84838316634527
 30
0
 40
33.00000000000001
 50
208.4717788349703
 51
211.5282211650297
  0
ARC
  8
1
 62
7
 10
-6.979439567996186
 20
52.84838316634527
 30
0
 40
25.24999999999999
 50
37.96764431917578
 51
82.0323556808242
  0
ARC
  8
1
 62
7
 10
-6.979439567996186
 20
52.84838316634527
 30
0
 40
24.74999999999999
 50
38.12968477860798
 51
81.87031522139196
  0
ARC
  8
1
 62
7
 10
-6.979439567996186
 20
52.84838316634527
 30
0
 40
19.50000000000001
 50
340.3398908939275
 51
0
  0
ARC
  8
1
 62
7
 10
-6.979439567996186
 20
52.84838316634527
 30
0
 40
19.50000000000001
 50
0
 51
79.66010910607244
  0
ARC
  8
1
 62
7
 10
-6.979439567996186
 20
52.84838316634527
 30
0
 40
19.00000000000001
 50
340.6151078507078
 51
0
  0
ARC
  8
1
 62
7
 10
-6.979439567996186
 20
52.84838316634527
 30
0
 40
19.00000000000001
 50
0
 51
79.38489214929204
  0
ARC
  8
1
 62
7
 10
-6.979439567996186
 20
52.84838316634527
 30
0
 40
33.00000000000001
 50
88.47177883497031
 51
91.52822116502969
  0
ARC
  8
1
 62
7
 10
-6.979439567996186
 20
52.84838316634527
 30
0
 40
33.00000000000001
 50
336.0882760441169
 51
83.91172395588302
  0
ARC
  8
1
 62
7
 10
124.2973780618863
 20
107.3483831663453
 30
0
 40
40.00000000000003
 50
270
 51
317.545849795599
  0
ARC
  8
1
 62
7
 10
112.2973780618863
 20
-9.151616833654771
 30
0
 40
40.00000000000006
 50
59.59845233675696
 51
90
  0
ARC
  8
1
 62
7
 10
85.31300476210448
 20
82.83664540291368
 30
0
 40
3.000000000000031
 50
339.438299686526
 51
171.2393818986123
  0
ARC
  8
1
 62
7
 10
85.79737806188639
 20
72.84838316634527
 30
0
 40
5.000000000000017
 50
171.239381898612
 51
272.7763409314269
  0
ARC
  8
1
 62
7
 10
92.80336089907989
 20
80.0269185583121
 30
0
 40
4.99999999999996
 50
159.438299686526
 51
267.3996355033764
  0
ARC
  8
1
 62
7
 10
135.9324385646412
 20
71.27494477062746
 30
0
 40
0.9999999999999902
 50
272.7763409314224
 51
13.33452818997348
  0
ARC
  8
1
 62
7
 10
125.2289978929504
 20
68.73794698040439
 30
0
 40
11.99999999999997
 50
13.33452818997274
 51
74.37951682166376
  0
ARC
  8
1
 62
7
 10
128.0562712892876
 20
78.85014383085999
 30
0
 40
1.499999999999988
 50
74.37951682166441
 51
209.9901126822354
  0
ARC
  8
1
 62
7
 10
124.1587687562252
 20
76.60081637475851
 30
0
 40
2.999999999999999
 50
267.3996355033766
 51
29.99011268223512
  0
ARC
  8
1
 62
7
 10
113.9973780618864
 20
85.77338316634527
 30
0
 40
0.1749999999999972
 50
270
 51
90
  0
ARC
  8
1
 62
7
 10
113.9098780618864
 20
81.92338316634528
 30
0
 40
0.1750000000000027
 50
299.9999999999963
 51
60.00000000000141
  0
ARC
  8
1
 62
7
 10
118.8848780618864
 20
85.77338316634527
 30
0
 40
0.1750000000000027
 50
119.9999999999963
 51
240.0000000000014
  0
ARC
  8
1
 62
7
 10
118.7973780618864
 20
81.92338316634528
 30
0
 40
0.1749999999999972
 50
90
 51
270
  0
ARC
  8
1
 62
7
 10
-6.979439567996186
 20
52.84838316634527
 30
0
 40
35
 50
42.79295372694816
 51
77.2070462730518
  0
ARC
  8
1
 62
7
 10
-6.979439567996186
 20
52.84838316634527
 30
0
 40
38.49999999999999
 50
78.3870861746495
 51
101.6129138253505
  0
ARC
  8
1
 62
7
 10
-6.979439567996186
 20
52.84838316634527
 30
0
 40
38.49999999999999
 50
138.3870861746495
 51
161.6129138253505
  0
ARC
  8
1
 62
7
 10
-6.979439567996186
 20
52.84838316634527
 30
0
 40
38.49999999999999
 50
198.3870861746495
 51
221.6129138253505
  0
ARC
  8
1
 62
7
 10
-6.979439567996186
 20
52.84838316634527
 30
0
 40
38.50000000000001
 50
258.3870861746495
 51
281.6129138253505
  0
ARC
  8
1
 62
7
 10
-6.979439567996186
 20
52.84838316634527
 30
0
 40
38.50000000000001
 50
318.3870861746495
 51
341.6129138253505
  0
ARC
  8
1
 62
7
 10
-6.979439567996186
 20
52.84838316634527
 30
0
 40
38.5
 50
18.38708617464945
 51
41.61291382535046
  0
ARC
  8
1
 62
7
 10
-6.979439567996186
 20
52.84838316634527
 30
0
 40
35.00000000000001
 50
342.7929537269482
 51
17.20704627305175
  0
ARC
  8
1
 62
7
 10
-6.979439567996186
 20
52.84838316634527
 30
0
 40
35.00000000000001
 50
282.7929537269482
 51
317.2070462730518
  0
ARC
  8
1
 62
7
 10
-6.979439567996186
 20
52.84838316634527
 30
0
 40
35.00000000000001
 50
222.7929537269482
 51
257.2070462730518
  0
ARC
  8
1
 62
7
 10
-6.979439567996186
 20
52.84838316634527
 30
0
 40
35.00000000000001
 50
162.7929537269482
 51
197.2070462730518
  0
ARC
  8
1
 62
7
 10
-6.979439567996186
 20
52.84838316634527
 30
0
 40
35
 50
102.7929537269482
 51
137.2070462730518
  0
ARC
  8
1
 62
7
 10
-6.979439567996186
 20
52.84838316634527
 30
0
 40
12.5
 50
16.26020470831196
 51
343.739795291688
  0
ARC
  8
1
 62
7
 10
-6.979439567996186
 20
52.84838316634527
 30
0
 40
24.74999999999999
 50
218.129684778608
 51
261.870315221392
  0
ARC
  8
1
 62
7
 10
-6.979439567996186
 20
52.84838316634527
 30
0
 40
25.25000000000001
 50
217.9676443191758
 51
262.0323556808242
  0
ARC
  8
1
 62
7
 10
-6.979439567996186
 20
52.84838316634527
 30
0
 40
24.74999999999999
 50
338.1296847786079
 51
21.87031522139198
  0
ARC
  8
1
 62
7
 10
-6.979439567996186
 20
52.84838316634527
 30
0
 40
25.25
 50
337.9676443191758
 51
22.0323556808242
  0
ARC
  8
1
 62
7
 10
-6.979439567996186
 20
52.84838316634527
 30
0
 40
25.24999999999998
 50
97.96764431917578
 51
142.0323556808242
  0
ARC
  8
1
 62
7
 10
-6.979439567996186
 20
52.84838316634527
 30
0
 40
24.74999999999999
 50
98.12968477860798
 51
141.870315221392
  0
ARC
  8
1
 62
7
 10
-6.979439567996186
 20
52.84838316634527
 30
0
 40
33
 50
96.08827604411698
 51
203.911723955883
  0
ARC
  8
1
 62
7
 10
-6.979439567996186
 20
52.84838316634527
 30
0
 40
33
 50
216.088276044117
 51
323.911723955883
  0
ARC
  8
1
 62
7
 10
166.2973780618865
 20
-1.651616833654771
 30
0
 40
40.00000000000003
 50
90
 51
137.545849795599
  0
ARC
  8
1
 62
7
 10
178.2973780618865
 20
114.8483831663453
 30
0
 40
40.00000000000006
 50
239.598452336757
 51
270
  0
ARC
  8
1
 62
7
 10
205.9773174051092
 20
22.91824000794543
 30
0
 40
3.000000000000108
 50
163.4382996865262
 51
355.2393818986118
  0
ARC
  8
1
 62
7
 10
204.7973780618864
 20
32.84838316634526
 30
0
 40
5.000000000000018
 50
355.239381898612
 51
96.77634093142784
  0
ARC
  8
1
 62
7
 10
198.3092107623558
 20
25.19862166796685
 30
0
 40
4.999999999999948
 50
343.4382996865261
 51
91.39963550337605
  0
ARC
  8
1
 62
7
 10
154.6746865325981
 20
30.92074371359129
 30
0
 40
1.000000000000006
 50
96.77634093142223
 51
197.3345281899735
  0
ARC
  8
1
 62
7
 10
165.1750821410231
 20
34.19819578289304
 30
0
 40
11.99999999999993
 50
197.3345281899727
 51
258.3795168216637
  0
ARC
  8
1
 62
7
 10
163.0600870346753
 20
23.91341111328886
 30
0
 40
1.499999999999979
 50
258.3795168216663
 51
33.99011268223336
  0
ARC
  8
1
 62
7
 10
166.7911902958215
 20
26.42913535387331
 30
0
 40
2.999999999999996
 50
91.39963550337757
 51
213.9901126822356
  0
ARC
  8
1
 62
7
 10
176.5973780618864
 20
19.92338316634526
 30
0
 40
0.1750000000000007
 50
90
 51
270
  0
ARC
  8
1
 62
7
 10
176.6848780618864
 20
23.77338316634526
 30
0
 40
0.1750000000000067
 50
120.0000000000009
 51
239.9999999999986
  0
ARC
  8
1
 62
7
 10
171.7098780618864
 20
19.92338316634526
 30
0
 40
0.1750000000000067
 50
300.0000000000009
 51
59.99999999999739
  0
ARC
  8
1
 62
7
 10
171.7973780618864
 20
23.77338316634526
 30
0
 40
0.1749999999999972
 50
270
 51
90
  0
ARC
  8
1
 62
7
 10
-6.979439567996186
 20
52.84838316634527
 30
0
 40
25.35000000000001
 50
217.9360108079445
 51
262.6341141710353
  0
ARC
  8
1
 62
7
 10
-6.979439567996186
 20
52.84838316634527
 30
0
 40
25.35
 50
37.36588582896466
 51
82.06398919205545
  0
ARC
  8
1
 62
7
 10
-6.979439567996186
 20
52.84838316634527
 30
0
 40
25.35000000000002
 50
157.3658858289647
 51
202.0639891920554
  0
ARC
  8
1
 62
7
 10
-6.979439567996186
 20
52.84838316634527
 30
0
 40
25.35
 50
337.9360108079446
 51
22.63411417103532
  0
ARC
  8
1
 62
7
 10
-6.979439567996186
 20
52.84838316634527
 30
0
 40
25.35000000000001
 50
97.93601080794456
 51
142.6341141710354
  0
ARC
  8
1
 62
7
 10
-6.979439567996186
 20
52.84838316634527
 30
0
 40
28.50000000000002
 50
217.054131382119
 51
322.945868617881
  0
ARC
  8
1
 62
7
 10
-6.979439567996186
 20
52.84838316634527
 30
0
 40
28.50000000000003
 50
337.0541313821189
 51
82.945868617881
  0
ARC
  8
1
 62
7
 10
-6.979439567996186
 20
52.84838316634527
 30
0
 40
28.50000000000001
 50
97.05413138211898
 51
202.945868617881
  0
ARC
  8
1
 62
7
 10
-6.979439567996186
 20
52.84838316634527
 30
0
 40
26.50000000000001
 50
97.589542391858
 51
202.410457608142
  0
ARC
  8
1
 62
7
 10
-6.979439567996186
 20
52.84838316634527
 30
0
 40
26.5
 50
337.589542391858
 51
82.41045760814198
  0
ARC
  8
1
 62
7
 10
-6.979439567996186
 20
52.84838316634527
 30
0
 40
26.5
 50
217.589542391858
 51
322.4104576081419
  0
CIRCLE
  8
1
 62
7
 10
85.79737806188639
 20
72.84838316634527
 30
0
 40
2.500000000000014
  0
CIRCLE
  8
1
 62
7
 10
115.1148780618864
 20
85.77338316634527
 30
0
 40
0.1749999999999972
  0
CIRCLE
  8
1
 62
7
 10
114.2598780618864
 20
81.92338316634528
 30
0
 40
0.1749999999999972
  0
CIRCLE
  8
1
 62
7
 10
116.8248780618864
 20
85.77338316634527
 30
0
 40
0.1750000000000114
  0
CIRCLE
  8
1
 62
7
 10
115.9698780618864
 20
81.92338316634528
 30
0
 40
0.1749999999999972
  0
CIRCLE
  8
1
 62
7
 10
118.5348780618864
 20
85.77338316634527
 30
0
 40
0.1749999999999972
  0
CIRCLE
  8
1
 62
7
 10
117.6798780618864
 20
81.92338316634528
 30
0
 40
0.1749999999999972
  0
CIRCLE
  8
1
 62
7
 10
-6.979439567996186
 20
52.84838316634527
 30
0
 40
34.50000000000003
  0
CIRCLE
  8
1
 62
7
 10
204.7973780618864
 20
32.84838316634526
 30
0
 40
2.5
  0
CIRCLE
  8
1
 62
7
 10
175.4798780618864
 20
19.92338316634526
 30
0
 40
0.1750000000000114
  0
CIRCLE
  8
1
 62
7
 10
176.3348780618864
 20
23.77338316634526
 30
0
 40
0.1750000000000114
  0
CIRCLE
  8
1
 62
7
 10
173.7698780618864
 20
19.92338316634526
 30
0
 40
0.1750000000000114
  0
CIRCLE
  8
1
 62
7
 10
174.6248780618864
 20
23.77338316634526
 30
0
 40
0.174999999999983
  0
CIRCLE
  8
1
 62
7
 10
172.0598780618864
 20
19.92338316634526
 30
0
 40
0.174999999999983
  0
CIRCLE
  8
1
 62
7
 10
172.9148780618864
 20
23.77338316634526
 30
0
 40
0.1750000000000114
  0
POLYLINE
  8
1
 62
7
 66
1
  0
VERTEX
  8
1
 10
121.9973780618864
 20
85.84838316634527
 30
0
 42
-0.04495552442227763
  0
VERTEX
  8
1
 10
122.0854039395147
 20
85.84042288917905
 30
0
 42
-0.08144996476117725
  0
VERTEX
  8
1
 10
122.2583803236916
 20
85.77901560097698
 30
0
 42
-0.06449854359131979
  0
VERTEX
  8
1
 10
122.4225499621173
 20
85.65866471148439
 30
0
 42
-0.04929519791635013
  0
VERTEX
  8
1
 10
122.5731785855851
 20
85.48364940804031
 30
0
 42
-0.03846121996637014
  0
VERTEX
  8
1
 10
122.7061221373848
 20
85.25940586415288
 30
0
 42
-0.03124869200542225
  0
VERTEX
  8
1
 10
122.8175731326253
 20
84.99264218204093
 30
0
 42
-0.02659601776273172
  0
VERTEX
  8
1
 10
122.9042379763046
 20
84.69134454189745
 30
0
 42
-0.02372723851272691
  0
VERTEX
  8
1
 10
122.9635142136878
 20
84.36457642509865
 30
0
 42
-0.02216973644538441
  0
VERTEX
  8
1
 10
122.99360887625
 20
84.02220008355849
 30
0
 42
-0.02167631093159349
  0
VERTEX
  8
1
 10
122.99360887625
 20
83.67456624913204
 30
0
 42
-0.02217073623683551
  0
VERTEX
  8
1
 10
122.9635142136878
 20
83.3321899075919
 30
0
 42
-0.02372970940456711
  0
VERTEX
  8
1
 10
122.9042379763046
 20
83.00542179079307
 30
0
 42
-0.02660129272427227
  0
VERTEX
  8
1
 10
122.8175731326253
 20
82.70412415064962
 30
0
 42
-0.0312601978623404
  0
VERTEX
  8
1
 10
122.7061221373848
 20
82.43736046853766
 30
0
 42
-0.03848783961140915
  0
VERTEX
  8
1
 10
122.5731785855851
 20
82.21311692465022
 30
0
 42
-0.0493593090656567
  0
VERTEX
  8
1
 10
122.4225499621173
 20
82.03810162120617
 30
0
 42
-0.06463874804284232
  0
VERTEX
  8
1
 10
122.2583803236917
 20
81.91775073171357
 30
0
 42
-0.08162025632262926
  0
VERTEX
  8
1
 10
122.0854039395147
 20
81.85634344351151
 30
0
  0
VERTEX
  8
1
 10
122.0413910006983
 20
81.85037323563643
 30
0
  0
VERTEX
  8
1
 10
121.9973780618864
 20
81.84838316634527
 30
0
  0
SEQEND
  8
1
  0
POLYLINE
  8
1
 62
7
 66
1
  0
VERTEX
  8
1
 10
168.5973780618864
 20
19.84838316634526
 30
0
 42
-0.0449555244222481
  0
VERTEX
  8
1
 10
168.5093521842581
 20
19.85634344351149
 30
0
 42
-0.0814499647612668
  0
VERTEX
  8
1
 10
168.3363758000812
 20
19.91775073171354
 30
0
 42
-0.06449854359143957
  0
VERTEX
  8
1
 10
168.1722061616555
 20
20.03810162120614
 30
0
 42
-0.04929519791622503
  0
VERTEX
  8
1
 10
168.0215775381877
 20
20.21311692465023
 30
0
 42
-0.03846121996639175
  0
VERTEX
  8
1
 10
167.888633986388
 20
20.43736046853766
 30
0
 42
-0.03124869200536056
  0
VERTEX
  8
1
 10
167.7771829911475
 20
20.7041241506496
 30
0
 42
-0.02659601776284714
  0
VERTEX
  8
1
 10
167.6905181474682
 20
21.00542179079307
 30
0
 42
-0.02372723851281445
  0
VERTEX
  8
1
 10
167.631241910085
 20
21.33218990759188
 30
0
 42
-0.02216973644534551
  0
VERTEX
  8
1
 10
167.6011472475228
 20
21.67456624913204
 30
0
 42
-0.0216763109318398
  0
VERTEX
  8
1
 10
167.6011472475228
 20
22.02220008355848
 30
0
 42
-0.02217073623675939
  0
VERTEX
  8
1
 10
167.631241910085
 20
22.36457642509862
 30
0
 42
-0.02372970940469126
  0
VERTEX
  8
1
 10
167.6905181474682
 20
22.69134454189747
 30
0
 42
-0.02660129272431012
  0
VERTEX
  8
1
 10
167.7771829911475
 20
22.99264218204092
 30
0
 42
-0.03126019786254464
  0
VERTEX
  8
1
 10
167.888633986388
 20
23.25940586415287
 30
0
 42
-0.03848783961128766
  0
VERTEX
  8
1
 10
168.0215775381877
 20
23.48364940804031
 30
0
 42
-0.04935930906557371
  0
VERTEX
  8
1
 10
168.1722061616555
 20
23.65866471148436
 30
0
 42
-0.0646387480427351
  0
VERTEX
  8
1
 10
168.3363758000811
 20
23.77901560097696
 30
0
 42
-0.08162025632259208
  0
VERTEX
  8
1
 10
168.5093521842581
 20
23.84042288917902
 30
0
  0
VERTEX
  8
1
 10
168.5533651230745
 20
23.8463930970541
 30
0
  0
VERTEX
  8
1
 10
168.5973780618864
 20
23.84838316634526
 30
0
  0
SEQEND
  8
1
  0
ARC
  8
1
 62
3
  6
DIVIDE
 10
161.7973780618863
 20
20.84838316634527
 30
0
 40
0.4000000000000057
 50
0
 51
90
  0
ARC
  8
1
 62
3
  6
DIVIDE
 10
149.7973780618863
 20
20.84838316634527
 30
0
 40
0.4000000000000128
 50
90
 51
180
  0
ARC
  8
1
 62
3
  6
DIVIDE
 10
161.7973780618863
 20
84.84838316634527
 30
0
 40
0.4000000000000057
 50
270
 51
0
  0
ARC
  8
1
 62
3
  6
DIVIDE
 10
149.7973780618863
 20
84.84838316634527
 30
0
 40
0.4000000000000057
 50
180
 51
270
  0
ARC
  8
1
 62
7
 10
140.7973780618863
 20
84.84838316634527
 30
0
 40
0.4000000000000057
 50
270
 51
0
  0
ARC
  8
1
 62
7
 10
128.7973780618863
 20
84.84838316634527
 30
0
 40
0.4000000000000057
 50
180
 51
270
  0
ARC
  8
1
 62
7
 10
140.7973780618863
 20
20.84838316634526
 30
0
 40
0.4000000000000057
 50
0
 51
90
  0
ARC
  8
1
 62
7
 10
128.7973780618863
 20
20.84838316634526
 30
0
 40
0.4000000000000092
 50
90
 51
180
  0
TEXT
  8
1
 62
7
 10
-35.57410761542774
 20
116.5000918466066
 30
0
 40
8
  1
OD 255
 41
0.9
  7
SIMPLEX
 72
1
 11
-13.97410761542773
 21
116.5000918466066
 31
0
  0
ENDSEC
  0
EOF
