  0
SECTION
  2
HEADER
  9
$ACADVER
  1
AC1009
  9
$INSBASE
 10
0
 20
0
  9
$EXTMIN
 10
-287.2760594480127
 20
-170.8413505865778
  9
$EXTMAX
 10
60.17866209904952
 20
2.230272120659066
  9
$LIMMIN
 10
-287.2760594480127
 20
-170.8413505865778
  9
$LIMMAX
 10
60.17866209904952
 20
2.230272120659066
  9
$VIEWCTR
 10
10
 20
10
  9
$VIEWSIZE
 40
10
  9
$SNAPMODE
 70
0
  9
$SNAPUNIT
 10
1
 20
1
  9
$SNAPBASE
 10
0
 20
0
  9
$SNAPANG
 50
0
  9
$SNAPSTYLE
 70
0
  9
$SNAPISOPAIR
 70
0
  9
$GRIDMODE
 70
0
  9
$GRIDUNIT
 10
0
 20
0
  9
$ORTHOMODE
 70
0
  9
$REGENMODE
 70
1
  9
$FILLMODE
 70
1
  9
$QTEXTMODE
 70
0
  9
$DRAGMODE
 70
2
  9
$LTSCALE
 40
1
  9
$OSMODE
 70
0
  9
$ATTMODE
 70
1
  9
$TEXTSIZE
 40
3.5
  9
$TRACEWID
 40
0.5
  9
$TEXTSTYLE
  7
STANDARD
  9
$CLAYER
  8
0
  9
$CELTYPE
  6
BYLAYER
  9
$CECOLOR
 62
256
  9
$DIMSCALE
 40
1
  9
$DIMASZ
 40
0.18
  9
$DIMEXO
 40
0.0625
  9
$DIMDLI
 40
0.38
  9
$DIMRND
 40
0
  9
$DIMDLE
 40
0
  9
$DIMEXE
 40
0.18
  9
$DIMTP
 40
0
  9
$DIMTM
 40
0
  9
$DIMTXT
 40
0.18
  9
$DIMCEN
 40
0.09
  9
$DIMTSZ
 40
0
  9
$DIMTOL
 70
0
  9
$DIMLIM
 70
0
  9
$DIMTIH
 70
1
  9
$DIMTOH
 70
1
  9
$DIMSE1
 70
0
  9
$DIMSE2
 70
0
  9
$DIMTAD
 70
0
  9
$DIMZIN
 70
0
  9
$DIMBLK
  1

  9
$DIMASO
 70
1
  9
$DIMSHO
 70
1
  9
$DIMPOST
  1

  9
$DIMAPOST
  1

  9
$DIMALT
 70
0
  9
$DIMALTD
 70
2
  9
$DIMALTF
 40
25.4
  9
$DIMLFAC
 40
1
  9
$DIMTOFL
 70
0
  9
$DIMTVP
 40
0
  9
$DIMTIX
 70
0
  9
$DIMSOXD
 70
0
  9
$DIMSAH
 70
0
  9
$DIMBLK1
  1

  9
$DIMBLK2
  1

  9
$DIMSTYLE
  2
*UNNAMED
  9
$DIMCLRD
 70
0
  9
$DIMCLRE
 70
0
  9
$DIMCLRT
 70
0
  9
$DIMTFAC
 40
1
  9
$DIMGAP
 40
0.09
  9
$LUNITS
 70
2
  9
$LUPREC
 70
4
  9
$AXISMODE
 70
0
  9
$AXISUNIT
 10
0
 20
0
  9
$SKETCHINC
 40
0.1
  9
$FILLETRAD
 40
2
  9
$AUNITS
 70
0
  9
$AUPREC
 70
0
  9
$MENU
  1
ACAD
  9
$ELEVATION
 40
0
  9
$THICKNESS
 40
0
  9
$VIEWDIR
 10
0
 20
0
 30
1
  9
$LIMCHECK
 70
0
  9
$BLIPMODE
 70
1
  9
$CHAMFERA
 40
0
  9
$CHAMFERB
 40
0
  9
$FASTZOOM
 70
1
  9
$SKPOLY
 70
0
  9
$ANGBASE
 50
0
  9
$ANGDIR
 70
0
  9
$PDMODE
 70
0
  9
$PDSIZE
 40
0
  9
$PLINEWID
 40
0
  9
$COORDS
 70
2
  0
ENDSEC
  0
SECTION
  2
TABLES
  0
TABLE
  2
DIMSTYLE
 70
0
  0
ENDTAB
  0
TABLE
  2
LTYPE
 70
9
  0
LTYPE
  2
CONTINUOUS
 70
64
  3
Solid line
 72
65
 73
0
 40
0
  0
LTYPE
  2
BORDER
 70
64
  3
__ __ . __ __ .
 72
65
 73
6
 40
16.0012042817726
 49
4.571772651935029
 49
-2.285886325967514
 49
4.571772651935029
 49
-2.285886325967514
 49
0
 49
-2.285886325967514
  0
LTYPE
  2
CENTER
 70
64
  3
____ _ ____ _
 72
65
 73
4
 40
18.28709060774012
 49
11.42943162983757
 49
-2.285886325967514
 49
2.285886325967514
 49
-2.285886325967514
  0
LTYPE
  2
DASHDOT
 70
64
  3
__ . __ . __ .
 72
65
 73
4
 40
9.143545303870058
 49
4.571772651935029
 49
-2.285886325967514
 49
0
 49
-2.285886325967514
  0
LTYPE
  2
DASHED
 70
64
  3
__ __ __ __ __
 72
65
 73
2
 40
6.857658977902544
 49
4.571772651935029
 49
-2.285886325967514
  0
LTYPE
  2
DIVIDE
 70
64
  3
__ . . __ . . 
 72
65
 73
6
 40
11.42943162983757
 49
4.571772651935029
 49
-2.285886325967514
 49
0
 49
-2.285886325967514
 49
0
 49
-2.285886325967514
  0
LTYPE
  2
DOT
 70
64
  3
..............
 72
65
 73
4
 40
4.571772651935029
 49
0
 49
-2.285886325967514
 49
0
 49
-2.285886325967514
  0
LTYPE
  2
HIDDEN
 70
64
  3
_ _ _ _ _ _ _
 72
65
 73
2
 40
3.428829488951272
 49
2.285886325967514
 49
-1.142943162983757
  0
LTYPE
  2
PHANTOM
 70
64
  3
_____ _ _ _____ _ _ 
 72
65
 73
6
 40
22.85886325967514
 49
11.42943162983757
 49
-2.285886325967514
 49
2.285886325967514
 49
-2.285886325967514
 49
2.285886325967514
 49
-2.285886325967514
  0
ENDTAB
  0
TABLE
  2
LAYER
 70
3
  0
LAYER
  2
1
 70
0
 62
7
  6
CONTINUOUS
  0
LAYER
  2
0
 70
0
 62
7
  6
CONTINUOUS
  0
ENDTAB
  0
TABLE
  2
STYLE
 70
4
  0
STYLE
  2
STANDARD
 70
0
 40
0
 41
1
 50
0
 71
0
 42
3.5
  3
txt
  4

  0
STYLE
  2
SIMPLEX
 70
0
 40
0
 41
1
 50
0
 71
0
 42
3.5
  3
simplex
  4

  0
STYLE
  2
COMPLEX
 70
0
 40
0
 41
1
 50
0
 71
0
 42
3.5
  3
complex
  4

  0
STYLE
  2
ITALIC
 70
0
 40
0
 41
1
 50
0
 71
0
 42
3.5
  3
italic
  4

  0
ENDTAB
  0
TABLE
  2
VIEW
 70
0
  0
ENDTAB
  0
ENDSEC
  0
SECTION
  2
BLOCKS
  0
ENDSEC
  0
SECTION
  2
ENTITIES
  0
LINE
  8
1
 62
3
  6
DIVIDE
 10
-4.321337900950482
 20
-148.2170674721769
 30
0
 11
-4.321337900950482
 21
-165.9670674721769
 31
0
  0
LINE
  8
1
 62
3
  6
DIVIDE
 10
-4.321337900950482
 20
-165.9670674721769
 30
0
 11
-6.321337900950482
 21
-167.9670674721769
 31
0
  0
LINE
  8
1
 62
3
  6
DIVIDE
 10
-9.321337900950482
 20
-167.9670674721769
 30
0
 11
-6.321337900950482
 21
-167.9670674721769
 31
0
  0
LINE
  8
1
 62
3
  6
DIVIDE
 10
-9.321337900950482
 20
-167.9670674721769
 30
0
 11
-10.32133790095048
 21
-166.9670674721769
 31
0
  0
LINE
  8
1
 62
3
  6
DIVIDE
 10
-10.32133790095048
 20
-158.1880674721769
 30
0
 11
-10.32133790095048
 21
-166.9670674721769
 31
0
  0
LINE
  8
1
 62
3
  6
DIVIDE
 10
-9.921337900950483
 20
-159.0670674721769
 30
0
 11
-10.32133790095048
 21
-159.4670674721769
 31
0
  0
LINE
  8
1
 62
3
  6
DIVIDE
 10
-9.921337900950483
 20
-157.5670674721769
 30
0
 11
-9.921337900950483
 21
-159.0670674721769
 31
0
  0
LINE
  8
1
 62
3
  6
DIVIDE
 10
-12.22133790095047
 20
-157.0670674721769
 30
0
 11
-12.62133790095047
 21
-157.4670674721769
 31
0
  0
LINE
  8
1
 62
3
  6
DIVIDE
 10
-10.42133790095048
 20
-157.0670674721769
 30
0
 11
-12.22133790095047
 21
-157.0670674721769
 31
0
  0
LINE
  8
1
 62
3
  6
DIVIDE
 10
-28.02133790095047
 20
-157.4670674721769
 30
0
 11
-12.62133790095047
 21
-157.4670674721769
 31
0
  0
LINE
  8
1
 62
3
  6
DIVIDE
 10
-28.02133790095047
 20
-157.4670674721769
 30
0
 11
-28.42133790095046
 21
-157.0670674721769
 31
0
  0
LINE
  8
1
 62
3
  6
DIVIDE
 10
-28.42133790095046
 20
-157.0670674721769
 30
0
 11
-30.22133790095047
 21
-157.0670674721769
 31
0
  0
LINE
  8
1
 62
3
  6
DIVIDE
 10
-30.32133790095048
 20
-159.4670674721769
 30
0
 11
-30.72133790095047
 21
-159.0670674721769
 31
0
  0
LINE
  8
1
 62
3
  6
DIVIDE
 10
-30.72133790095047
 20
-159.0670674721769
 30
0
 11
-30.72133790095047
 21
-157.5670674721769
 31
0
  0
LINE
  8
1
 62
3
  6
DIVIDE
 10
-30.32133790095048
 20
-166.9670674721769
 30
0
 11
-30.32133790095048
 21
-158.1880674721769
 31
0
  0
LINE
  8
1
 62
3
  6
DIVIDE
 10
-31.32133790095048
 20
-167.9670674721769
 30
0
 11
-30.32133790095048
 21
-166.9670674721769
 31
0
  0
LINE
  8
1
 62
3
  6
DIVIDE
 10
-34.32133790095048
 20
-167.9670674721769
 30
0
 11
-31.32133790095048
 21
-167.9670674721769
 31
0
  0
LINE
  8
1
 62
3
  6
DIVIDE
 10
-34.32133790095048
 20
-167.9670674721769
 30
0
 11
-36.32133790095048
 21
-165.9670674721769
 31
0
  0
LINE
  8
1
 62
3
  6
DASHDOT
 10
-20.32133790095048
 20
-144.8413505865778
 30
0
 11
-20.32133790095048
 21
-170.8413505865778
 31
0
  0
LINE
  8
1
 62
3
  6
DASHDOT
 10
-52.32133790095048
 20
-144.8413505865778
 30
0
 11
-52.32133790095048
 21
-170.8413505865778
 31
0
  0
LINE
  8
1
 62
3
  6
DASHDOT
 10
-20.32133790095048
 20
-43.092784357776
 30
0
 11
-20.32133790095048
 21
-69.092784357776
 31
0
  0
LINE
  8
1
 62
3
  6
DIVIDE
 10
-4.321337900950482
 20
-47.96706747217688
 30
0
 11
-4.321337900950482
 21
-65.71706747217688
 31
0
  0
LINE
  8
1
 62
3
  6
DIVIDE
 10
-6.321337900950482
 20
-45.96706747217688
 30
0
 11
-4.321337900950482
 21
-47.96706747217688
 31
0
  0
LINE
  8
1
 62
3
  6
DIVIDE
 10
-6.321337900950482
 20
-45.96706747217688
 30
0
 11
-9.321337900950482
 21
-45.96706747217688
 31
0
  0
LINE
  8
1
 62
3
  6
DIVIDE
 10
-10.32133790095048
 20
-46.96706747217688
 30
0
 11
-10.32133790095048
 21
-55.74606747217688
 31
0
  0
LINE
  8
1
 62
3
  6
DIVIDE
 10
-10.32133790095048
 20
-46.96706747217688
 30
0
 11
-9.321337900950482
 21
-45.96706747217688
 31
0
  0
LINE
  8
1
 62
3
  6
DIVIDE
 10
-10.32133790095048
 20
-54.46706747217688
 30
0
 11
-9.921337900950483
 21
-54.86706747217689
 31
0
  0
LINE
  8
1
 62
3
  6
DIVIDE
 10
-9.921337900950483
 20
-54.86706747217689
 30
0
 11
-9.921337900950483
 21
-56.36706747217689
 31
0
  0
LINE
  8
1
 62
3
  6
DIVIDE
 10
-12.62133790095047
 20
-56.46706747217688
 30
0
 11
-12.22133790095047
 21
-56.86706747217689
 31
0
  0
LINE
  8
1
 62
3
  6
DIVIDE
 10
-12.22133790095047
 20
-56.86706747217689
 30
0
 11
-10.42133790095048
 21
-56.86706747217689
 31
0
  0
LINE
  8
1
 62
3
  6
DIVIDE
 10
-12.62133790095047
 20
-56.46706747217688
 30
0
 11
-28.02133790095047
 21
-56.46706747217688
 31
0
  0
LINE
  8
1
 62
3
  6
DIVIDE
 10
-28.42133790095046
 20
-56.86706747217689
 30
0
 11
-28.02133790095047
 21
-56.46706747217688
 31
0
  0
LINE
  8
1
 62
3
  6
DIVIDE
 10
-30.22133790095047
 20
-56.86706747217689
 30
0
 11
-28.42133790095046
 21
-56.86706747217689
 31
0
  0
LINE
  8
1
 62
3
  6
DIVIDE
 10
-30.72133790095047
 20
-56.36706747217689
 30
0
 11
-30.72133790095047
 21
-54.86706747217689
 31
0
  0
LINE
  8
1
 62
3
  6
DIVIDE
 10
-30.72133790095047
 20
-54.86706747217689
 30
0
 11
-30.32133790095048
 21
-54.46706747217688
 31
0
  0
LINE
  8
1
 62
3
  6
DIVIDE
 10
-30.32133790095048
 20
-55.74606747217688
 30
0
 11
-30.32133790095048
 21
-46.96706747217688
 31
0
  0
LINE
  8
1
 62
3
  6
DIVIDE
 10
-30.32133790095048
 20
-46.96706747217688
 30
0
 11
-31.32133790095048
 21
-45.96706747217688
 31
0
  0
LINE
  8
1
 62
3
  6
DIVIDE
 10
-31.32133790095048
 20
-45.96706747217688
 30
0
 11
-34.32133790095048
 21
-45.96706747217688
 31
0
  0
LINE
  8
1
 62
3
  6
DIVIDE
 10
-36.32133790095048
 20
-47.96706747217688
 30
0
 11
-34.32133790095048
 21
-45.96706747217688
 31
0
  0
LINE
  8
1
 62
3
  6
DIVIDE
 10
-36.32133790095048
 20
-65.71706747217688
 30
0
 11
-36.32133790095048
 21
-47.96706747217688
 31
0
  0
LINE
  8
1
 62
3
  6
DASHDOT
 10
-52.32133790095048
 20
-43.092784357776
 30
0
 11
-52.32133790095048
 21
-69.092784357776
 31
0
  0
LINE
  8
1
 62
7
 10
-260.7925470548992
 20
-83.19640290131446
 30
0
 11
-257.4028475824572
 21
-85.15344680420083
 31
0
  0
LINE
  8
1
 62
7
 10
-192.6985495220769
 20
-91.42364423726664
 30
0
 11
-196.0882489945189
 21
-93.38068814015296
 31
0
  0
LINE
  8
1
 62
7
 10
-262.1528475824572
 20
-93.38068814015298
 30
0
 11
-265.5425470548992
 21
-91.42364423726662
 31
0
  0
LINE
  8
1
 62
7
 10
-200.8382489945189
 20
-85.15344680420081
 30
0
 11
-197.4485495220769
 21
-83.19640290131449
 31
0
  0
LINE
  8
1
 62
7
 10
-257.4028475824572
 20
-85.15344680420083
 30
0
 11
-262.1528475824572
 21
-93.38068814015298
 31
0
  0
LINE
  8
1
 62
7
 10
-196.0882489945189
 20
-93.38068814015296
 30
0
 11
-200.8382489945189
 21
-85.15344680420081
 31
0
  0
LINE
  8
1
 62
7
 10
-233.870548288488
 20
-146.2811552779496
 30
0
 11
-233.870548288488
 21
-142.3670674721769
 31
0
  0
LINE
  8
1
 62
7
 10
-234.120548288488
 20
-146.149333869107
 30
0
 11
-234.120548288488
 21
-141.9670674721769
 31
0
  0
LINE
  8
1
 62
7
 10
-233.870548288488
 20
-142.3670674721769
 30
0
 11
-224.370548288488
 21
-142.3670674721769
 31
0
  0
LINE
  8
1
 62
7
 10
-224.370548288488
 20
-142.3670674721769
 30
0
 11
-224.370548288488
 21
-146.2811552779496
 31
0
  0
LINE
  8
1
 62
7
 10
-68.98475590929567
 20
-148.2170674721769
 30
0
 11
-69.32133790095048
 21
-147.634090361718
 31
0
  0
LINE
  8
1
 62
7
 10
-85.64755692152347
 20
-147.634090361718
 30
0
 11
-86.32133790095048
 21
-146.4670674721769
 31
0
  0
LINE
  8
1
 62
7
 10
-86.32133790095048
 20
-146.4670674721769
 30
0
 11
-88.82133790095048
 21
-146.4670674721769
 31
0
  0
LINE
  8
1
 62
7
 10
-129.3213379009505
 20
-145.4670674721769
 30
0
 11
-129.3213379009505
 21
-137.9670674721769
 31
0
  0
LINE
  8
1
 62
7
 10
-129.3213379009505
 20
-137.9670674721769
 30
0
 11
-130.3213379009505
 21
-136.9670674721769
 31
0
  0
LINE
  8
1
 62
3
 10
-69.32133790095048
 20
-147.634090361718
 30
0
 11
-69.7340703018268
 21
-146.9192168734703
 31
0
  0
LINE
  8
1
 62
7
 10
-69.32133790095048
 20
-66.30004458263576
 30
0
 11
-68.98475590929567
 21
-65.71706747217687
 31
0
  0
LINE
  8
1
 62
7
 10
-85.64755692152347
 20
-66.30004458263576
 30
0
 11
-69.32133790095048
 21
-66.30004458263576
 31
0
  0
LINE
  8
1
 62
7
 10
-86.32133790095048
 20
-67.46706747217687
 30
0
 11
-85.64755692152347
 21
-66.30004458263576
 31
0
  0
LINE
  8
1
 62
7
 10
-130.3213379009505
 20
-76.96706747217687
 30
0
 11
-129.4801359230876
 21
-76.12586549431396
 31
0
  0
LINE
  8
1
 62
7
 10
-130.3213379009505
 20
-136.9670674721769
 30
0
 11
-130.3213379009505
 21
-76.96706747217687
 31
0
  0
LINE
  8
1
 62
3
 10
-69.7340703018268
 20
-67.01491807088348
 30
0
 11
-73.82133790095048
 21
-67.01491807088348
 31
0
  0
LINE
  8
1
 62
3
 10
-69.7340703018268
 20
-67.01491807088348
 30
0
 11
-69.32133790095048
 21
-66.30004458263576
 31
0
  0
LINE
  8
1
 62
7
 10
-129.3213379009505
 20
-145.4670674721769
 30
0
 11
-128.3213379009505
 21
-146.4670674721769
 31
0
  0
LINE
  8
1
 62
7
 10
-129.3213379009505
 20
-68.46706747217688
 30
0
 11
-128.6785256360249
 21
-67.82425520725126
 31
0
  0
LINE
  8
1
 62
7
 10
-85.32133790095048
 20
-141.9670674721769
 30
0
 11
-129.3213379009505
 21
-141.9670674721769
 31
0
  0
LINE
  8
1
 62
7
 10
-66.32133790095048
 20
-81.46706747217687
 30
0
 11
-130.3213379009505
 21
-81.46706747217687
 31
0
  0
LINE
  8
1
 62
3
  6
DASHDOT
 10
-90.32133790095048
 20
-129.9670674721769
 30
0
 11
-115.3213379009505
 21
-129.9670674721769
 31
0
  0
LINE
  8
1
 62
3
  6
DASHDOT
 10
-96.32133790095048
 20
-129.9670674721769
 30
0
 11
-96.32133790095048
 21
-141.9670674721769
 31
0
  0
LINE
  8
1
 62
3
  6
DASHDOT
 10
-100.3213379009505
 20
-141.9670674721769
 30
0
 11
-100.3213379009505
 21
-129.9670674721769
 31
0
  0
LINE
  8
1
 62
3
  6
DASHDOT
 10
-106.3213379009505
 20
-129.9670674721769
 30
0
 11
-106.3213379009505
 21
-141.9670674721769
 31
0
  0
LINE
  8
1
 62
3
  6
DASHDOT
 10
-110.3213379009505
 20
-141.9670674721769
 30
0
 11
-110.3213379009505
 21
-129.9670674721769
 31
0
  0
LINE
  8
1
 62
3
  6
DASHDOT
 10
-115.3213379009505
 20
-129.9670674721769
 30
0
 11
-115.3213379009505
 21
-83.96706747217689
 31
0
  0
LINE
  8
1
 62
3
  6
DASHDOT
 10
-90.32133790095048
 20
-83.96706747217689
 30
0
 11
-90.32133790095048
 21
-129.9670674721769
 31
0
  0
LINE
  8
1
 62
3
  6
DASHDOT
 10
-115.3213379009505
 20
-83.96706747217689
 30
0
 11
-90.32133790095048
 21
-83.96706747217689
 31
0
  0
LINE
  8
1
 62
7
 10
-112.8213379009505
 20
-50.46706747217688
 30
0
 11
-117.3213379009505
 21
-50.46706747217688
 31
0
  0
LINE
  8
1
 62
7
 10
-119.3213379009505
 20
-52.46706747217688
 30
0
 11
-119.3213379009505
 21
-65.60122819413016
 31
0
  0
LINE
  8
1
 62
7
 10
-119.3213379009505
 20
-61.96706747217688
 30
0
 11
-114.8213379009505
 21
-66.46706747217688
 31
0
  0
LINE
  8
1
 62
7
 10
-114.8213379009505
 20
-66.46706747217688
 30
0
 11
-114.8213379009505
 21
-67.46706747217688
 31
0
  0
LINE
  8
1
 62
7
 10
-119.3213379009505
 20
-52.46706747217688
 30
0
 11
-117.3213379009505
 21
-50.46706747217688
 31
0
  0
LINE
  8
1
 62
7
 10
-126.2268844346777
 20
-56.21453940413486
 30
0
 11
-129.6702942766346
 21
-72.52076302152446
 31
0
  0
LINE
  8
1
 62
7
 10
-122.4180525076424
 20
-80.95544073721818
 30
0
 11
-52.03515033829764
 21
-76.89378070461548
 31
0
  0
LINE
  8
1
 62
7
 10
-111.7642648601201
 20
-70.64571185831414
 30
0
 11
-67.17627476544064
 21
-73.30024965202398
 31
0
  0
LINE
  8
1
 62
7
 10
-63.4740845735822
 20
-69.60479320542522
 30
0
 11
-63.60688853792699
 21
-67.30348577074288
 31
0
  0
LINE
  8
1
 62
7
 10
-118.1066634424421
 20
-67.46706747217687
 30
0
 11
-91.82133790095048
 21
-67.46706747217687
 31
0
  0
LINE
  8
1
 62
7
 10
-129.3213379009505
 20
-70.86828453195139
 30
0
 11
-129.3213379009505
 21
-68.46706747217688
 31
0
  0
LINE
  8
1
 62
7
 10
-112.8213379009505
 20
-67.46706747217688
 30
0
 11
-112.8213379009505
 21
-44.46706747217688
 31
0
  0
LINE
  8
1
 62
7
 10
-112.8213379009505
 20
-44.46706747217688
 30
0
 11
-91.82133790095048
 21
-44.46706747217688
 31
0
  0
LINE
  8
1
 62
7
 10
-91.82133790095048
 20
-44.46706747217688
 30
0
 11
-91.82133790095048
 21
-68.46706747217688
 31
0
  0
LINE
  8
1
 62
3
 10
-112.8213379009505
 20
-44.46706747217688
 30
0
 11
-91.82133790095048
 21
-67.46706747217687
 31
0
  0
LINE
  8
1
 62
3
 10
-91.82133790095048
 20
-44.46706747217688
 30
0
 11
-112.8213379009505
 21
-67.46706747217688
 31
0
  0
LINE
  8
1
 62
7
 10
-117.3213379009505
 20
-163.4670674721769
 30
0
 11
-112.8213379009505
 21
-163.4670674721769
 31
0
  0
LINE
  8
1
 62
7
 10
-117.3213379009505
 20
-163.4670674721769
 30
0
 11
-119.3213379009505
 21
-161.4670674721769
 31
0
  0
LINE
  8
1
 62
7
 10
-119.3213379009505
 20
-146.4670674721769
 30
0
 11
-119.3213379009505
 21
-161.4670674721769
 31
0
  0
LINE
  8
1
 62
7
 10
-114.8213379009505
 20
-147.4670674721769
 30
0
 11
-119.3213379009505
 21
-151.9670674721769
 31
0
  0
LINE
  8
1
 62
7
 10
-112.8213379009505
 20
-169.4670674721769
 30
0
 11
-112.8213379009505
 21
-142.3670674721769
 31
0
  0
LINE
  8
1
 62
7
 10
-114.8213379009505
 20
-147.4670674721769
 30
0
 11
-114.8213379009505
 21
-142.3670674721769
 31
0
  0
LINE
  8
1
 62
7
 10
-114.8213379009505
 20
-146.4670674721769
 30
0
 11
-128.3213379009505
 21
-146.4670674721769
 31
0
  0
LINE
  8
1
 62
3
 10
-112.8213379009505
 20
-142.3670674721769
 30
0
 11
-91.82133790095048
 21
-169.4670674721769
 31
0
  0
LINE
  8
1
 62
7
 10
-91.82133790095048
 20
-169.4670674721769
 30
0
 11
-112.8213379009505
 21
-169.4670674721769
 31
0
  0
LINE
  8
1
 62
7
 10
-114.8213379009505
 20
-142.3670674721769
 30
0
 11
-91.82133790095048
 21
-142.3670674721769
 31
0
  0
LINE
  8
1
 62
7
 10
-91.82133790095048
 20
-142.3670674721769
 30
0
 11
-91.82133790095048
 21
-169.4670674721769
 31
0
  0
LINE
  8
1
 62
3
 10
-112.8213379009505
 20
-169.4670674721769
 30
0
 11
-91.82133790095048
 21
-142.3670674721769
 31
0
  0
LINE
  8
1
 62
7
 10
-91.82133790095048
 20
-50.46706747217688
 30
0
 11
-88.82133790095048
 21
-50.46706747217688
 31
0
  0
LINE
  8
1
 62
7
 10
-88.82133790095048
 20
-50.46706747217688
 30
0
 11
-88.82133790095048
 21
-53.71706747217688
 31
0
  0
LINE
  8
1
 62
7
 10
-88.82133790095048
 20
-68.46706747217688
 30
0
 11
-91.82133790095048
 21
-68.46706747217688
 31
0
  0
LINE
  8
1
 62
7
 10
-88.82133790095048
 20
-67.46706747217687
 30
0
 11
-86.32133790095048
 21
-67.46706747217687
 31
0
  0
LINE
  8
1
 62
7
 10
-114.8213379009505
 20
-67.36706747217687
 30
0
 11
-91.82133790095048
 21
-67.36706747217687
 31
0
  0
LINE
  8
1
 62
7
 10
-91.82133790095048
 20
-53.46706747217688
 30
0
 11
-88.82133790095048
 21
-53.46706747217688
 31
0
  0
LINE
  8
1
 62
7
 10
-88.82133790095048
 20
-60.46706747217688
 30
0
 11
-91.82133790095048
 21
-60.46706747217688
 31
0
  0
LINE
  8
1
 62
7
 10
-88.82133790095048
 20
-163.4670674721769
 30
0
 11
-91.82133790095048
 21
-163.4670674721769
 31
0
  0
LINE
  8
1
 62
7
 10
-88.82133790095048
 20
-142.4670674721769
 30
0
 11
-88.82133790095048
 21
-163.4670674721769
 31
0
  0
LINE
  8
1
 62
7
 10
-88.82133790095048
 20
-142.4670674721769
 30
0
 11
-91.82133790095048
 21
-142.4670674721769
 31
0
  0
LINE
  8
1
 62
7
 10
-88.82133790095048
 20
-160.4670674721769
 30
0
 11
-91.82133790095048
 21
-160.4670674721769
 31
0
  0
LINE
  8
1
 62
7
 10
-91.82133790095048
 20
-153.4670674721769
 30
0
 11
-88.82133790095048
 21
-153.4670674721769
 31
0
  0
LINE
  8
1
 62
7
 10
-88.82133790095048
 20
-51.46706747217688
 30
0
 11
-87.82133790095048
 21
-50.46706747217688
 31
0
  0
LINE
  8
1
 62
7
 10
-87.82133790095048
 20
-50.46706747217688
 30
0
 11
-73.82133790095048
 21
-50.46706747217688
 31
0
  0
LINE
  8
1
 62
7
 10
-70.82133790095048
 20
-52.46706747217688
 30
0
 11
-70.82133790095048
 21
-66.30004458263576
 31
0
  0
LINE
  8
1
 62
7
 10
-70.82133790095048
 20
-52.46706747217688
 30
0
 11
-71.82133790095048
 21
-51.46706747217688
 31
0
  0
LINE
  8
1
 62
7
 10
-73.82133790095048
 20
-50.46706747217688
 30
0
 11
-73.82133790095048
 21
-67.01491807088348
 31
0
  0
LINE
  8
1
 62
3
 10
-85.64755692152347
 20
-66.30004458263576
 30
0
 11
-88.82133790095048
 21
-66.30004458263576
 31
0
  0
LINE
  8
1
 62
7
 10
-73.82133790095048
 20
-67.01491807088348
 30
0
 11
-88.82133790095048
 21
-67.01491807088348
 31
0
  0
LINE
  8
1
 62
7
 10
-70.82133790095048
 20
-64.96706747217688
 30
0
 11
-73.82133790095048
 21
-64.96706747217688
 31
0
  0
LINE
  8
1
 62
7
 10
-88.82133790095048
 20
-146.9192168734703
 30
0
 11
-73.82133790095048
 21
-146.9192168734703
 31
0
  0
LINE
  8
1
 62
7
 10
-69.32133790095048
 20
-147.634090361718
 30
0
 11
-85.64755692152347
 21
-147.634090361718
 31
0
  0
LINE
  8
1
 62
3
 10
-88.82133790095048
 20
-147.634090361718
 30
0
 11
-85.64755692152347
 21
-147.634090361718
 31
0
  0
LINE
  8
1
 62
3
 10
-73.82133790095048
 20
-146.9192168734703
 30
0
 11
-69.7340703018268
 21
-146.9192168734703
 31
0
  0
LINE
  8
1
 62
7
 10
-87.82133790095048
 20
-163.4670674721769
 30
0
 11
-88.82133790095048
 21
-162.4670674721769
 31
0
  0
LINE
  8
1
 62
7
 10
-72.82133790095048
 20
-163.4670674721769
 30
0
 11
-87.82133790095048
 21
-163.4670674721769
 31
0
  0
LINE
  8
1
 62
7
 10
-70.82133790095048
 20
-147.634090361718
 30
0
 11
-70.82133790095048
 21
-161.4670674721769
 31
0
  0
LINE
  8
1
 62
7
 10
-72.82133790095048
 20
-163.4670674721769
 30
0
 11
-70.82133790095048
 21
-161.4670674721769
 31
0
  0
LINE
  8
1
 62
7
 10
-73.82133790095048
 20
-148.9670674721769
 30
0
 11
-70.82133790095048
 21
-148.9670674721769
 31
0
  0
LINE
  8
1
 62
7
 10
-73.82133790095048
 20
-148.9670674721769
 30
0
 11
-73.82133790095048
 21
-146.9192168734703
 31
0
  0
LINE
  8
1
 62
7
 10
-88.82133790095048
 20
-52.96706747217688
 30
0
 11
-76.32133790095048
 21
-52.96706747217688
 31
0
  0
LINE
  8
1
 62
7
 10
-76.32133790095048
 20
-52.96706747217688
 30
0
 11
-76.32133790095048
 21
-54.21706747217688
 31
0
  0
LINE
  8
1
 62
7
 10
-76.32133790095048
 20
-60.96706747217688
 30
0
 11
-88.82133790095048
 21
-60.96706747217688
 31
0
  0
LINE
  8
1
 62
7
 10
-84.12133790095048
 20
-59.71706747217687
 30
0
 11
-73.82133790095048
 21
-59.71706747217688
 31
0
  0
LINE
  8
1
 62
7
 10
-76.32133790095048
 20
-59.71706747217688
 30
0
 11
-76.32133790095048
 21
-60.96706747217688
 31
0
  0
LINE
  8
1
 62
7
 10
-84.12133790095048
 20
-52.96706747217688
 30
0
 11
-84.12133790095048
 21
-60.96706747217688
 31
0
  0
LINE
  8
1
 62
7
 10
-84.12133790095048
 20
-54.21706747217687
 30
0
 11
-73.82133790095048
 21
-54.21706747217688
 31
0
  0
LINE
  8
1
 62
7
 10
-88.62133790095048
 20
-52.96706747217688
 30
0
 11
-88.62133790095048
 21
-60.96706747217688
 31
0
  0
LINE
  8
1
 62
7
 10
-88.62133790095048
 20
-53.71706747217688
 30
0
 11
-91.62133790095048
 21
-53.71706747217688
 31
0
  0
LINE
  8
1
 62
7
 10
-91.62133790095048
 20
-53.71706747217688
 30
0
 11
-91.62133790095048
 21
-60.21706747217688
 31
0
  0
LINE
  8
1
 62
7
 10
-91.62133790095048
 20
-60.21706747217688
 30
0
 11
-88.62133790095048
 21
-60.21706747217688
 31
0
  0
LINE
  8
1
 62
7
 10
-88.82133790095048
 20
-60.21706747217688
 30
0
 11
-88.82133790095048
 21
-68.46706747217688
 31
0
  0
LINE
  8
1
 62
7
 10
-83.82141305648186
 20
-53.6237822075008
 30
0
 11
-83.83469556240745
 21
-54.21706747217688
 31
0
  0
LINE
  8
1
 62
7
 10
-83.20272625357931
 20
-53.58296167394903
 30
0
 11
-83.27528562352579
 21
-54.21706747217688
 31
0
  0
LINE
  8
1
 62
7
 10
-82.60661621498832
 20
-53.65117327040472
 30
0
 11
-82.67137027787767
 21
-54.21706747217688
 31
0
  0
LINE
  8
1
 62
7
 10
-81.66939292024598
 20
-53.58296167394903
 30
0
 11
-81.74195229019244
 21
-54.21706747217688
 31
0
  0
LINE
  8
1
 62
7
 10
-81.07328288165498
 20
-53.65117327040472
 30
0
 11
-81.13803694454433
 21
-54.21706747217688
 31
0
  0
LINE
  8
1
 62
7
 10
-80.13605958691265
 20
-53.58296167394903
 30
0
 11
-80.20861895685914
 21
-54.21706747217688
 31
0
  0
LINE
  8
1
 62
7
 10
-79.53994954832164
 20
-53.65117327040472
 30
0
 11
-79.60470361121099
 21
-54.21706747217688
 31
0
  0
LINE
  8
1
 62
7
 10
-78.60272625357932
 20
-53.58296167394903
 30
0
 11
-78.67528562352578
 21
-54.21706747217688
 31
0
  0
LINE
  8
1
 62
7
 10
-78.00661621498831
 20
-53.65117327040472
 30
0
 11
-78.07137027787766
 21
-54.21706747217688
 31
0
  0
LINE
  8
1
 62
7
 10
-77.06939292024599
 20
-53.58296167394903
 30
0
 11
-77.14195229019245
 21
-54.21706747217688
 31
0
  0
LINE
  8
1
 62
7
 10
-76.47328288165498
 20
-53.65117327040472
 30
0
 11
-76.53803694454433
 21
-54.21706747217688
 31
0
  0
LINE
  8
1
 62
7
 10
-76.47126274541911
 20
-53.61035273685295
 30
0
 11
-76.48484591113531
 21
-54.21706747217688
 31
0
  0
LINE
  8
1
 62
7
 10
-76.60798023949353
 20
-59.71706747217688
 30
0
 11
-76.6212627454191
 21
-60.31035273685296
 31
0
  0
LINE
  8
1
 62
7
 10
-77.16739017837517
 20
-59.71706747217688
 30
0
 11
-77.23994954832163
 21
-60.35117327040473
 31
0
  0
LINE
  8
1
 62
7
 10
-77.77130552402331
 20
-59.71706747217688
 30
0
 11
-77.83605958691264
 21
-60.28296167394903
 31
0
  0
LINE
  8
1
 62
7
 10
-78.70072351170853
 20
-59.71706747217688
 30
0
 11
-78.77328288165498
 21
-60.35117327040473
 31
0
  0
LINE
  8
1
 62
7
 10
-79.30463885735665
 20
-59.71706747217688
 30
0
 11
-79.36939292024597
 21
-60.28296167394904
 31
0
  0
LINE
  8
1
 62
7
 10
-80.23405684504185
 20
-59.71706747217688
 30
0
 11
-80.30661621498831
 21
-60.35117327040473
 31
0
  0
LINE
  8
1
 62
7
 10
-80.83797219068998
 20
-59.71706747217688
 30
0
 11
-80.90272625357932
 21
-60.28296167394903
 31
0
  0
LINE
  8
1
 62
7
 10
-81.76739017837518
 20
-59.71706747217688
 30
0
 11
-81.83994954832164
 21
-60.35117327040473
 31
0
  0
LINE
  8
1
 62
7
 10
-82.3713055240233
 20
-59.71706747217688
 30
0
 11
-82.43605958691265
 21
-60.28296167394904
 31
0
  0
LINE
  8
1
 62
7
 10
-83.30072351170851
 20
-59.71706747217688
 30
0
 11
-83.37328288165499
 21
-60.35117327040473
 31
0
  0
LINE
  8
1
 62
7
 10
-83.90463885735663
 20
-59.71706747217688
 30
0
 11
-83.96939292024598
 21
-60.28296167394903
 31
0
  0
LINE
  8
1
 62
7
 10
-83.95782989076565
 20
-59.71706747217688
 30
0
 11
-83.97141305648187
 21
-60.32378220750081
 31
0
  0
LINE
  8
1
 62
7
 10
-73.82133790095048
 20
-50.46706747217688
 30
0
 11
-73.82133790095048
 21
-43.96706747217688
 31
0
  0
LINE
  8
1
 62
7
 10
-71.82133790095048
 20
-43.96706747217688
 30
0
 11
-71.82133790095048
 21
-61.96706747217688
 31
0
  0
LINE
  8
1
 62
7
 10
-71.82133790095048
 20
-43.96706747217688
 30
0
 11
-73.82133790095048
 21
-43.96706747217688
 31
0
  0
LINE
  8
1
 62
7
 10
-71.82133790095048
 20
-61.96706747217688
 30
0
 11
-73.82133790095048
 21
-61.96706747217688
 31
0
  0
LINE
  8
1
 62
3
  6
DIVIDE
 10
-66.32133790095048
 20
-62.71706747217687
 30
0
 11
-66.32133790095048
 21
-70.21706747217687
 31
0
  0
LINE
  8
1
 62
3
  6
DIVIDE
 10
-66.32133790095048
 20
-70.21706747217687
 30
0
 11
-6.321337900950477
 21
-70.21706747217688
 31
0
  0
LINE
  8
1
 62
3
  6
DIVIDE
 10
-6.321337900950477
 20
-70.21706747217688
 30
0
 11
-6.321337900950475
 21
-62.71706747217688
 31
0
  0
LINE
  8
1
 62
3
  6
DIVIDE
 10
-6.321337900950475
 20
-62.71706747217688
 30
0
 11
-66.32133790095048
 21
-62.71706747217687
 31
0
  0
LINE
  8
1
 62
7
 10
-84.32133790095048
 20
-163.4670674721769
 30
0
 11
-84.32133790095048
 21
-153.4670674721769
 31
0
  0
LINE
  8
1
 62
7
 10
-84.32133790095048
 20
-153.4670674721769
 30
0
 11
-75.32133790095048
 21
-153.4670674721769
 31
0
  0
LINE
  8
1
 62
7
 10
-75.32133790095048
 20
-153.4670674721769
 30
0
 11
-75.32133790095048
 21
-163.4670674721769
 31
0
  0
LINE
  8
1
 62
7
 10
-84.32133790095048
 20
-153.4670674721769
 30
0
 11
-79.82133790095048
 21
-150.8689912608236
 31
0
  0
LINE
  8
1
 62
7
 10
-79.82133790095048
 20
-150.8689912608236
 30
0
 11
-75.32133790095048
 21
-153.4670674721769
 31
0
  0
LINE
  8
1
 62
7
 10
-38.32133790095048
 20
-45.96706747217688
 30
0
 11
-41.32133790095048
 21
-45.96706747217688
 31
0
  0
LINE
  8
1
 62
7
 10
-42.32133790095048
 20
-46.96706747217688
 30
0
 11
-42.32133790095048
 21
-55.74606747217688
 31
0
  0
LINE
  8
1
 62
7
 10
-42.32133790095048
 20
-54.46706747217688
 30
0
 11
-41.92133790095048
 21
-54.86706747217689
 31
0
  0
LINE
  8
1
 62
7
 10
-44.62133790095047
 20
-56.46706747217688
 30
0
 11
-44.22133790095047
 21
-56.86706747217689
 31
0
  0
LINE
  8
1
 62
7
 10
-44.22133790095047
 20
-56.86706747217689
 30
0
 11
-42.42133790095048
 21
-56.86706747217689
 31
0
  0
LINE
  8
1
 62
7
 10
-41.92133790095048
 20
-54.86706747217689
 30
0
 11
-41.92133790095048
 21
-56.36706747217689
 31
0
  0
LINE
  8
1
 62
7
 10
-44.62133790095047
 20
-56.46706747217688
 30
0
 11
-60.02133790095047
 21
-56.46706747217688
 31
0
  0
LINE
  8
1
 62
7
 10
-63.32133790095048
 20
-45.96706747217688
 30
0
 11
-66.32133790095048
 21
-45.96706747217688
 31
0
  0
LINE
  8
1
 62
7
 10
-62.32133790095048
 20
-55.74606747217688
 30
0
 11
-62.32133790095048
 21
-46.96706747217688
 31
0
  0
LINE
  8
1
 62
7
 10
-62.72133790095047
 20
-54.86706747217689
 30
0
 11
-62.32133790095048
 21
-54.46706747217688
 31
0
  0
LINE
  8
1
 62
7
 10
-60.42133790095046
 20
-56.86706747217689
 30
0
 11
-60.02133790095047
 21
-56.46706747217688
 31
0
  0
LINE
  8
1
 62
7
 10
-62.22133790095047
 20
-56.86706747217689
 30
0
 11
-60.42133790095046
 21
-56.86706747217689
 31
0
  0
LINE
  8
1
 62
7
 10
-62.72133790095047
 20
-56.36706747217689
 30
0
 11
-62.72133790095047
 21
-54.86706747217689
 31
0
  0
LINE
  8
1
 62
7
 10
-68.32133790095048
 20
-65.71706747217688
 30
0
 11
-68.32133790095048
 21
-47.96706747217688
 31
0
  0
LINE
  8
1
 62
7
 10
-68.32133790095048
 20
-47.96706747217688
 30
0
 11
-66.32133790095048
 21
-45.96706747217688
 31
0
  0
LINE
  8
1
 62
7
 10
-62.32133790095048
 20
-46.96706747217688
 30
0
 11
-63.32133790095048
 21
-45.96706747217688
 31
0
  0
LINE
  8
1
 62
7
 10
-42.32133790095048
 20
-46.96706747217688
 30
0
 11
-41.32133790095048
 21
-45.96706747217688
 31
0
  0
LINE
  8
1
 62
7
 10
-36.32133790095048
 20
-148.2170674721769
 30
0
 11
-36.32133790095048
 21
-165.9670674721769
 31
0
  0
LINE
  8
1
 62
7
 10
-41.32133790095048
 20
-167.9670674721769
 30
0
 11
-38.32133790095048
 21
-167.9670674721769
 31
0
  0
LINE
  8
1
 62
7
 10
-42.32133790095048
 20
-158.1880674721769
 30
0
 11
-42.32133790095048
 21
-166.9670674721769
 31
0
  0
LINE
  8
1
 62
7
 10
-41.92133790095048
 20
-159.0670674721769
 30
0
 11
-42.32133790095048
 21
-159.4670674721769
 31
0
  0
LINE
  8
1
 62
7
 10
-44.22133790095047
 20
-157.0670674721769
 30
0
 11
-44.62133790095047
 21
-157.4670674721769
 31
0
  0
LINE
  8
1
 62
7
 10
-42.42133790095048
 20
-157.0670674721769
 30
0
 11
-44.22133790095047
 21
-157.0670674721769
 31
0
  0
LINE
  8
1
 62
7
 10
-41.92133790095048
 20
-157.5670674721769
 30
0
 11
-41.92133790095048
 21
-159.0670674721769
 31
0
  0
LINE
  8
1
 62
7
 10
-41.32133790095048
 20
-167.9670674721769
 30
0
 11
-42.32133790095048
 21
-166.9670674721769
 31
0
  0
LINE
  8
1
 62
7
 10
-60.02133790095047
 20
-157.4670674721769
 30
0
 11
-44.62133790095047
 21
-157.4670674721769
 31
0
  0
LINE
  8
1
 62
7
 10
-66.32133790095048
 20
-167.9670674721769
 30
0
 11
-63.32133790095048
 21
-167.9670674721769
 31
0
  0
LINE
  8
1
 62
7
 10
-62.32133790095048
 20
-166.9670674721769
 30
0
 11
-62.32133790095048
 21
-158.1880674721769
 31
0
  0
LINE
  8
1
 62
7
 10
-62.32133790095048
 20
-159.4670674721769
 30
0
 11
-62.72133790095047
 21
-159.0670674721769
 31
0
  0
LINE
  8
1
 62
7
 10
-60.02133790095047
 20
-157.4670674721769
 30
0
 11
-60.42133790095046
 21
-157.0670674721769
 31
0
  0
LINE
  8
1
 62
7
 10
-60.42133790095046
 20
-157.0670674721769
 30
0
 11
-62.22133790095047
 21
-157.0670674721769
 31
0
  0
LINE
  8
1
 62
7
 10
-62.72133790095047
 20
-159.0670674721769
 30
0
 11
-62.72133790095047
 21
-157.5670674721769
 31
0
  0
LINE
  8
1
 62
7
 10
-66.32133790095048
 20
-167.9670674721769
 30
0
 11
-68.32133790095048
 21
-165.9670674721769
 31
0
  0
LINE
  8
1
 62
7
 10
-63.32133790095048
 20
-167.9670674721769
 30
0
 11
-62.32133790095048
 21
-166.9670674721769
 31
0
  0
LINE
  8
1
 62
7
 10
-68.32133790095048
 20
-165.9670674721769
 30
0
 11
-68.32133790095048
 21
-148.2170674721769
 31
0
  0
LINE
  8
1
 62
3
  6
DASHDOT
 10
-229.120548288488
 20
-106.9670674721769
 30
0
 11
-229.120548288488
 21
-104.4670674721769
 31
0
  0
LINE
  8
1
 62
3
  6
DASHDOT
 10
-229.120548288488
 20
-106.9670674721769
 30
0
 11
-231.620548288488
 21
-106.9670674721769
 31
0
  0
LINE
  8
1
 62
3
  6
DASHDOT
 10
-229.120548288488
 20
-106.9670674721769
 30
0
 11
-229.120548288488
 21
-109.4670674721769
 31
0
  0
LINE
  8
1
 62
3
  6
DASHDOT
 10
-229.120548288488
 20
-106.9670674721769
 30
0
 11
-226.620548288488
 21
-106.9670674721769
 31
0
  0
LINE
  8
1
 62
7
 10
-224.120548288488
 20
-141.9670674721769
 30
0
 11
-224.120548288488
 21
-146.149333869107
 31
0
  0
LINE
  8
1
 62
7
 10
-224.120548288488
 20
-141.9670674721769
 30
0
 11
-234.120548288488
 21
-141.9670674721769
 31
0
  0
LINE
  8
1
 62
7
 10
-201.3096591560326
 20
-85.13694045325471
 30
0
 11
-197.6877102108971
 21
-83.04580725478967
 31
0
  0
LINE
  8
1
 62
7
 10
-192.6877102108972
 20
-91.70606129263405
 30
0
 11
-196.3096591560326
 21
-93.79719449109908
 31
0
  0
LINE
  8
1
 62
7
 10
-201.3096591560326
 20
-85.13694045325471
 30
0
 11
-196.3096591560326
 21
-93.79719449109908
 31
0
  0
LINE
  8
1
 62
7
 10
-261.9314374209433
 20
-93.79719449109899
 30
0
 11
-265.5533863660788
 21
-91.70606129263392
 31
0
  0
LINE
  8
1
 62
7
 10
-260.5533863660788
 20
-83.04580725478955
 30
0
 11
-256.9314374209433
 21
-85.13694045325462
 31
0
  0
LINE
  8
1
 62
7
 10
-261.9314374209433
 20
-93.79719449109899
 30
0
 11
-256.9314374209433
 21
-85.13694045325462
 31
0
  0
LINE
  8
1
 62
7
 10
-238.370548288488
 20
-50.72262330210796
 30
0
 11
-238.370548288488
 21
-45.15535741655716
 31
0
  0
LINE
  8
1
 62
7
 10
-219.870548288488
 20
-50.72262330210796
 30
0
 11
-219.870548288488
 21
-45.15535741655716
 31
0
  0
LINE
  8
1
 62
7
 10
-282.4546657615033
 20
-86.8555803721485
 30
0
 11
-287.2760594480127
 21
-84.0719474293731
 31
0
  0
LINE
  8
1
 62
7
 10
-273.2046657615033
 20
-70.83411040213636
 30
0
 11
-278.0260594480127
 21
-68.05047745936096
 31
0
  0
LINE
  8
1
 62
7
 10
-273.2046657615033
 20
-143.1000245422174
 30
0
 11
-278.0260594480128
 21
-145.8836574849928
 31
0
  0
LINE
  8
1
 62
7
 10
-282.4546657615033
 20
-127.0785545722053
 30
0
 11
-287.2760594480127
 21
-129.8621875149807
 31
0
  0
LINE
  8
1
 62
7
 10
-219.870548288488
 20
-163.2115116422458
 30
0
 11
-219.870548288488
 21
-168.7787775277966
 31
0
  0
LINE
  8
1
 62
7
 10
-238.370548288488
 20
-163.2115116422458
 30
0
 11
-238.370548288488
 21
-168.7787775277966
 31
0
  0
LINE
  8
1
 62
7
 10
-175.7864308154727
 20
-127.0785545722053
 30
0
 11
-170.9650371289633
 21
-129.8621875149807
 31
0
  0
LINE
  8
1
 62
7
 10
-185.0364308154727
 20
-143.1000245422174
 30
0
 11
-180.2150371289633
 21
-145.8836574849928
 31
0
  0
LINE
  8
1
 62
7
 10
-185.0364308154727
 20
-70.83411040213639
 30
0
 11
-180.2150371289632
 21
-68.05047745936099
 31
0
  0
LINE
  8
1
 62
7
 10
-175.7864308154727
 20
-86.8555803721485
 30
0
 11
-170.9650371289633
 21
-84.0719474293731
 31
0
  0
LINE
  8
1
 62
7
 10
-224.120548288488
 20
-81.46706747217687
 30
0
 11
-224.120548288488
 21
-53.43769162946106
 31
0
  0
LINE
  8
1
 62
7
 10
-224.120548288488
 20
-81.46706747217687
 30
0
 11
-234.120548288488
 21
-81.46706747217687
 31
0
  0
LINE
  8
1
 62
7
 10
-234.120548288488
 20
-81.46706747217687
 30
0
 11
-234.120548288488
 21
-53.43769162946106
 31
0
  0
LINE
  8
1
 62
7
 10
-224.120548288488
 20
-53.43769162946106
 30
0
 11
-234.120548288488
 21
-53.43769162946106
 31
0
  0
LINE
  8
1
 62
7
 10
-234.120548288488
 20
-80.96706747217685
 30
0
 11
-224.120548288488
 21
-80.96706747217685
 31
0
  0
LINE
  8
1
 62
7
 10
-253.7041960849912
 20
-115.3869404532547
 30
0
 11
-277.9783476170049
 21
-129.4016283746126
 31
0
  0
LINE
  8
1
 62
7
 10
-253.7041960849912
 20
-115.3869404532547
 30
0
 11
-248.7041960849912
 21
-124.0471944910991
 31
0
  0
LINE
  8
1
 62
7
 10
-248.7041960849912
 20
-124.0471944910991
 30
0
 11
-272.9783476170049
 21
-138.061882412457
 31
0
  0
LINE
  8
1
 62
7
 10
-277.9783476170049
 20
-129.4016283746126
 30
0
 11
-272.9783476170049
 21
-138.061882412457
 31
0
  0
LINE
  8
1
 62
7
 10
-249.1372087868834
 20
-124.2971944910991
 30
0
 11
-254.1372087868834
 21
-115.6369404532547
 31
0
  0
LINE
  8
1
 62
7
 10
-209.5369004919848
 20
-124.0471944910991
 30
0
 11
-185.2627489599711
 21
-138.061882412457
 31
0
  0
LINE
  8
1
 62
7
 10
-209.5369004919848
 20
-124.0471944910991
 30
0
 11
-204.5369004919848
 21
-115.3869404532547
 31
0
  0
LINE
  8
1
 62
7
 10
-204.5369004919848
 20
-115.3869404532547
 30
0
 11
-180.2627489599711
 21
-129.4016283746126
 31
0
  0
LINE
  8
1
 62
7
 10
-185.2627489599711
 20
-138.061882412457
 30
0
 11
-180.2627489599711
 21
-129.4016283746126
 31
0
  0
LINE
  8
1
 62
7
 10
-204.1038877900926
 20
-115.6369404532547
 30
0
 11
-209.1038877900926
 21
-124.2971944910991
 31
0
  0
LINE
  8
1
 62
7
 10
-207.4352998462866
 20
-112.9670674721769
 30
0
 11
-203.120548288488
 21
-112.9670674721769
 31
0
  0
LINE
  8
1
 62
7
 10
-203.120548288488
 20
-112.9670674721769
 30
0
 11
-203.120548288488
 21
-100.9670674721769
 31
0
  0
LINE
  8
1
 62
7
 10
-203.120548288488
 20
-100.9670674721769
 30
0
 11
-207.4352998462866
 21
-100.9670674721769
 31
0
  0
LINE
  8
1
 62
3
  6
DIVIDE
 10
-210.2774134555036
 20
-93.77857742721841
 30
0
 11
-199.8096591560326
 21
-87.73501666460797
 31
0
  0
LINE
  8
1
 62
3
  6
DIVIDE
 10
-208.2774134555036
 20
-97.24267904235616
 30
0
 11
-197.8096591560326
 21
-91.19911827974575
 31
0
  0
LINE
  8
1
 62
3
  6
DIVIDE
 10
-258.4314374209435
 20
-87.73501666460797
 30
0
 11
-247.9636831214725
 21
-93.77857742721841
 31
0
  0
LINE
  8
1
 62
3
  6
DIVIDE
 10
-260.4314374209435
 20
-91.19911827974575
 30
0
 11
-249.9636831214725
 21
-97.24267904235616
 31
0
  0
LINE
  8
1
 62
3
  6
DIVIDE
 10
-227.1205482884879
 20
-141.967067472177
 30
0
 11
-227.120548288488
 21
-129.8799459469562
 31
0
  0
LINE
  8
1
 62
3
  6
DIVIDE
 10
-231.120548288488
 20
-141.9670674721771
 30
0
 11
-231.120548288488
 21
-129.8799459469562
 31
0
  0
LINE
  8
1
 62
7
 10
-68.98475590929567
 20
-65.71706747217687
 30
0
 11
-3.657919892605314
 21
-65.71706747217692
 31
0
  0
LINE
  8
1
 62
7
 10
-3.657919892605314
 20
-65.71706747217692
 30
0
 11
-3.321337900950489
 21
-66.30004458263582
 31
0
  0
LINE
  8
1
 62
7
 10
13.0048811196225
 20
-66.30004458263582
 30
0
 11
13.67866209904951
 21
-67.46706747217692
 31
0
  0
LINE
  8
1
 62
7
 10
13.67866209904951
 20
-67.46706747217692
 30
0
 11
16.17866209904951
 21
-67.46706747217692
 31
0
  0
LINE
  8
1
 62
7
 10
56.67866209904952
 20
-68.46706747217692
 30
0
 11
56.67866209904952
 21
-75.96706747217692
 31
0
  0
LINE
  8
1
 62
7
 10
56.67866209904952
 20
-75.96706747217692
 30
0
 11
57.67866209904952
 21
-76.96706747217692
 31
0
  0
LINE
  8
1
 62
7
 10
57.67866209904952
 20
-76.96706747217692
 30
0
 11
57.67866209904952
 21
-136.967067472177
 31
0
  0
LINE
  8
1
 62
7
 10
-130.3213379009505
 20
-84.46706747217687
 30
0
 11
-70.32133790095048
 21
-84.46706747217688
 31
0
  0
LINE
  8
1
 62
3
 10
-3.321337900950489
 20
-66.30004458263582
 30
0
 11
-2.908605500074167
 21
-67.01491807088351
 31
0
  0
LINE
  8
1
 62
7
 10
-3.657919892605314
 20
-148.217067472177
 30
0
 11
-8.742203674954938
 21
-148.217067472177
 31
0
  0
LINE
  8
1
 62
7
 10
-3.321337900950489
 20
-147.6340903617181
 30
0
 11
-3.657919892605314
 21
-148.217067472177
 31
0
  0
LINE
  8
1
 62
7
 10
13.0048811196225
 20
-147.6340903617181
 30
0
 11
-3.321337900950489
 21
-147.6340903617181
 31
0
  0
LINE
  8
1
 62
7
 10
13.67866209904951
 20
-146.467067472177
 30
0
 11
13.0048811196225
 21
-147.6340903617181
 31
0
  0
LINE
  8
1
 62
7
 10
57.67866209904952
 20
-136.967067472177
 30
0
 11
56.83746012118662
 21
-137.8082694500399
 31
0
  0
LINE
  8
1
 62
3
 10
-2.908605500074167
 20
-146.9192168734703
 30
0
 11
1.178662099049511
 21
-146.9192168734703
 31
0
  0
LINE
  8
1
 62
3
 10
-2.908605500074167
 20
-146.9192168734703
 30
0
 11
-3.321337900950489
 21
-147.6340903617181
 31
0
  0
LINE
  8
1
 62
7
 10
56.67866209904952
 20
-68.46706747217692
 30
0
 11
55.67866209904952
 21
-67.46706747217692
 31
0
  0
LINE
  8
1
 62
7
 10
56.67866209904952
 20
-145.4670674721769
 30
0
 11
56.44857800180486
 21
-145.6971515694216
 31
0
  0
LINE
  8
1
 62
7
 10
12.67866209904951
 20
-71.96706747217692
 30
0
 11
56.67866209904952
 21
-71.96706747217692
 31
0
  0
LINE
  8
1
 62
7
 10
-6.321337900950489
 20
-132.467067472177
 30
0
 11
57.67866209904952
 21
-132.467067472177
 31
0
  0
LINE
  8
1
 62
3
  6
DASHDOT
 10
17.67866209904951
 20
-83.96706747217692
 30
0
 11
42.67866209904952
 21
-83.96706747217692
 31
0
  0
LINE
  8
1
 62
3
  6
DASHDOT
 10
42.67866209904952
 20
-83.96706747217692
 30
0
 11
42.67866209904952
 21
-129.9670674721769
 31
0
  0
LINE
  8
1
 62
3
  6
DASHDOT
 10
23.67866209904951
 20
-83.96706747217692
 30
0
 11
23.67866209904951
 21
-71.96706747217692
 31
0
  0
LINE
  8
1
 62
3
  6
DASHDOT
 10
27.67866209904951
 20
-71.96706747217692
 30
0
 11
27.67866209904951
 21
-83.96706747217692
 31
0
  0
LINE
  8
1
 62
3
  6
DASHDOT
 10
33.67866209904952
 20
-83.96706747217692
 30
0
 11
33.67866209904952
 21
-71.96706747217692
 31
0
  0
LINE
  8
1
 62
3
  6
DASHDOT
 10
37.67866209904952
 20
-71.96706747217692
 30
0
 11
37.67866209904952
 21
-83.96706747217692
 31
0
  0
LINE
  8
1
 62
3
  6
DASHDOT
 10
17.67866209904951
 20
-129.9670674721769
 30
0
 11
17.67866209904951
 21
-83.96706747217692
 31
0
  0
LINE
  8
1
 62
3
  6
DASHDOT
 10
42.67866209904952
 20
-129.9670674721769
 30
0
 11
17.67866209904951
 21
-129.9670674721769
 31
0
  0
LINE
  8
1
 62
7
 10
40.17866209904952
 20
-163.4670674721769
 30
0
 11
44.67866209904952
 21
-163.4670674721769
 31
0
  0
LINE
  8
1
 62
7
 10
46.67866209904952
 20
-161.4670674721769
 30
0
 11
46.67866209904952
 21
-147.658249941483
 31
0
  0
LINE
  8
1
 62
7
 10
46.67866209904952
 20
-151.9670674721769
 30
0
 11
42.17866209904952
 21
-147.4670674721769
 31
0
  0
LINE
  8
1
 62
7
 10
42.17866209904952
 20
-147.4670674721769
 30
0
 11
42.17866209904952
 21
-146.4670674721769
 31
0
  0
LINE
  8
1
 62
7
 10
46.67866209904952
 20
-161.4670674721769
 30
0
 11
44.67866209904952
 21
-163.4670674721769
 31
0
  0
LINE
  8
1
 62
7
 10
54.81426665065295
 20
-157.4387923567198
 30
0
 11
57.11182385966774
 21
-140.9320897522835
 31
0
  0
LINE
  8
1
 62
7
 10
49.28887481251347
 20
-133.0238493001246
 30
0
 11
-20.63925106315724
 21
-141.9852784002374
 31
0
  0
LINE
  8
1
 62
7
 10
39.38020958809339
 20
-144.0516348559546
 30
0
 11
-5.28433759960971
 21
-144.5138643432365
 31
0
  0
LINE
  8
1
 62
7
 10
-8.719727431642482
 20
-148.4585705765785
 30
0
 11
-8.426715879435555
 21
-150.7450082057613
 31
0
  0
LINE
  8
1
 62
7
 10
45.60928960463365
 20
-146.467067472177
 30
0
 11
19.17866209904951
 21
-146.467067472177
 31
0
  0
LINE
  8
1
 62
7
 10
56.67866209904952
 20
-144.0441221030275
 30
0
 11
56.67866209904952
 21
-145.4670674721769
 31
0
  0
LINE
  8
1
 62
7
 10
40.17866209904952
 20
-146.4670674721769
 30
0
 11
40.17866209904952
 21
-169.4670674721769
 31
0
  0
LINE
  8
1
 62
7
 10
40.17866209904952
 20
-169.4670674721769
 30
0
 11
19.17866209904951
 21
-169.4670674721769
 31
0
  0
LINE
  8
1
 62
7
 10
19.17866209904951
 20
-169.4670674721769
 30
0
 11
19.17866209904951
 21
-145.4670674721769
 31
0
  0
LINE
  8
1
 62
3
 10
40.17866209904952
 20
-169.4670674721769
 30
0
 11
19.17866209904951
 21
-146.467067472177
 31
0
  0
LINE
  8
1
 62
3
 10
19.17866209904951
 20
-169.4670674721769
 30
0
 11
40.17866209904952
 21
-146.4670674721769
 31
0
  0
LINE
  8
1
 62
7
 10
44.67866209904952
 20
-50.46706747217692
 30
0
 11
40.17866209904952
 21
-50.46706747217692
 31
0
  0
LINE
  8
1
 62
7
 10
44.67866209904952
 20
-50.46706747217692
 30
0
 11
46.67866209904952
 21
-52.46706747217692
 31
0
  0
LINE
  8
1
 62
7
 10
46.67866209904952
 20
-67.46706747217692
 30
0
 11
46.67866209904952
 21
-52.46706747217692
 31
0
  0
LINE
  8
1
 62
7
 10
42.17866209904952
 20
-66.46706747217692
 30
0
 11
46.67866209904952
 21
-61.96706747217692
 31
0
  0
LINE
  8
1
 62
7
 10
40.17866209904952
 20
-44.46706747217692
 30
0
 11
40.17866209904952
 21
-71.56706747217692
 31
0
  0
LINE
  8
1
 62
7
 10
42.17866209904952
 20
-66.46706747217692
 30
0
 11
42.17866209904952
 21
-71.56706747217692
 31
0
  0
LINE
  8
1
 62
7
 10
42.17866209904952
 20
-67.46706747217692
 30
0
 11
55.67866209904952
 21
-67.46706747217692
 31
0
  0
LINE
  8
1
 62
3
 10
40.17866209904952
 20
-71.56706747217692
 30
0
 11
19.17866209904951
 21
-44.46706747217692
 31
0
  0
LINE
  8
1
 62
7
 10
19.17866209904951
 20
-44.46706747217692
 30
0
 11
40.17866209904952
 21
-44.46706747217692
 31
0
  0
LINE
  8
1
 62
7
 10
42.17866209904952
 20
-71.56706747217692
 30
0
 11
19.17866209904951
 21
-71.56706747217692
 31
0
  0
LINE
  8
1
 62
7
 10
19.17866209904951
 20
-71.56706747217692
 30
0
 11
19.17866209904951
 21
-44.46706747217692
 31
0
  0
LINE
  8
1
 62
3
 10
40.17866209904952
 20
-44.46706747217692
 30
0
 11
19.17866209904951
 21
-71.56706747217692
 31
0
  0
LINE
  8
1
 62
7
 10
19.17866209904951
 20
-163.4670674721769
 30
0
 11
16.17866209904951
 21
-163.4670674721769
 31
0
  0
LINE
  8
1
 62
7
 10
16.17866209904951
 20
-163.4670674721769
 30
0
 11
16.17866209904951
 21
-160.2170674721769
 31
0
  0
LINE
  8
1
 62
7
 10
16.17866209904951
 20
-145.4670674721769
 30
0
 11
19.17866209904951
 21
-145.4670674721769
 31
0
  0
LINE
  8
1
 62
7
 10
16.17866209904951
 20
-146.467067472177
 30
0
 11
13.67866209904951
 21
-146.467067472177
 31
0
  0
LINE
  8
1
 62
7
 10
42.17866209904952
 20
-146.5670674721769
 30
0
 11
19.17866209904951
 21
-146.5670674721769
 31
0
  0
LINE
  8
1
 62
7
 10
19.17866209904951
 20
-160.4670674721769
 30
0
 11
16.17866209904951
 21
-160.4670674721769
 31
0
  0
LINE
  8
1
 62
7
 10
16.17866209904951
 20
-153.4670674721769
 30
0
 11
19.17866209904951
 21
-153.4670674721769
 31
0
  0
LINE
  8
1
 62
7
 10
16.17866209904951
 20
-50.46706747217692
 30
0
 11
19.17866209904951
 21
-50.46706747217692
 31
0
  0
LINE
  8
1
 62
7
 10
16.17866209904951
 20
-71.46706747217692
 30
0
 11
16.17866209904951
 21
-50.46706747217692
 31
0
  0
LINE
  8
1
 62
7
 10
16.17866209904951
 20
-71.46706747217692
 30
0
 11
19.17866209904951
 21
-71.46706747217692
 31
0
  0
LINE
  8
1
 62
7
 10
16.17866209904951
 20
-53.46706747217692
 30
0
 11
19.17866209904951
 21
-53.46706747217692
 31
0
  0
LINE
  8
1
 62
7
 10
19.17866209904951
 20
-60.46706747217692
 30
0
 11
16.17866209904951
 21
-60.46706747217692
 31
0
  0
LINE
  8
1
 62
7
 10
16.17866209904951
 20
-162.4670674721769
 30
0
 11
15.17866209904951
 21
-163.4670674721769
 31
0
  0
LINE
  8
1
 62
7
 10
15.17866209904951
 20
-163.4670674721769
 30
0
 11
1.178662099049511
 21
-163.4670674721769
 31
0
  0
LINE
  8
1
 62
7
 10
-1.821337900950489
 20
-161.4670674721769
 30
0
 11
-1.821337900950489
 21
-147.6340903617181
 31
0
  0
LINE
  8
1
 62
7
 10
-1.821337900950489
 20
-161.4670674721769
 30
0
 11
-0.8213379009504891
 21
-162.4670674721769
 31
0
  0
LINE
  8
1
 62
7
 10
1.178662099049511
 20
-163.4670674721769
 30
0
 11
1.178662099049511
 21
-146.9192168734703
 31
0
  0
LINE
  8
1
 62
3
 10
13.0048811196225
 20
-147.6340903617181
 30
0
 11
16.17866209904951
 21
-147.6340903617181
 31
0
  0
LINE
  8
1
 62
7
 10
1.178662099049511
 20
-146.9192168734703
 30
0
 11
16.17866209904951
 21
-146.9192168734703
 31
0
  0
LINE
  8
1
 62
7
 10
-1.821337900950489
 20
-148.9670674721769
 30
0
 11
1.178662099049511
 21
-148.9670674721769
 31
0
  0
LINE
  8
1
 62
7
 10
16.17866209904951
 20
-67.01491807088351
 30
0
 11
1.178662099049511
 21
-67.01491807088351
 31
0
  0
LINE
  8
1
 62
7
 10
-3.321337900950489
 20
-66.30004458263582
 30
0
 11
13.0048811196225
 21
-66.30004458263582
 31
0
  0
LINE
  8
1
 62
3
 10
16.17866209904951
 20
-66.30004458263582
 30
0
 11
13.0048811196225
 21
-66.30004458263582
 31
0
  0
LINE
  8
1
 62
3
 10
1.178662099049511
 20
-67.01491807088351
 30
0
 11
-2.908605500074167
 21
-67.01491807088351
 31
0
  0
LINE
  8
1
 62
7
 10
15.17866209904951
 20
-50.46706747217692
 30
0
 11
16.17866209904951
 21
-51.46706747217692
 31
0
  0
LINE
  8
1
 62
7
 10
0.1786620990495109
 20
-50.46706747217692
 30
0
 11
15.17866209904951
 21
-50.46706747217692
 31
0
  0
LINE
  8
1
 62
7
 10
-1.821337900950489
 20
-66.30004458263582
 30
0
 11
-1.821337900950489
 21
-52.46706747217692
 31
0
  0
LINE
  8
1
 62
7
 10
0.1786620990495109
 20
-50.46706747217692
 30
0
 11
-1.821337900950489
 21
-52.46706747217692
 31
0
  0
LINE
  8
1
 62
7
 10
1.178662099049511
 20
-64.96706747217692
 30
0
 11
-1.821337900950489
 21
-64.96706747217692
 31
0
  0
LINE
  8
1
 62
7
 10
1.178662099049511
 20
-64.96706747217692
 30
0
 11
1.178662099049511
 21
-67.01491807088351
 31
0
  0
LINE
  8
1
 62
7
 10
16.17866209904951
 20
-160.9670674721769
 30
0
 11
3.678662099049511
 21
-160.9670674721769
 31
0
  0
LINE
  8
1
 62
7
 10
3.678662099049511
 20
-160.9670674721769
 30
0
 11
3.678662099049511
 21
-159.7170674721769
 31
0
  0
LINE
  8
1
 62
7
 10
3.678662099049511
 20
-152.9670674721769
 30
0
 11
16.17866209904951
 21
-152.9670674721769
 31
0
  0
LINE
  8
1
 62
7
 10
11.47866209904951
 20
-154.217067472177
 30
0
 11
1.178662099049511
 21
-154.2170674721769
 31
0
  0
LINE
  8
1
 62
7
 10
3.678662099049511
 20
-154.2170674721769
 30
0
 11
3.678662099049511
 21
-152.9670674721769
 31
0
  0
LINE
  8
1
 62
7
 10
11.47866209904951
 20
-160.9670674721769
 30
0
 11
11.47866209904951
 21
-152.9670674721769
 31
0
  0
LINE
  8
1
 62
7
 10
11.47866209904951
 20
-159.717067472177
 30
0
 11
1.178662099049511
 21
-159.7170674721769
 31
0
  0
LINE
  8
1
 62
7
 10
15.97866209904951
 20
-160.9670674721769
 30
0
 11
15.97866209904951
 21
-152.9670674721769
 31
0
  0
LINE
  8
1
 62
7
 10
15.97866209904951
 20
-160.2170674721769
 30
0
 11
18.97866209904951
 21
-160.2170674721769
 31
0
  0
LINE
  8
1
 62
7
 10
18.97866209904951
 20
-160.2170674721769
 30
0
 11
18.97866209904951
 21
-153.7170674721769
 31
0
  0
LINE
  8
1
 62
7
 10
18.97866209904951
 20
-153.7170674721769
 30
0
 11
15.97866209904951
 21
-153.7170674721769
 31
0
  0
LINE
  8
1
 62
7
 10
16.17866209904951
 20
-153.7170674721769
 30
0
 11
16.17866209904951
 21
-145.4670674721769
 31
0
  0
LINE
  8
1
 62
7
 10
11.17873725458089
 20
-160.310352736853
 30
0
 11
11.19201976050648
 21
-159.7170674721769
 31
0
  0
LINE
  8
1
 62
7
 10
10.56005045167834
 20
-160.3511732704048
 30
0
 11
10.63260982162482
 21
-159.7170674721769
 31
0
  0
LINE
  8
1
 62
7
 10
9.96394041308735
 20
-160.2829616739491
 30
0
 11
10.0286944759767
 21
-159.7170674721769
 31
0
  0
LINE
  8
1
 62
7
 10
9.026717118345012
 20
-160.3511732704048
 30
0
 11
9.099276488291473
 21
-159.7170674721769
 31
0
  0
LINE
  8
1
 62
7
 10
8.430607079754005
 20
-160.2829616739491
 30
0
 11
8.495361142643354
 21
-159.7170674721769
 31
0
  0
LINE
  8
1
 62
7
 10
7.49338378501168
 20
-160.3511732704048
 30
0
 11
7.565943154958156
 21
-159.7170674721769
 31
0
  0
LINE
  8
1
 62
7
 10
6.897273746420673
 20
-160.2829616739491
 30
0
 11
6.962027809310023
 21
-159.7170674721769
 31
0
  0
LINE
  8
1
 62
7
 10
5.960050451678349
 20
-160.3511732704048
 30
0
 11
6.03260982162481
 21
-159.7170674721769
 31
0
  0
LINE
  8
1
 62
7
 10
5.363940413087342
 20
-160.2829616739491
 30
0
 11
5.428694475976691
 21
-159.7170674721769
 31
0
  0
LINE
  8
1
 62
7
 10
4.426717118345017
 20
-160.3511732704048
 30
0
 11
4.499276488291478
 21
-159.7170674721769
 31
0
  0
LINE
  8
1
 62
7
 10
3.83060707975401
 20
-160.2829616739491
 30
0
 11
3.895361142643345
 21
-159.7170674721769
 31
0
  0
LINE
  8
1
 62
7
 10
3.82858694351814
 20
-160.3237822075009
 30
0
 11
3.842170109234338
 21
-159.7170674721769
 31
0
  0
LINE
  8
1
 62
7
 10
3.965304437592558
 20
-154.2170674721769
 30
0
 11
3.978586943518131
 21
-153.6237822075009
 31
0
  0
LINE
  8
1
 62
7
 10
4.524714376474201
 20
-154.2170674721769
 30
0
 11
4.597273746420662
 21
-153.5829616739491
 31
0
  0
LINE
  8
1
 62
7
 10
5.128629722122334
 20
-154.2170674721769
 30
0
 11
5.193383785011669
 21
-153.6511732704048
 31
0
  0
LINE
  8
1
 62
7
 10
6.058047709807546
 20
-154.2170674721769
 30
0
 11
6.130607079754007
 21
-153.5829616739491
 31
0
  0
LINE
  8
1
 62
7
 10
6.661963055455665
 20
-154.2170674721769
 30
0
 11
6.726717118345
 21
-153.6511732704048
 31
0
  0
LINE
  8
1
 62
7
 10
7.591381043140878
 20
-154.2170674721769
 30
0
 11
7.663940413087339
 21
-153.5829616739491
 31
0
  0
LINE
  8
1
 62
7
 10
8.195296388788997
 20
-154.2170674721769
 30
0
 11
8.260050451678346
 21
-153.6511732704048
 31
0
  0
LINE
  8
1
 62
7
 10
9.124714376474209
 20
-154.2170674721769
 30
0
 11
9.19727374642067
 21
-153.5829616739491
 31
0
  0
LINE
  8
1
 62
7
 10
9.728629722122328
 20
-154.2170674721769
 30
0
 11
9.793383785011677
 21
-153.6511732704048
 31
0
  0
LINE
  8
1
 62
7
 10
10.65804770980754
 20
-154.2170674721769
 30
0
 11
10.73060707975402
 21
-153.5829616739491
 31
0
  0
LINE
  8
1
 62
7
 10
11.26196305545566
 20
-154.2170674721769
 30
0
 11
11.32671711834501
 21
-153.6511732704048
 31
0
  0
LINE
  8
1
 62
7
 10
11.31515408886468
 20
-154.2170674721769
 30
0
 11
11.32873725458089
 21
-153.610352736853
 31
0
  0
LINE
  8
1
 62
7
 10
1.178662099049511
 20
-163.4670674721769
 30
0
 11
1.178662099049511
 21
-169.9670674721769
 31
0
  0
LINE
  8
1
 62
7
 10
-0.8213379009504891
 20
-169.9670674721769
 30
0
 11
-0.8213379009504891
 21
-151.9670674721769
 31
0
  0
LINE
  8
1
 62
7
 10
-0.8213379009504891
 20
-169.9670674721769
 30
0
 11
1.178662099049511
 21
-169.9670674721769
 31
0
  0
LINE
  8
1
 62
7
 10
-0.8213379009504891
 20
-151.9670674721769
 30
0
 11
1.178662099049511
 21
-151.9670674721769
 31
0
  0
LINE
  8
1
 62
7
 10
11.67866209904951
 20
-50.46706747217692
 30
0
 11
11.67866209904951
 21
-60.46706747217692
 31
0
  0
LINE
  8
1
 62
7
 10
11.67866209904951
 20
-60.46706747217692
 30
0
 11
2.678662099049511
 21
-60.46706747217692
 31
0
  0
LINE
  8
1
 62
7
 10
2.678662099049511
 20
-60.46706747217692
 30
0
 11
2.678662099049511
 21
-50.46706747217692
 31
0
  0
LINE
  8
1
 62
7
 10
11.67866209904951
 20
-60.46706747217692
 30
0
 11
7.178662099049511
 21
-63.06514368353021
 31
0
  0
LINE
  8
1
 62
7
 10
7.178662099049511
 20
-63.06514368353021
 30
0
 11
2.678662099049511
 21
-60.46706747217692
 31
0
  0
LINE
  8
1
 62
7
 10
57.67866209904952
 20
-129.467067472177
 30
0
 11
-2.321337900950489
 21
-129.4670674721769
 31
0
  0
LINE
  8
1
 62
7
 10
-2.321337900950489
 20
-84.46706747217691
 30
0
 11
57.67866209904952
 21
-84.46706747217692
 31
0
  0
LINE
  8
1
 62
7
 10
-70.32133790095048
 20
-129.4670674721769
 30
0
 11
-130.3213379009505
 21
-129.4670674721769
 31
0
  0
LINE
  8
1
 62
7
 10
-70.32133790095048
 20
-129.9670674721769
 30
0
 11
-2.321337900950489
 21
-129.9670674721769
 31
0
  0
LINE
  8
1
 62
7
 10
-2.321337900950489
 20
-129.9670674721769
 30
0
 11
-2.321337900950489
 21
-83.96706747217691
 31
0
  0
LINE
  8
1
 62
7
 10
-2.321337900950489
 20
-83.96706747217691
 30
0
 11
-70.32133790095048
 21
-83.96706747217691
 31
0
  0
LINE
  8
1
 62
7
 10
-70.32133790095048
 20
-83.96706747217691
 30
0
 11
-70.32133790095048
 21
-129.9670674721769
 31
0
  0
LINE
  8
1
 62
7
 10
-18.20603227907937
 20
-148.2170674721769
 30
0
 11
-68.98475590929567
 21
-148.2170674721769
 31
0
  0
LINE
  8
1
 62
7
 10
-38.32133790095048
 20
-45.96706747217688
 30
0
 11
-36.32133790095048
 21
-47.96706747217688
 31
0
  0
LINE
  8
1
 62
7
 10
-38.32133790095048
 20
-167.9670674721769
 30
0
 11
-36.32133790095048
 21
-165.9670674721769
 31
0
  0
LINE
  8
1
 62
3
  6
DASHDOT
 10
60.17866209904952
 20
-106.9670674721769
 30
0
 11
57.67866209904952
 21
-106.9670674721769
 31
0
  0
LINE
  8
1
 62
3
  6
DASHDOT
 10
-130.3213379009505
 20
-106.9670674721769
 30
0
 11
-132.8213379009505
 21
-106.9670674721769
 31
0
  0
ARC
  8
1
 62
7
 10
-229.120548288488
 20
-106.9670674721769
 30
0
 40
39.6000000000001
 50
156.889187799489
 51
202.7463233050476
  0
ARC
  8
1
 62
7
 10
-229.120548288488
 20
-106.9670674721769
 30
0
 40
39.60000000000002
 50
97.25367669495253
 51
143.110812200511
  0
ARC
  8
1
 62
7
 10
-229.120548288488
 20
-106.9670674721769
 30
0
 40
39.59999999999998
 50
337.2536766949523
 51
23.11081220051098
  0
ARC
  8
1
 62
7
 10
-229.120548288488
 20
-106.9670674721769
 30
0
 40
39.60000000000002
 50
36.88918779948905
 51
82.7463233050476
  0
ARC
  8
1
 62
7
 10
-229.120548288488
 20
-106.9670674721769
 30
0
 40
39.60000000000007
 50
217.2536766949524
 51
263.110812200511
  0
ARC
  8
1
 62
7
 10
-85.32133790095048
 20
-181.9670674721769
 30
0
 40
39.99999999999999
 50
57.53825503275765
 51
90
  0
ARC
  8
1
 62
7
 10
-66.32133790095048
 20
-41.46706747217687
 30
0
 40
39.99999999999999
 50
270
 51
322.6811553253516
  0
ARC
  8
1
 62
7
 10
-122.8024062468356
 20
-56.93769162946106
 30
0
 40
3.499999999999976
 50
337.7954557545488
 51
168.0759486234148
  0
ARC
  8
1
 62
7
 10
-122.8213379009505
 20
-73.96706747217687
 30
0
 40
7.000000000000056
 50
168.0759486234146
 51
273.3027646452586
  0
ARC
  8
1
 62
7
 10
-111.2293985646801
 20
-61.66161935845629
 30
0
 40
9.000000000000043
 50
157.7954557545492
 51
266.5929278375016
  0
ARC
  8
1
 62
7
 10
-62.10937998113242
 20
-67.21706747217687
 30
0
 40
1.5
 50
75.99431641889125
 51
183.3027646452584
  0
ARC
  8
1
 62
7
 10
-52.09276253734166
 20
-75.89544166675243
 30
0
 40
1.000000000000002
 50
273.3027646452591
 51
18.4052083348187
  0
ARC
  8
1
 62
7
 10
-65.37662493906447
 20
-80.31573573978589
 30
0
 40
14.99999999999999
 50
18.40520833481895
 51
75.99431641889137
  0
ARC
  8
1
 62
7
 10
-84.12133790095048
 20
-53.61706747217689
 30
0
 40
0.2999999999999901
 50
270
 51
90
  0
ARC
  8
1
 62
7
 10
-84.27133790095049
 20
-60.3170674721769
 30
0
 40
0.2999999999999831
 50
300.0000000000031
 51
60.00000000000097
  0
ARC
  8
1
 62
7
 10
-76.17133790095049
 20
-53.61706747217689
 30
0
 40
0.2999999999999945
 50
119.9999999999987
 51
240.0000000000013
  0
ARC
  8
1
 62
7
 10
-76.32133790095048
 20
-60.3170674721769
 30
0
 40
0.3000000000000327
 50
90
 51
270
  0
ARC
  8
1
 62
7
 10
-229.120548288488
 20
-106.9670674721769
 30
0
 40
38.49999999999992
 50
217.4620876856188
 51
262.5379123143813
  0
ARC
  8
1
 62
7
 10
-229.120548288488
 20
-106.9670674721769
 30
0
 40
39.49999999999999
 50
217.2721395549394
 51
262.7278604450607
  0
ARC
  8
1
 62
7
 10
-229.120548288488
 20
-106.9670674721769
 30
0
 40
39.49999999999997
 50
337.2721395549393
 51
22.72786044506071
  0
ARC
  8
1
 62
7
 10
-229.120548288488
 20
-106.9670674721769
 30
0
 40
38.50000000000002
 50
337.4620876856186
 51
22.53791231438134
  0
ARC
  8
1
 62
7
 10
-229.120548288488
 20
-106.9670674721769
 30
0
 40
38.49999999999996
 50
97.4620876856186
 51
142.5379123143812
  0
ARC
  8
1
 62
7
 10
-229.120548288488
 20
-106.9670674721769
 30
0
 40
39.49999999999999
 50
97.27213955493927
 51
142.7278604450606
  0
ARC
  8
1
 62
7
 10
-229.120548288488
 20
-106.9670674721769
 30
0
 40
62.50000000000001
 50
81.48895862481135
 51
98.51104137518865
  0
ARC
  8
1
 62
7
 10
-229.120548288488
 20
-106.9670674721769
 30
0
 40
57.00000000000004
 50
39.3393011715853
 51
80.66069882841467
  0
ARC
  8
1
 62
7
 10
-229.120548288488
 20
-106.9670674721769
 30
0
 40
62.49999999999998
 50
141.4889586248113
 51
158.5110413751887
  0
ARC
  8
1
 62
7
 10
-229.120548288488
 20
-106.9670674721769
 30
0
 40
62.49999999999996
 50
201.4889586248113
 51
218.5110413751886
  0
ARC
  8
1
 62
7
 10
-229.120548288488
 20
-106.9670674721769
 30
0
 40
62.49999999999998
 50
261.4889586248114
 51
278.5110413751887
  0
ARC
  8
1
 62
7
 10
-229.120548288488
 20
-106.9670674721769
 30
0
 40
62.49999999999998
 50
321.4889586248113
 51
338.5110413751887
  0
ARC
  8
1
 62
7
 10
-229.120548288488
 20
-106.9670674721769
 30
0
 40
62.49999999999999
 50
21.48895862481133
 51
38.5110413751886
  0
ARC
  8
1
 62
7
 10
-229.120548288488
 20
-106.9670674721769
 30
0
 40
57.00000000000006
 50
339.3393011715853
 51
20.66069882841463
  0
ARC
  8
1
 62
7
 10
-229.120548288488
 20
-106.9670674721769
 30
0
 40
56.99999999999998
 50
279.3393011715854
 51
320.6606988284147
  0
ARC
  8
1
 62
7
 10
-229.120548288488
 20
-106.9670674721769
 30
0
 40
57.00000000000001
 50
219.3393011715853
 51
260.6606988284146
  0
ARC
  8
1
 62
7
 10
-229.120548288488
 20
-106.9670674721769
 30
0
 40
57.00000000000003
 50
159.3393011715854
 51
200.6606988284147
  0
ARC
  8
1
 62
7
 10
-229.120548288488
 20
-106.9670674721769
 30
0
 40
57.00000000000001
 50
99.33930117158535
 51
140.6606988284147
  0
ARC
  8
1
 62
7
 10
-229.120548288488
 20
-106.9670674721769
 30
0
 40
30.00000000000004
 50
339.5940682268604
 51
80.40593177313954
  0
ARC
  8
1
 62
7
 10
-229.120548288488
 20
-106.9670674721769
 30
0
 40
30.00000000000001
 50
99.59406822686046
 51
180
  0
ARC
  8
1
 62
7
 10
-229.120548288488
 20
-106.9670674721769
 30
0
 40
31
 50
339.2817990866774
 51
80.71820091332246
  0
ARC
  8
1
 62
7
 10
-229.120548288488
 20
-106.9670674721769
 30
0
 40
31.00000000000001
 50
99.28179908667752
 51
180
  0
ARC
  8
1
 62
7
 10
-229.120548288488
 20
-106.9670674721769
 30
0
 40
38.49999999999998
 50
37.46208768561851
 51
82.5379123143814
  0
ARC
  8
1
 62
7
 10
-229.120548288488
 20
-106.9670674721769
 30
0
 40
39.50000000000001
 50
37.27213955493921
 51
82.72786044506071
  0
ARC
  8
1
 62
7
 10
-229.120548288488
 20
-106.9670674721769
 30
0
 40
40.50000000000002
 50
337.0916460843937
 51
82.90835391560627
  0
ARC
  8
1
 62
7
 10
-229.120548288488
 20
-106.9670674721769
 30
0
 40
44.99999999999995
 50
336.3793702084428
 51
83.62062979155721
  0
ARC
  8
1
 62
7
 10
-229.120548288488
 20
-106.9670674721769
 30
0
 40
29.99999999999998
 50
219.5940682268605
 51
320.4059317731393
  0
ARC
  8
1
 62
7
 10
-229.120548288488
 20
-106.9670674721769
 30
0
 40
30.99999999999994
 50
219.2817990866775
 51
320.7182009133223
  0
ARC
  8
1
 62
7
 10
-229.120548288488
 20
-106.9670674721769
 30
0
 40
38.50000000000002
 50
277.4620876856186
 51
322.5379123143813
  0
ARC
  8
1
 62
7
 10
-229.120548288488
 20
-106.9670674721769
 30
0
 40
40.5
 50
217.0916460843938
 51
322.9083539156061
  0
ARC
  8
1
 62
7
 10
-229.120548288488
 20
-106.9670674721769
 30
0
 40
44.99999999999996
 50
216.3793702084429
 51
323.6206297915571
  0
ARC
  8
1
 62
7
 10
-229.120548288488
 20
-106.9670674721769
 30
0
 40
39.49999999999999
 50
277.2721395549393
 51
322.7278604450606
  0
ARC
  8
1
 62
7
 10
-229.120548288488
 20
-106.9670674721769
 30
0
 40
39.60000000000009
 50
276.889187799489
 51
322.7463233050476
  0
ARC
  8
1
 62
7
 10
-229.120548288488
 20
-106.9670674721769
 30
0
 40
45.00000000000003
 50
96.37937020844279
 51
203.6206297915572
  0
ARC
  8
1
 62
7
 10
-229.120548288488
 20
-106.9670674721769
 30
0
 40
40.50000000000003
 50
97.09164608439373
 51
202.9083539156063
  0
ARC
  8
1
 62
7
 10
-229.120548288488
 20
-106.9670674721769
 30
0
 40
38.49999999999992
 50
157.4620876856184
 51
202.5379123143815
  0
ARC
  8
1
 62
7
 10
-229.120548288488
 20
-106.9670674721769
 30
0
 40
31
 50
180
 51
200.7182009133224
  0
ARC
  8
1
 62
7
 10
-229.120548288488
 20
-106.9670674721769
 30
0
 40
30
 50
180
 51
200.4059317731395
  0
ARC
  8
1
 62
7
 10
-229.120548288488
 20
-106.9670674721769
 30
0
 40
39.50000000000001
 50
157.2721395549391
 51
202.7278604450608
  0
ARC
  8
1
 62
7
 10
-229.120548288488
 20
-106.9670674721769
 30
0
 40
22.49999999999998
 50
15.46600995342057
 51
344.5339900465795
  0
ARC
  8
1
 62
7
 10
12.67866209904951
 20
-31.96706747217692
 30
0
 40
40.00000000000001
 50
237.5382550327577
 51
270
  0
ARC
  8
1
 62
7
 10
-6.321337900950489
 20
-172.467067472177
 30
0
 40
40
 50
90
 51
142.6811553253516
  0
ARC
  8
1
 62
7
 10
51.34768577034379
 20
-156.9562812166666
 30
0
 40
3.499999999999997
 50
161.7954557545472
 51
352.075948623416
  0
ARC
  8
1
 62
7
 10
50.17866209904952
 20
-139.967067472177
 30
0
 40
7.000000000000047
 50
352.075948623415
 51
97.30276464525852
  0
ARC
  8
1
 62
7
 10
39.4733448126479
 20
-153.0511529447162
 30
0
 40
9.000000000000021
 50
341.7954557545494
 51
90.59292783750139
  0
ARC
  8
1
 62
7
 10
-9.91454834487536
 20
-150.935676910019
 30
0
 40
1.499999999999971
 50
259.9943164188911
 51
7.302764645257163
  0
ARC
  8
1
 62
7
 10
-20.5121385936521
 20
-142.9771667105306
 30
0
 40
1.000000000000003
 50
97.3027646452579
 51
202.4052083348192
  0
ARC
  8
1
 62
7
 10
-7.568979140542151
 20
-137.6410048528495
 30
0
 40
15.00000000000001
 50
202.405208334819
 51
259.9943164188913
  0
ARC
  8
1
 62
7
 10
11.47866209904951
 20
-160.3170674721769
 30
0
 40
0.299999999999983
 50
90
 51
270
  0
ARC
  8
1
 62
7
 10
11.62866209904951
 20
-153.6170674721769
 30
0
 40
0.2999999999999805
 50
120.0000000000022
 51
240.0000000000059
  0
ARC
  8
1
 62
7
 10
3.528662099049505
 20
-160.3170674721769
 30
0
 40
0.3000000000000818
 50
299.9999999999923
 51
59.9999999999941
  0
ARC
  8
1
 62
7
 10
3.678662099049511
 20
-153.6170674721769
 30
0
 40
0.3000000000000114
 50
270
 51
90
  0
CIRCLE
  8
1
 62
7
 10
-122.8213379009505
 20
-73.96706747217687
 30
0
 40
3
  0
CIRCLE
  8
1
 62
7
 10
-82.90467123428381
 20
-53.61706747217689
 30
0
 40
0.2999999999999972
  0
CIRCLE
  8
1
 62
7
 10
-83.67133790095048
 20
-60.3170674721769
 30
0
 40
0.2999999999999972
  0
CIRCLE
  8
1
 62
7
 10
-81.37133790095048
 20
-53.61706747217689
 30
0
 40
0.2999999999999972
  0
CIRCLE
  8
1
 62
7
 10
-82.13800456761715
 20
-60.3170674721769
 30
0
 40
0.2999999999999972
  0
CIRCLE
  8
1
 62
7
 10
-79.83800456761716
 20
-53.61706747217689
 30
0
 40
0.299999999999983
  0
CIRCLE
  8
1
 62
7
 10
-80.60467123428381
 20
-60.3170674721769
 30
0
 40
0.2999999999999972
  0
CIRCLE
  8
1
 62
7
 10
-78.30467123428383
 20
-53.61706747217689
 30
0
 40
0.2999999999999687
  0
CIRCLE
  8
1
 62
7
 10
-79.07133790095048
 20
-60.3170674721769
 30
0
 40
0.2999999999999972
  0
CIRCLE
  8
1
 62
7
 10
-76.77133790095049
 20
-53.61706747217689
 30
0
 40
0.2999999999999972
  0
CIRCLE
  8
1
 62
7
 10
-77.53800456761715
 20
-60.3170674721769
 30
0
 40
0.3000000000000114
  0
CIRCLE
  8
1
 62
7
 10
-229.120548288488
 20
-106.9670674721769
 30
0
 40
54.50000000000011
  0
CIRCLE
  8
1
 62
7
 10
-229.120548288488
 20
-106.9670674721769
 30
0
 40
56.49999999999992
  0
CIRCLE
  8
1
 62
7
 10
50.17866209904952
 20
-139.967067472177
 30
0
 40
3
  0
CIRCLE
  8
1
 62
7
 10
10.26199543238284
 20
-160.3170674721769
 30
0
 40
0.3000000000000007
  0
CIRCLE
  8
1
 62
7
 10
11.02866209904951
 20
-153.6170674721769
 30
0
 40
0.2999999999999901
  0
CIRCLE
  8
1
 62
7
 10
8.728662099049508
 20
-160.3170674721769
 30
0
 40
0.2999999999999972
  0
CIRCLE
  8
1
 62
7
 10
9.495328765716174
 20
-153.6170674721769
 30
0
 40
0.2999999999999972
  0
CIRCLE
  8
1
 62
7
 10
7.195328765716177
 20
-160.3170674721769
 30
0
 40
0.2999999999999972
  0
CIRCLE
  8
1
 62
7
 10
7.961995432382842
 20
-153.6170674721769
 30
0
 40
0.2999999999999972
  0
CIRCLE
  8
1
 62
7
 10
5.661995432382845
 20
-160.3170674721769
 30
0
 40
0.299999999999983
  0
CIRCLE
  8
1
 62
7
 10
6.428662099049511
 20
-153.6170674721769
 30
0
 40
0.2999999999999972
  0
CIRCLE
  8
1
 62
7
 10
4.128662099049514
 20
-160.3170674721769
 30
0
 40
0.299999999999983
  0
CIRCLE
  8
1
 62
7
 10
4.895328765716165
 20
-153.6170674721769
 30
0
 40
0.3000000000000114
  0
POLYLINE
  8
1
 62
7
 66
1
  0
VERTEX
  8
1
 10
-71.82133790095048
 20
-54.21706747217688
 30
0
 42
-0.06350186446531864
  0
VERTEX
  8
1
 10
-71.73252232821342
 20
-54.22847889234404
 30
0
 42
-0.1024827257670475
  0
VERTEX
  8
1
 10
-71.55847619221856
 20
-54.31358610920717
 30
0
 42
-0.06611454789904495
  0
VERTEX
  8
1
 10
-71.39465730120337
 20
-54.47967895486427
 30
0
 42
-0.04407285697901391
  0
VERTEX
  8
1
 10
-71.24465026534639
 20
-54.72016868882854
 30
0
 42
-0.03156273916839306
  0
VERTEX
  8
1
 10
-71.11211437090299
 20
-55.02815085856666
 30
0
 42
-0.02429944155019654
  0
VERTEX
  8
1
 10
-71.00090243811398
 20
-55.394600724898
 30
0
 42
-0.0200007269264873
  0
VERTEX
  8
1
 10
-70.91437036250376
 20
-55.80858594503432
 30
0
 42
-0.01748505840764998
  0
VERTEX
  8
1
 10
-70.85516450567096
 20
-56.25763765875523
 30
0
 42
-0.01616025272517463
  0
VERTEX
  8
1
 10
-70.82510028719626
 20
-56.72817815979046
 30
0
 42
-0.01574624143274346
  0
VERTEX
  8
1
 10
-70.82510028719625
 20
-57.2059567845633
 30
0
 42
-0.0161607017579203
  0
VERTEX
  8
1
 10
-70.85516450567098
 20
-57.67649728559853
 30
0
 42
-0.01748621643004568
  0
VERTEX
  8
1
 10
-70.91437036250377
 20
-58.12554899931945
 30
0
 42
-0.02000342035726519
  0
VERTEX
  8
1
 10
-71.000902438114
 20
-58.53953421945576
 30
0
 42
-0.02430609254586097
  0
VERTEX
  8
1
 10
-71.11211437090302
 20
-58.90598408578711
 30
0
 42
-0.03158246460566452
  0
VERTEX
  8
1
 10
-71.24465026534638
 20
-59.21396625552524
 30
0
 42
-0.04413566083729909
  0
VERTEX
  8
1
 10
-71.39465730120335
 20
-59.4544559894895
 30
0
 42
-0.06640274799212476
  0
VERTEX
  8
1
 10
-71.55847619221856
 20
-59.62054883514659
 30
0
 42
-0.1031312343914424
  0
VERTEX
  8
1
 10
-71.73252232821342
 20
-59.70565605200973
 30
0
  0
VERTEX
  8
1
 10
-71.77693011458179
 20
-59.71421461713507
 30
0
  0
VERTEX
  8
1
 10
-71.82133790095048
 20
-59.71706747217689
 30
0
  0
SEQEND
  8
1
  0
POLYLINE
  8
1
 62
7
 66
1
  0
VERTEX
  8
1
 10
-0.8213379009504891
 20
-159.7170674721769
 30
0
 42
-0.06350186446565369
  0
VERTEX
  8
1
 10
-0.910153473687551
 20
-159.7056560520098
 30
0
 42
-0.1024827257665058
  0
VERTEX
  8
1
 10
-1.084199609682417
 20
-159.6205488351466
 30
0
 42
-0.06611454789896724
  0
VERTEX
  8
1
 10
-1.248018500697614
 20
-159.4544559894895
 30
0
 42
-0.04407285697919736
  0
VERTEX
  8
1
 10
-1.398025536554586
 20
-159.2139662555253
 30
0
 42
-0.03156273916834484
  0
VERTEX
  8
1
 10
-1.530561430997987
 20
-158.9059840857872
 30
0
 42
-0.0242994415501961
  0
VERTEX
  8
1
 10
-1.641773363786999
 20
-158.5395342194558
 30
0
 42
-0.02000072692646939
  0
VERTEX
  8
1
 10
-1.728305439397213
 20
-158.1255489993195
 30
0
 42
-0.01748505840764091
  0
VERTEX
  8
1
 10
-1.787511296230017
 20
-157.6764972855985
 30
0
 42
-0.01616025272519589
  0
VERTEX
  8
1
 10
-1.817575514704716
 20
-157.2059567845633
 30
0
 42
-0.01574624143275227
  0
VERTEX
  8
1
 10
-1.817575514704716
 20
-156.7281781597905
 30
0
 42
-0.01616070175788342
  0
VERTEX
  8
1
 10
-1.78751129623001
 20
-156.2576376587553
 30
0
 42
-0.01748621643002341
  0
VERTEX
  8
1
 10
-1.728305439397206
 20
-155.8085859450344
 30
0
 42
-0.02000342035724521
  0
VERTEX
  8
1
 10
-1.641773363786984
 20
-155.3946007248981
 30
0
 42
-0.02430609254589092
  0
VERTEX
  8
1
 10
-1.530561430997967
 20
-155.0281508585667
 30
0
 42
-0.03158246460556949
  0
VERTEX
  8
1
 10
-1.398025536554602
 20
-154.7201686888286
 30
0
 42
-0.04413566083739334
  0
VERTEX
  8
1
 10
-1.248018500697625
 20
-154.4796789548643
 30
0
 42
-0.0664027479920322
  0
VERTEX
  8
1
 10
-1.084199609682419
 20
-154.3135861092073
 30
0
 42
-0.1031312343915298
  0
VERTEX
  8
1
 10
-0.9101534736875649
 20
-154.2284788923441
 30
0
  0
VERTEX
  8
1
 10
-0.8657456873191909
 20
-154.2199203272187
 30
0
  0
VERTEX
  8
1
 10
-0.8213379009504891
 20
-154.2170674721769
 30
0
  0
SEQEND
  8
1
  0
ARC
  8
1
 62
3
  6
DIVIDE
 10
-10.42133790095048
 20
-157.5670674721769
 30
0
 40
0.4999999999999965
 50
0
 51
90
  0
ARC
  8
1
 62
3
  6
DIVIDE
 10
-30.22133790095047
 20
-157.5670674721769
 30
0
 40
0.5
 50
90
 51
180
  0
ARC
  8
1
 62
3
  6
DIVIDE
 10
-10.42133790095048
 20
-56.36706747217689
 30
0
 40
0.5
 50
270
 51
0
  0
ARC
  8
1
 62
3
  6
DIVIDE
 10
-30.22133790095047
 20
-56.36706747217689
 30
0
 40
0.5
 50
180
 51
270
  0
ARC
  8
1
 62
7
 10
-66.96827120610287
 20
-69.80643590207926
 30
0
 40
3.499999999999996
 50
266.5929278375018
 51
3.302764645258321
  0
ARC
  8
1
 62
7
 10
-42.42133790095048
 20
-56.36706747217689
 30
0
 40
0.5
 50
270
 51
0
  0
ARC
  8
1
 62
7
 10
-62.22133790095047
 20
-56.36706747217689
 30
0
 40
0.5
 50
180
 51
270
  0
ARC
  8
1
 62
7
 10
-42.42133790095048
 20
-157.5670674721769
 30
0
 40
0.5
 50
0
 51
90
  0
ARC
  8
1
 62
7
 10
-62.22133790095047
 20
-157.5670674721769
 30
0
 40
0.5
 50
90
 51
180
  0
ARC
  8
1
 62
7
 10
-5.248118345616287
 20
-148.0136769333104
 30
0
 40
3.499999999999947
 50
90.59292783750145
 51
187.3027646452598
  0
TEXT
  8
1
 62
7
 10
-252.1665890348517
 20
-5.769727879340934
 30
0
 40
8
  1
OD 457
 41
0.9
  7
SIMPLEX
 72
1
 11
-230.5665890348517
 21
-5.769727879340934
 31
0
  0
ENDSEC
  0
EOF
