  0
SECTION
  2
HEADER
  9
$ACADVER
  1
AC1009
  9
$INSBASE
 10
0
 20
0
  9
$EXTMIN
 10
-255.8812614062649
 20
174.8427564887678
  9
$EXTMAX
 10
255.4209303645852
 20
420.0618306974973
  9
$LIMMIN
 10
-255.8812614062649
 20
174.8427564887678
  9
$LIMMAX
 10
255.4209303645852
 20
420.0618306974973
  9
$VIEWCTR
 10
10
 20
10
  9
$VIEWSIZE
 40
10
  9
$SNAPMODE
 70
0
  9
$SNAPUNIT
 10
1
 20
1
  9
$SNAPBASE
 10
0
 20
0
  9
$SNAPANG
 50
0
  9
$SNAPSTYLE
 70
0
  9
$SNAPISOPAIR
 70
0
  9
$GRIDMODE
 70
0
  9
$GRIDUNIT
 10
0
 20
0
  9
$ORTHOMODE
 70
0
  9
$REGENMODE
 70
1
  9
$FILLMODE
 70
1
  9
$QTEXTMODE
 70
0
  9
$DRAGMODE
 70
2
  9
$LTSCALE
 40
1
  9
$OSMODE
 70
0
  9
$ATTMODE
 70
1
  9
$TEXTSIZE
 40
3.5
  9
$TRACEWID
 40
0.5
  9
$TEXTSTYLE
  7
STANDARD
  9
$CLAYER
  8
0
  9
$CELTYPE
  6
BYLAYER
  9
$CECOLOR
 62
256
  9
$DIMSCALE
 40
1
  9
$DIMASZ
 40
0.18
  9
$DIMEXO
 40
0.0625
  9
$DIMDLI
 40
0.38
  9
$DIMRND
 40
0
  9
$DIMDLE
 40
0
  9
$DIMEXE
 40
0.18
  9
$DIMTP
 40
0
  9
$DIMTM
 40
0
  9
$DIMTXT
 40
0.18
  9
$DIMCEN
 40
0.09
  9
$DIMTSZ
 40
0
  9
$DIMTOL
 70
0
  9
$DIMLIM
 70
0
  9
$DIMTIH
 70
1
  9
$DIMTOH
 70
1
  9
$DIMSE1
 70
0
  9
$DIMSE2
 70
0
  9
$DIMTAD
 70
0
  9
$DIMZIN
 70
0
  9
$DIMBLK
  1

  9
$DIMASO
 70
1
  9
$DIMSHO
 70
1
  9
$DIMPOST
  1

  9
$DIMAPOST
  1

  9
$DIMALT
 70
0
  9
$DIMALTD
 70
2
  9
$DIMALTF
 40
25.4
  9
$DIMLFAC
 40
1
  9
$DIMTOFL
 70
0
  9
$DIMTVP
 40
0
  9
$DIMTIX
 70
0
  9
$DIMSOXD
 70
0
  9
$DIMSAH
 70
0
  9
$DIMBLK1
  1

  9
$DIMBLK2
  1

  9
$DIMSTYLE
  2
*UNNAMED
  9
$DIMCLRD
 70
0
  9
$DIMCLRE
 70
0
  9
$DIMCLRT
 70
0
  9
$DIMTFAC
 40
1
  9
$DIMGAP
 40
0.09
  9
$LUNITS
 70
2
  9
$LUPREC
 70
4
  9
$AXISMODE
 70
0
  9
$AXISUNIT
 10
0
 20
0
  9
$SKETCHINC
 40
0.1
  9
$FILLETRAD
 40
2
  9
$AUNITS
 70
0
  9
$AUPREC
 70
0
  9
$MENU
  1
ACAD
  9
$ELEVATION
 40
0
  9
$THICKNESS
 40
0
  9
$VIEWDIR
 10
0
 20
0
 30
1
  9
$LIMCHECK
 70
0
  9
$BLIPMODE
 70
1
  9
$CHAMFERA
 40
0
  9
$CHAMFERB
 40
0
  9
$FASTZOOM
 70
1
  9
$SKPOLY
 70
0
  9
$ANGBASE
 50
0
  9
$ANGDIR
 70
0
  9
$PDMODE
 70
0
  9
$PDSIZE
 40
0
  9
$PLINEWID
 40
0
  9
$COORDS
 70
2
  0
ENDSEC
  0
SECTION
  2
TABLES
  0
TABLE
  2
DIMSTYLE
 70
0
  0
ENDTAB
  0
TABLE
  2
LTYPE
 70
9
  0
LTYPE
  2
CONTINUOUS
 70
64
  3
Solid line
 72
65
 73
0
 40
0
  0
LTYPE
  2
BORDER
 70
64
  3
__ __ . __ __ .
 72
65
 73
6
 40
23.54681146313125
 49
6.727660418037501
 49
-3.36383020901875
 49
6.727660418037501
 49
-3.36383020901875
 49
0
 49
-3.36383020901875
  0
LTYPE
  2
CENTER
 70
64
  3
____ _ ____ _
 72
65
 73
4
 40
26.91064167215
 49
16.81915104509375
 49
-3.36383020901875
 49
3.36383020901875
 49
-3.36383020901875
  0
LTYPE
  2
DASHDOT
 70
64
  3
__ . __ . __ .
 72
65
 73
4
 40
13.455320836075
 49
6.727660418037501
 49
-3.36383020901875
 49
0
 49
-3.36383020901875
  0
LTYPE
  2
DASHED
 70
64
  3
__ __ __ __ __
 72
65
 73
2
 40
10.09149062705625
 49
6.727660418037501
 49
-3.36383020901875
  0
LTYPE
  2
DIVIDE
 70
64
  3
__ . . __ . . 
 72
65
 73
6
 40
16.81915104509375
 49
6.727660418037501
 49
-3.36383020901875
 49
0
 49
-3.36383020901875
 49
0
 49
-3.36383020901875
  0
LTYPE
  2
DOT
 70
64
  3
..............
 72
65
 73
4
 40
6.727660418037501
 49
0
 49
-3.36383020901875
 49
0
 49
-3.36383020901875
  0
LTYPE
  2
HIDDEN
 70
64
  3
_ _ _ _ _ _ _
 72
65
 73
2
 40
5.045745313528125
 49
3.36383020901875
 49
-1.681915104509375
  0
LTYPE
  2
PHANTOM
 70
64
  3
_____ _ _ _____ _ _ 
 72
65
 73
6
 40
33.6383020901875
 49
16.81915104509375
 49
-3.36383020901875
 49
3.36383020901875
 49
-3.36383020901875
 49
3.36383020901875
 49
-3.36383020901875
  0
ENDTAB
  0
TABLE
  2
LAYER
 70
3
  0
LAYER
  2
1
 70
0
 62
7
  6
CONTINUOUS
  0
LAYER
  2
0
 70
0
 62
7
  6
CONTINUOUS
  0
ENDTAB
  0
TABLE
  2
STYLE
 70
4
  0
STYLE
  2
STANDARD
 70
0
 40
0
 41
1
 50
0
 71
0
 42
3.5
  3
txt
  4

  0
STYLE
  2
SIMPLEX
 70
0
 40
0
 41
1
 50
0
 71
0
 42
3.5
  3
simplex
  4

  0
STYLE
  2
COMPLEX
 70
0
 40
0
 41
1
 50
0
 71
0
 42
3.5
  3
complex
  4

  0
STYLE
  2
ITALIC
 70
0
 40
0
 41
1
 50
0
 71
0
 42
3.5
  3
italic
  4

  0
ENDTAB
  0
TABLE
  2
VIEW
 70
0
  0
ENDTAB
  0
ENDSEC
  0
SECTION
  2
BLOCKS
  0
ENDSEC
  0
SECTION
  2
ENTITIES
  0
LINE
  8
1
 62
3
  6
DIVIDE
 10
159.9209303645852
 20
210.0927564887678
 30
0
 11
159.9209303645852
 21
184.3427564887678
 31
0
  0
LINE
  8
1
 62
3
  6
DIVIDE
 10
152.9209303645852
 20
181.8427564887678
 30
0
 11
151.4209303645852
 21
183.3427564887678
 31
0
  0
LINE
  8
1
 62
3
  6
DIVIDE
 10
159.9209303645852
 20
184.3427564887678
 30
0
 11
157.4209303645852
 21
181.8427564887678
 31
0
  0
LINE
  8
1
 62
3
  6
DIVIDE
 10
152.9209303645852
 20
181.8427564887678
 30
0
 11
157.4209303645852
 21
181.8427564887678
 31
0
  0
LINE
  8
1
 62
3
  6
DIVIDE
 10
151.4209303645852
 20
198.3427564887678
 30
0
 11
151.4209303645852
 21
183.3427564887678
 31
0
  0
LINE
  8
1
 62
3
  6
DIVIDE
 10
126.4209303645852
 20
198.3427564887678
 30
0
 11
151.4209303645852
 21
198.3427564887678
 31
0
  0
LINE
  8
1
 62
3
  6
DIVIDE
 10
126.4209303645852
 20
198.3427564887678
 30
0
 11
126.4209303645852
 21
183.3427564887678
 31
0
  0
LINE
  8
1
 62
3
  6
DIVIDE
 10
124.9209303645852
 20
181.8427564887678
 30
0
 11
126.4209303645852
 21
183.3427564887678
 31
0
  0
LINE
  8
1
 62
3
  6
DIVIDE
 10
117.9209303645852
 20
184.3427564887678
 30
0
 11
120.4209303645852
 21
181.8427564887678
 31
0
  0
LINE
  8
1
 62
3
  6
DIVIDE
 10
124.9209303645852
 20
181.8427564887678
 30
0
 11
120.4209303645852
 21
181.8427564887678
 31
0
  0
LINE
  8
1
 62
3
  6
DIVIDE
 10
117.9209303645852
 20
210.0927564887678
 30
0
 11
117.9209303645852
 21
184.3427564887678
 31
0
  0
LINE
  8
1
 62
3
  6
DASHDOT
 10
138.9209303645852
 20
213.5132693332586
 30
0
 11
138.9209303645852
 21
177.5132693332586
 31
0
  0
LINE
  8
1
 62
3
  6
DASHDOT
 10
90.92093036458519
 20
213.5132693332586
 30
0
 11
90.92093036458519
 21
177.5132693332586
 31
0
  0
LINE
  8
1
 62
3
  6
DASHDOT
 10
138.9209303645852
 20
368.172243644277
 30
0
 11
138.9209303645852
 21
332.172243644277
 31
0
  0
LINE
  8
1
 62
3
  6
DIVIDE
 10
159.9209303645852
 20
361.3427564887678
 30
0
 11
159.9209303645852
 21
335.5927564887678
 31
0
  0
LINE
  8
1
 62
3
  6
DIVIDE
 10
151.4209303645852
 20
362.3427564887678
 30
0
 11
152.9209303645852
 21
363.8427564887678
 31
0
  0
LINE
  8
1
 62
3
  6
DIVIDE
 10
157.4209303645852
 20
363.8427564887678
 30
0
 11
159.9209303645852
 21
361.3427564887678
 31
0
  0
LINE
  8
1
 62
3
  6
DIVIDE
 10
157.4209303645852
 20
363.8427564887678
 30
0
 11
152.9209303645852
 21
363.8427564887678
 31
0
  0
LINE
  8
1
 62
3
  6
DIVIDE
 10
151.4209303645852
 20
362.3427564887678
 30
0
 11
151.4209303645852
 21
347.3427564887678
 31
0
  0
LINE
  8
1
 62
3
  6
DIVIDE
 10
151.4209303645852
 20
347.3427564887678
 30
0
 11
126.4209303645852
 21
347.3427564887678
 31
0
  0
LINE
  8
1
 62
3
  6
DIVIDE
 10
126.4209303645852
 20
362.3427564887678
 30
0
 11
126.4209303645852
 21
347.3427564887678
 31
0
  0
LINE
  8
1
 62
3
  6
DIVIDE
 10
126.4209303645852
 20
362.3427564887678
 30
0
 11
124.9209303645852
 21
363.8427564887678
 31
0
  0
LINE
  8
1
 62
3
  6
DIVIDE
 10
120.4209303645852
 20
363.8427564887678
 30
0
 11
124.9209303645852
 21
363.8427564887678
 31
0
  0
LINE
  8
1
 62
3
  6
DIVIDE
 10
120.4209303645852
 20
363.8427564887678
 30
0
 11
117.9209303645852
 21
361.3427564887678
 31
0
  0
LINE
  8
1
 62
3
  6
DIVIDE
 10
117.9209303645852
 20
361.3427564887678
 30
0
 11
117.9209303645852
 21
335.5927564887678
 31
0
  0
LINE
  8
1
 62
3
  6
DASHDOT
 10
90.92093036458519
 20
368.172243644277
 30
0
 11
90.92093036458519
 21
332.172243644277
 31
0
  0
LINE
  8
1
 62
7
 10
-214.3788341645998
 20
295.6466907531294
 30
0
 11
-208.7806078068401
 21
292.4145532584922
 31
0
  0
LINE
  8
1
 62
7
 10
-111.3836886479298
 20
309.5030972136804
 30
0
 11
-116.9819150056896
 21
306.2709597190434
 31
0
  0
LINE
  8
1
 62
7
 10
-150.8812614062648
 20
213.3784814994938
 30
0
 11
-150.8812614062649
 21
219.8427564887679
 31
0
  0
LINE
  8
1
 62
3
  6
DIVIDE
 10
71.92093036458519
 20
330.5927564887678
 30
0
 11
157.9209303645852
 21
330.5927564887678
 31
0
  0
LINE
  8
1
 62
7
 10
-129.1062706586717
 20
246.4145532584923
 30
0
 11
-121.1062706586717
 21
260.2709597190433
 31
0
  0
LINE
  8
1
 62
7
 10
-196.6562521538581
 20
260.2709597190433
 30
0
 11
-188.6562521538581
 21
246.4145532584923
 31
0
  0
LINE
  8
1
 62
7
 10
-128.2223560598385
 20
245.9042249269153
 30
0
 11
-120.2223560598385
 21
259.7606313874662
 31
0
  0
LINE
  8
1
 62
7
 10
-197.5401667526913
 20
259.7606313874663
 30
0
 11
-189.5401667526913
 21
245.9042249269153
 31
0
  0
LINE
  8
1
 62
7
 10
-129.1062706586717
 20
246.4145532584923
 30
0
 11
-90.9399718112071
 21
224.3792303449367
 31
0
  0
LINE
  8
1
 62
7
 10
-196.6562521538581
 20
260.2709597190433
 30
0
 11
-234.8225510013228
 21
238.235636805488
 31
0
  0
LINE
  8
1
 62
7
 10
-82.93997181120703
 20
238.2356368054879
 30
0
 11
-121.1062706586717
 21
260.2709597190433
 31
0
  0
LINE
  8
1
 62
7
 10
-90.9399718112071
 20
224.3792303449367
 30
0
 11
-82.93997181120703
 21
238.2356368054879
 31
0
  0
LINE
  8
1
 62
7
 10
-226.8225510013227
 20
224.3792303449368
 30
0
 11
-188.6562521538581
 21
246.4145532584923
 31
0
  0
LINE
  8
1
 62
7
 10
-234.8225510013228
 20
238.235636805488
 30
0
 11
-226.8225510013227
 21
224.3792303449368
 31
0
  0
LINE
  8
1
 62
7
 10
-150.8812614062649
 20
312.8634131519219
 30
0
 11
-166.8812614062649
 21
312.8634131519219
 31
0
  0
LINE
  8
1
 62
7
 10
-166.8812614062649
 20
355.9134023158788
 30
0
 11
-166.8812614062649
 21
311.8427564887679
 31
0
  0
LINE
  8
1
 62
7
 10
-150.8812614062648
 20
355.9134023158788
 30
0
 11
-166.8812614062649
 21
355.9134023158788
 31
0
  0
LINE
  8
1
 62
7
 10
-150.8812614062649
 20
311.8427564887679
 30
0
 11
-150.8812614062648
 21
355.9134023158788
 31
0
  0
LINE
  8
1
 62
7
 10
-201.6850306702462
 20
306.5044533680972
 30
0
 11
-206.6198315695466
 21
309.3535619957055
 31
0
  0
LINE
  8
1
 62
7
 10
-108.3274921422837
 20
293.0810596094386
 30
0
 11
-103.3926912429832
 21
295.9301682370469
 31
0
  0
LINE
  8
1
 62
7
 10
-209.4350306702462
 20
293.0810596094384
 30
0
 11
-214.3698315695466
 21
295.9301682370467
 31
0
  0
LINE
  8
1
 62
7
 10
-116.0774921422836
 20
306.5044533680973
 30
0
 11
-111.1426912429832
 21
309.3535619957056
 31
0
  0
LINE
  8
1
 62
7
 10
-209.4350306702462
 20
293.0810596094384
 30
0
 11
-201.6850306702462
 21
306.5044533680972
 31
0
  0
LINE
  8
1
 62
7
 10
-116.0774921422836
 20
306.5044533680973
 30
0
 11
-108.3274921422837
 21
293.0810596094386
 31
0
  0
LINE
  8
1
 62
7
 10
-166.6312614062648
 20
218.9427564887678
 30
0
 11
-166.6312614062648
 21
213.2445392335512
 31
0
  0
LINE
  8
1
 62
7
 10
-151.1312614062648
 20
218.9427564887678
 30
0
 11
-151.1312614062648
 21
213.2445392335512
 31
0
  0
LINE
  8
1
 62
7
 10
-151.1312614062648
 20
218.9427564887678
 30
0
 11
-166.6312614062648
 21
218.9427564887678
 31
0
  0
LINE
  8
1
 62
7
 10
-102.7962469016062
 20
351.9848511540739
 30
0
 11
-106.8151455298475
 21
345.0239145394912
 31
0
  0
LINE
  8
1
 62
7
 10
-70.73916674095874
 20
313.3393137253064
 30
0
 11
-77.70010335554143
 21
309.3204150970652
 31
0
  0
LINE
  8
1
 62
7
 10
-62.29968966506765
 20
263.8427564887677
 30
0
 11
-70.33748692155011
 21
263.8427564887677
 31
0
  0
LINE
  8
1
 62
7
 10
-79.73916674095885
 20
216.7577419841092
 30
0
 11
-86.70010335554154
 21
220.7766406123505
 31
0
  0
LINE
  8
1
 62
7
 10
-118.3847041697262
 20
184.7006618234618
 30
0
 11
-122.4036027979674
 21
191.6615984380445
 31
0
  0
LINE
  8
1
 62
7
 10
-167.8812614062648
 20
176.2611847475706
 30
0
 11
-167.8812614062648
 21
184.2989820040531
 31
0
  0
LINE
  8
1
 62
7
 10
-214.9662759109233
 20
193.7006618234618
 30
0
 11
-210.9473772826821
 21
200.6615984380445
 31
0
  0
LINE
  8
1
 62
7
 10
-247.0233560715708
 20
232.3461992522292
 30
0
 11
-240.0624194569881
 21
236.3650978804705
 31
0
  0
LINE
  8
1
 62
7
 10
-255.462833147462
 20
281.8427564887678
 30
0
 11
-247.4250358909795
 21
281.8427564887678
 31
0
  0
LINE
  8
1
 62
7
 10
-238.0233560715708
 20
328.9277709934263
 30
0
 11
-231.0624194569881
 21
324.9088723651851
 31
0
  0
LINE
  8
1
 62
7
 10
-118.3847041697261
 20
360.9848511540739
 30
0
 11
-122.4036027979673
 21
354.0239145394912
 31
0
  0
LINE
  8
1
 62
7
 10
-79.73916674095874
 20
328.9277709934263
 30
0
 11
-86.70010335554143
 21
324.9088723651851
 31
0
  0
LINE
  8
1
 62
7
 10
-62.29968966506765
 20
281.8427564887677
 30
0
 11
-70.33748692155011
 21
281.8427564887677
 31
0
  0
LINE
  8
1
 62
7
 10
-70.73916674095885
 20
232.3461992522291
 30
0
 11
-77.70010335554154
 21
236.3650978804704
 31
0
  0
LINE
  8
1
 62
7
 10
-102.7962469016063
 20
193.7006618234618
 30
0
 11
-106.8151455298475
 21
200.6615984380445
 31
0
  0
LINE
  8
1
 62
7
 10
-149.8812614062648
 20
176.2611847475706
 30
0
 11
-149.8812614062648
 21
184.2989820040531
 31
0
  0
LINE
  8
1
 62
7
 10
-199.3778186428034
 20
184.7006618234618
 30
0
 11
-195.3589200145622
 21
191.6615984380445
 31
0
  0
LINE
  8
1
 62
7
 10
-238.0233560715708
 20
216.7577419841093
 30
0
 11
-231.0624194569881
 21
220.7766406123505
 31
0
  0
LINE
  8
1
 62
7
 10
-255.462833147462
 20
263.8427564887678
 30
0
 11
-247.4250358909795
 21
263.8427564887678
 31
0
  0
LINE
  8
1
 62
7
 10
-247.0233560715708
 20
313.3393137253064
 30
0
 11
-240.0624194569881
 21
309.3204150970652
 31
0
  0
LINE
  8
1
 62
7
 10
-214.9662759109234
 20
351.9848511540737
 30
0
 11
-210.9473772826821
 21
345.0239145394911
 31
0
  0
LINE
  8
1
 62
7
 10
-199.3778186428035
 20
360.9848511540737
 30
0
 11
-195.3589200145622
 21
354.0239145394911
 31
0
  0
LINE
  8
1
 62
7
 10
-167.8812614062649
 20
369.4243282299649
 30
0
 11
-167.8812614062649
 21
361.3865309734824
 31
0
  0
LINE
  8
1
 62
7
 10
-149.8812614062649
 20
369.4243282299649
 30
0
 11
-149.8812614062649
 21
361.3865309734824
 31
0
  0
LINE
  8
1
 62
3
  6
DASHDOT
 10
-158.8812614062649
 20
272.8427564887678
 30
0
 11
-156.3812614062649
 21
272.8427564887678
 31
0
  0
LINE
  8
1
 62
3
  6
DASHDOT
 10
-158.8812614062649
 20
272.8427564887678
 30
0
 11
-158.8812614062649
 21
270.3427564887678
 31
0
  0
LINE
  8
1
 62
3
  6
DASHDOT
 10
-158.8812614062649
 20
272.8427564887678
 30
0
 11
-161.3812614062649
 21
272.8427564887678
 31
0
  0
LINE
  8
1
 62
7
 10
111.9209303645852
 20
210.0927564887678
 30
0
 11
111.9209303645852
 21
184.3427564887678
 31
0
  0
LINE
  8
1
 62
7
 10
69.92093036458519
 20
184.3427564887678
 30
0
 11
72.42093036458519
 21
181.8427564887678
 31
0
  0
LINE
  8
1
 62
7
 10
69.92093036458519
 20
210.0927564887678
 30
0
 11
69.92093036458519
 21
184.3427564887678
 31
0
  0
LINE
  8
1
 62
7
 10
76.92093036458519
 20
181.8427564887678
 30
0
 11
78.42093036458519
 21
183.3427564887678
 31
0
  0
LINE
  8
1
 62
7
 10
76.92093036458519
 20
181.8427564887678
 30
0
 11
72.42093036458519
 21
181.8427564887678
 31
0
  0
LINE
  8
1
 62
7
 10
78.42093036458519
 20
198.3427564887678
 30
0
 11
78.42093036458519
 21
183.3427564887678
 31
0
  0
LINE
  8
1
 62
7
 10
103.4209303645852
 20
198.3427564887678
 30
0
 11
103.4209303645852
 21
183.3427564887678
 31
0
  0
LINE
  8
1
 62
7
 10
78.42093036458519
 20
198.3427564887678
 30
0
 11
103.4209303645852
 21
198.3427564887678
 31
0
  0
LINE
  8
1
 62
7
 10
104.9209303645852
 20
181.8427564887678
 30
0
 11
103.4209303645852
 21
183.3427564887678
 31
0
  0
LINE
  8
1
 62
7
 10
111.9209303645852
 20
184.3427564887678
 30
0
 11
109.4209303645852
 21
181.8427564887678
 31
0
  0
LINE
  8
1
 62
7
 10
104.9209303645852
 20
181.8427564887678
 30
0
 11
109.4209303645852
 21
181.8427564887678
 31
0
  0
LINE
  8
1
 62
7
 10
103.4209303645852
 20
362.3427564887678
 30
0
 11
104.9209303645852
 21
363.8427564887678
 31
0
  0
LINE
  8
1
 62
7
 10
78.42093036458519
 20
362.3427564887678
 30
0
 11
76.92093036458519
 21
363.8427564887678
 31
0
  0
LINE
  8
1
 62
7
 10
109.4209303645852
 20
363.8427564887678
 30
0
 11
111.9209303645852
 21
361.3427564887678
 31
0
  0
LINE
  8
1
 62
7
 10
72.42093036458519
 20
363.8427564887678
 30
0
 11
69.92093036458519
 21
361.3427564887678
 31
0
  0
LINE
  8
1
 62
7
 10
78.42093036458519
 20
362.3427564887678
 30
0
 11
78.42093036458519
 21
347.3427564887678
 31
0
  0
LINE
  8
1
 62
7
 10
103.4209303645852
 20
362.3427564887678
 30
0
 11
103.4209303645852
 21
347.3427564887678
 31
0
  0
LINE
  8
1
 62
7
 10
72.42093036458519
 20
363.8427564887678
 30
0
 11
76.92093036458519
 21
363.8427564887678
 31
0
  0
LINE
  8
1
 62
7
 10
109.4209303645852
 20
363.8427564887678
 30
0
 11
104.9209303645852
 21
363.8427564887678
 31
0
  0
LINE
  8
1
 62
7
 10
69.92093036458519
 20
361.3427564887678
 30
0
 11
69.92093036458519
 21
335.5927564887678
 31
0
  0
LINE
  8
1
 62
7
 10
111.9209303645852
 20
361.3427564887678
 30
0
 11
111.9209303645852
 21
335.5927564887678
 31
0
  0
LINE
  8
1
 62
7
 10
103.4209303645852
 20
347.3427564887678
 30
0
 11
78.42093036458519
 21
347.3427564887678
 31
0
  0
LINE
  8
1
 62
3
  6
DIVIDE
 10
157.9209303645852
 20
339.5927564887678
 30
0
 11
71.92093036458519
 21
339.5927564887678
 31
0
  0
LINE
  8
1
 62
3
  6
DIVIDE
 10
157.9209303645852
 20
330.5927564887678
 30
0
 11
157.9209303645852
 21
339.5927564887678
 31
0
  0
LINE
  8
1
 62
3
  6
DIVIDE
 10
71.92093036458519
 20
339.5927564887678
 30
0
 11
71.92093036458519
 21
330.5927564887678
 31
0
  0
LINE
  8
1
 62
7
 10
154.8083973717797
 20
210.0927564887678
 30
0
 11
160.7765927972878
 21
210.0927564887678
 31
0
  0
LINE
  8
1
 62
7
 10
70.92093036458519
 20
308.3427564887679
 30
0
 11
158.9209303645852
 21
308.3427564887678
 31
0
  0
LINE
  8
1
 62
7
 10
173.9209303645853
 20
343.4560051428197
 30
0
 11
168.9209303645853
 21
346.3427564887678
 31
0
  0
LINE
  8
1
 62
7
 10
178.9209303645853
 20
346.3427564887678
 30
0
 11
173.9209303645853
 21
343.4560051428197
 31
0
  0
LINE
  8
1
 62
7
 10
168.9209303645853
 20
346.3427564887678
 30
0
 11
168.9209303645853
 21
361.3427564887678
 31
0
  0
LINE
  8
1
 62
7
 10
178.9209303645853
 20
346.3427564887678
 30
0
 11
168.9209303645853
 21
346.3427564887678
 31
0
  0
LINE
  8
1
 62
7
 10
178.9209303645853
 20
361.3427564887678
 30
0
 11
178.9209303645853
 21
346.3427564887678
 31
0
  0
LINE
  8
1
 62
7
 10
165.4209303645853
 20
333.8427564887678
 30
0
 11
186.4209303645851
 21
333.8427564887678
 31
0
  0
LINE
  8
1
 62
7
 10
165.4209303645853
 20
336.3427564887678
 30
0
 11
165.4209303645853
 21
333.8427564887678
 31
0
  0
LINE
  8
1
 62
7
 10
186.4209303645852
 20
326.8427564887678
 30
0
 11
190.4209303645852
 21
326.8427564887678
 31
0
  0
LINE
  8
1
 62
7
 10
186.4209303645852
 20
332.8427564887678
 30
0
 11
183.9209303645852
 21
332.8427564887678
 31
0
  0
LINE
  8
1
 62
7
 10
190.4209303645852
 20
326.7427564887678
 30
0
 11
226.9209303645852
 21
326.7427564887678
 31
0
  0
LINE
  8
1
 62
7
 10
224.9209303645852
 20
369.8427564887678
 30
0
 11
224.9209303645853
 21
326.7427564887677
 31
0
  0
LINE
  8
1
 62
7
 10
165.4209303645853
 20
336.3427564887678
 30
0
 11
161.4209303645853
 21
336.3427564887678
 31
0
  0
LINE
  8
1
 62
3
 10
186.4209303645852
 20
335.3427564887678
 30
0
 11
182.4775546916111
 21
335.3427564887678
 31
0
  0
LINE
  8
1
 62
7
 10
164.4209303645853
 20
361.3427564887678
 30
0
 11
161.4209303645853
 21
358.3427564887678
 31
0
  0
LINE
  8
1
 62
7
 10
161.4209303645853
 20
335.3427564887678
 30
0
 11
161.4209303645853
 21
358.3427564887678
 31
0
  0
LINE
  8
1
 62
7
 10
164.4209303645853
 20
361.3427564887678
 30
0
 11
186.4209303645851
 21
361.3427564887678
 31
0
  0
LINE
  8
1
 62
7
 10
186.4209303645852
 20
326.8427564887678
 30
0
 11
186.4209303645851
 21
361.3427564887678
 31
0
  0
LINE
  8
1
 62
7
 10
190.4209303645852
 20
361.3427564887678
 30
0
 11
186.4209303645851
 21
361.3427564887678
 31
0
  0
LINE
  8
1
 62
7
 10
190.4209303645852
 20
326.7427564887678
 30
0
 11
190.4209303645852
 21
369.8427564887678
 31
0
  0
LINE
  8
1
 62
7
 10
224.9209303645852
 20
369.8427564887678
 30
0
 11
190.4209303645852
 21
369.8427564887678
 31
0
  0
LINE
  8
1
 62
3
 10
190.4209303645852
 20
369.8427564887678
 30
0
 11
224.9209303645853
 21
326.7427564887677
 31
0
  0
LINE
  8
1
 62
3
 10
190.4209303645852
 20
326.7427564887678
 30
0
 11
224.9209303645852
 21
369.8427564887678
 31
0
  0
LINE
  8
1
 62
7
 10
226.9209303645852
 20
326.7427564887678
 30
0
 11
226.9209303645853
 21
333.8427564887678
 31
0
  0
LINE
  8
1
 62
7
 10
236.9209303645852
 20
332.8427564887678
 30
0
 11
236.9209303645852
 21
358.3427564887678
 31
0
  0
LINE
  8
1
 62
7
 10
236.9209303645852
 20
343.8427564887678
 30
0
 11
226.9209303645853
 21
333.8427564887678
 31
0
  0
LINE
  8
1
 62
7
 10
233.9209303645852
 20
361.3427564887678
 30
0
 11
236.9209303645852
 21
358.3427564887678
 31
0
  0
LINE
  8
1
 62
7
 10
233.9209303645852
 20
361.3427564887678
 30
0
 11
224.9209303645852
 21
361.3427564887678
 31
0
  0
LINE
  8
1
 62
7
 10
251.9209303645852
 20
331.8427564887678
 30
0
 11
251.9209303645852
 21
318.8427564887678
 31
0
  0
LINE
  8
1
 62
7
 10
251.9209303645852
 20
318.8427564887678
 30
0
 11
252.9209303645852
 21
317.8427564887678
 31
0
  0
LINE
  8
1
 62
7
 10
250.9209303645852
 20
332.8427564887678
 30
0
 11
226.9209303645852
 21
332.8427564887678
 31
0
  0
LINE
  8
1
 62
7
 10
250.9209303645852
 20
332.8427564887678
 30
0
 11
251.9209303645852
 21
331.8427564887678
 31
0
  0
LINE
  8
1
 62
7
 10
160.9209303645852
 20
335.3427564887678
 30
0
 11
182.4775546916111
 21
335.3427564887678
 31
0
  0
LINE
  8
1
 62
7
 10
182.4775546916111
 20
335.3427564887678
 30
0
 11
183.9209303645852
 21
332.8427564887678
 31
0
  0
LINE
  8
1
 62
7
 10
160.7765927972878
 20
335.5927564887678
 30
0
 11
160.9209303645852
 21
335.3427564887678
 31
0
  0
LINE
  8
1
 62
3
 10
160.9209303645852
 20
335.3427564887678
 30
0
 11
161.7869557683697
 21
333.8427564887678
 31
0
  0
LINE
  8
1
 62
3
 10
161.7869557683697
 20
333.8427564887678
 30
0
 11
165.4209303645853
 21
333.8427564887678
 31
0
  0
LINE
  8
1
 62
7
 10
160.7765927972878
 20
335.5927564887678
 30
0
 11
69.0652679318826
 21
335.5927564887678
 31
0
  0
LINE
  8
1
 62
7
 10
182.9209303645852
 20
325.8427564887678
 30
0
 11
251.9209303645852
 21
325.8427564887678
 31
0
  0
LINE
  8
1
 62
7
 10
158.9209303645852
 20
307.8427564887678
 30
0
 11
252.9209303645852
 21
307.8427564887678
 31
0
  0
LINE
  8
1
 62
7
 10
55.92093036458522
 20
202.229507834716
 30
0
 11
60.92093036458522
 21
199.3427564887678
 31
0
  0
LINE
  8
1
 62
7
 10
50.9209303645852
 20
199.3427564887678
 30
0
 11
55.92093036458522
 21
202.229507834716
 31
0
  0
LINE
  8
1
 62
7
 10
60.92093036458522
 20
199.3427564887678
 30
0
 11
60.92093036458522
 21
184.3427564887678
 31
0
  0
LINE
  8
1
 62
7
 10
50.9209303645852
 20
199.3427564887678
 30
0
 11
60.92093036458522
 21
199.3427564887678
 31
0
  0
LINE
  8
1
 62
7
 10
50.9209303645852
 20
184.3427564887678
 30
0
 11
50.9209303645852
 21
199.3427564887678
 31
0
  0
LINE
  8
1
 62
7
 10
64.42093036458522
 20
211.8427564887678
 30
0
 11
43.4209303645852
 21
211.8427564887678
 31
0
  0
LINE
  8
1
 62
7
 10
64.42093036458522
 20
209.3427564887678
 30
0
 11
64.42093036458522
 21
211.8427564887678
 31
0
  0
LINE
  8
1
 62
7
 10
43.4209303645852
 20
218.8427564887678
 30
0
 11
39.4209303645852
 21
218.8427564887678
 31
0
  0
LINE
  8
1
 62
7
 10
43.4209303645852
 20
212.8427564887678
 30
0
 11
45.9209303645852
 21
212.8427564887678
 31
0
  0
LINE
  8
1
 62
7
 10
39.4209303645852
 20
218.9427564887678
 30
0
 11
2.920930364585171
 21
218.9427564887678
 31
0
  0
LINE
  8
1
 62
7
 10
4.920930364585171
 20
175.8427564887678
 30
0
 11
4.920930364585185
 21
218.9427564887678
 31
0
  0
LINE
  8
1
 62
7
 10
64.42093036458522
 20
209.3427564887678
 30
0
 11
68.42093036458522
 21
209.3427564887678
 31
0
  0
LINE
  8
1
 62
3
 10
43.4209303645852
 20
210.3427564887678
 30
0
 11
47.3643060375593
 21
210.3427564887678
 31
0
  0
LINE
  8
1
 62
7
 10
65.4209303645851
 20
184.3427564887678
 30
0
 11
68.42093036458522
 21
187.3427564887678
 31
0
  0
LINE
  8
1
 62
7
 10
68.42093036458522
 20
210.3427564887678
 30
0
 11
68.42093036458522
 21
187.3427564887678
 31
0
  0
LINE
  8
1
 62
7
 10
65.4209303645851
 20
184.3427564887678
 30
0
 11
43.42093036458518
 21
184.3427564887678
 31
0
  0
LINE
  8
1
 62
7
 10
43.4209303645852
 20
218.8427564887678
 30
0
 11
43.42093036458518
 21
184.3427564887678
 31
0
  0
LINE
  8
1
 62
7
 10
39.4209303645852
 20
184.3427564887678
 30
0
 11
43.42093036458518
 21
184.3427564887678
 31
0
  0
LINE
  8
1
 62
7
 10
39.4209303645852
 20
218.9427564887678
 30
0
 11
39.4209303645852
 21
175.8427564887678
 31
0
  0
LINE
  8
1
 62
7
 10
4.920930364585171
 20
175.8427564887678
 30
0
 11
39.4209303645852
 21
175.8427564887678
 31
0
  0
LINE
  8
1
 62
3
 10
39.4209303645852
 20
175.8427564887678
 30
0
 11
4.920930364585185
 21
218.9427564887678
 31
0
  0
LINE
  8
1
 62
3
 10
39.4209303645852
 20
218.9427564887678
 30
0
 11
4.920930364585171
 21
175.8427564887678
 31
0
  0
LINE
  8
1
 62
7
 10
2.920930364585171
 20
218.9427564887678
 30
0
 11
2.920930364585185
 21
211.8427564887678
 31
0
  0
LINE
  8
1
 62
7
 10
-7.079069635414815
 20
212.8427564887678
 30
0
 11
-7.079069635414815
 21
187.3427564887678
 31
0
  0
LINE
  8
1
 62
7
 10
-7.079069635414815
 20
201.8427564887678
 30
0
 11
2.920930364585185
 21
211.8427564887678
 31
0
  0
LINE
  8
1
 62
7
 10
-4.079069635414815
 20
184.3427564887678
 30
0
 11
-7.079069635414815
 21
187.3427564887678
 31
0
  0
LINE
  8
1
 62
7
 10
-4.079069635414815
 20
184.3427564887678
 30
0
 11
4.920930364585185
 21
184.3427564887678
 31
0
  0
LINE
  8
1
 62
7
 10
179.1510204222498
 20
198.8427564887678
 30
0
 11
179.1711034049089
 21
199.605909829812
 31
0
  0
LINE
  8
1
 62
7
 10
179.0906739833706
 20
198.8427564887678
 30
0
 11
179.167872231922
 21
199.5375407257304
 31
0
  0
LINE
  8
1
 62
7
 10
178.0845200791331
 20
198.8427564887678
 30
0
 11
178.1739884972484
 21
199.6479722518053
 31
0
  0
LINE
  8
1
 62
7
 10
176.9795628722596
 20
198.8427564887678
 30
0
 11
177.0567611208109
 21
199.5375407257304
 31
0
  0
LINE
  8
1
 62
7
 10
175.973408968022
 20
198.8427564887678
 30
0
 11
176.0628773861373
 21
199.6479722518053
 31
0
  0
LINE
  8
1
 62
7
 10
174.8684517611484
 20
198.8427564887678
 30
0
 11
174.9456500096999
 21
199.5375407257305
 31
0
  0
LINE
  8
1
 62
7
 10
173.8622978569109
 20
198.8427564887678
 30
0
 11
173.9517662750262
 21
199.6479722518052
 31
0
  0
LINE
  8
1
 62
7
 10
172.7573406500373
 20
198.8427564887678
 30
0
 11
172.8345388985887
 21
199.5375407257304
 31
0
  0
LINE
  8
1
 62
7
 10
171.7511867457998
 20
198.8427564887678
 30
0
 11
171.8406551639151
 21
199.6479722518052
 31
0
  0
LINE
  8
1
 62
7
 10
170.6462295389262
 20
198.8427564887678
 30
0
 11
170.7234277874776
 21
199.5375407257304
 31
0
  0
LINE
  8
1
 62
7
 10
169.6400756346887
 20
198.8427564887678
 30
0
 11
169.729544052804
 21
199.6479722518052
 31
0
  0
LINE
  8
1
 62
7
 10
168.9013666227102
 20
198.8427564887678
 30
0
 11
168.9207573242617
 21
199.5796031477238
 31
0
  0
LINE
  8
1
 62
7
 10
168.6707573242617
 20
190.0796031477237
 30
0
 11
168.6908403069207
 21
190.8427564887678
 31
0
  0
LINE
  8
1
 62
7
 10
168.6739884972484
 20
190.1479722518052
 30
0
 11
168.7511867457998
 21
190.8427564887678
 31
0
  0
LINE
  8
1
 62
7
 10
169.667872231922
 20
190.0375407257304
 30
0
 11
169.7573406500373
 21
190.8427564887678
 31
0
  0
LINE
  8
1
 62
7
 10
170.7850996083595
 20
190.1479722518052
 30
0
 11
170.8622978569109
 21
190.8427564887678
 31
0
  0
LINE
  8
1
 62
7
 10
171.7789833430331
 20
190.0375407257304
 30
0
 11
171.8684517611484
 21
190.8427564887678
 31
0
  0
LINE
  8
1
 62
7
 10
172.8962107194706
 20
190.1479722518052
 30
0
 11
172.973408968022
 21
190.8427564887678
 31
0
  0
LINE
  8
1
 62
7
 10
173.8900944541443
 20
190.0375407257305
 30
0
 11
173.9795628722596
 21
190.8427564887678
 31
0
  0
LINE
  8
1
 62
7
 10
175.0073218305818
 20
190.1479722518053
 30
0
 11
175.0845200791331
 21
190.8427564887678
 31
0
  0
LINE
  8
1
 62
7
 10
176.0012055652555
 20
190.0375407257304
 30
0
 11
176.0906739833706
 21
190.8427564887678
 31
0
  0
LINE
  8
1
 62
7
 10
177.1184329416928
 20
190.1479722518053
 30
0
 11
177.1956311902443
 21
190.8427564887678
 31
0
  0
LINE
  8
1
 62
7
 10
178.1123166763665
 20
190.0375407257304
 30
0
 11
178.2017850944817
 21
190.8427564887678
 31
0
  0
LINE
  8
1
 62
7
 10
178.9211034049089
 20
190.1059098298119
 30
0
 11
178.9404941064603
 21
190.8427564887678
 31
0
  0
LINE
  8
1
 62
7
 10
162.8209303645852
 20
204.8427564887678
 30
0
 11
165.4209303645853
 21
204.8427564887678
 31
0
  0
LINE
  8
1
 62
7
 10
162.8209303645852
 20
174.8427564887678
 30
0
 11
165.4209303645853
 21
174.8427564887678
 31
0
  0
LINE
  8
1
 62
7
 10
162.8209303645852
 20
174.8427564887678
 30
0
 11
162.8209303645852
 21
204.8427564887678
 31
0
  0
LINE
  8
1
 62
7
 10
165.4209303645853
 20
211.8427564887678
 30
0
 11
165.4209303645853
 21
174.8427564887678
 31
0
  0
LINE
  8
1
 62
7
 10
168.4209303645853
 20
198.8427564887678
 30
0
 11
168.4209303645853
 21
200.8427564887678
 31
0
  0
LINE
  8
1
 62
7
 10
179.4209303645853
 20
190.8427564887678
 30
0
 11
165.4209303645853
 21
190.8427564887678
 31
0
  0
LINE
  8
1
 62
7
 10
179.4209303645853
 20
188.8427564887678
 30
0
 11
179.4209303645853
 21
200.8427564887678
 31
0
  0
LINE
  8
1
 62
7
 10
186.4209303645852
 20
190.5927564887678
 30
0
 11
190.4209303645852
 21
190.5927564887678
 31
0
  0
LINE
  8
1
 62
7
 10
186.4209303645852
 20
199.0927564887678
 30
0
 11
190.4209303645852
 21
199.0927564887678
 31
0
  0
LINE
  8
1
 62
7
 10
179.4209303645853
 20
198.8427564887678
 30
0
 11
165.4209303645853
 21
198.8427564887678
 31
0
  0
LINE
  8
1
 62
7
 10
168.4209303645853
 20
200.8427564887678
 30
0
 11
186.4209303645851
 21
200.8427564887678
 31
0
  0
LINE
  8
1
 62
7
 10
168.4209303645853
 20
188.8427564887678
 30
0
 11
168.4209303645853
 21
190.8427564887678
 31
0
  0
LINE
  8
1
 62
7
 10
186.4209303645852
 20
188.8427564887678
 30
0
 11
168.4209303645853
 21
188.8427564887678
 31
0
  0
LINE
  8
1
 62
7
 10
161.4209303645853
 20
187.3427564887678
 30
0
 11
162.8209303645852
 21
185.9427564887679
 31
0
  0
LINE
  8
1
 62
3
 10
182.4775546916111
 20
210.3427564887678
 30
0
 11
186.4209303645852
 21
210.3427564887678
 31
0
  0
LINE
  8
1
 62
3
 10
165.4209303645853
 20
211.8427564887678
 30
0
 11
161.7869557683696
 21
211.8427564887678
 31
0
  0
LINE
  8
1
 62
7
 10
161.4209303645853
 20
209.3427564887678
 30
0
 11
165.4209303645853
 21
209.3427564887678
 31
0
  0
LINE
  8
1
 62
7
 10
161.4209303645853
 20
187.3427564887678
 30
0
 11
161.4209303645853
 21
210.3427564887678
 31
0
  0
LINE
  8
1
 62
7
 10
186.4209303645852
 20
184.3427564887678
 30
0
 11
165.4209303645853
 21
184.3427564887678
 31
0
  0
LINE
  8
1
 62
7
 10
190.4209303645852
 20
190.3427564887678
 30
0
 11
186.4209303645852
 21
190.3427564887678
 31
0
  0
LINE
  8
1
 62
7
 10
186.4209303645852
 20
199.3427564887678
 30
0
 11
190.4209303645852
 21
199.3427564887678
 31
0
  0
LINE
  8
1
 62
7
 10
190.4209303645852
 20
212.8427564887678
 30
0
 11
235.9483675646272
 21
212.8427564887678
 31
0
  0
LINE
  8
1
 62
7
 10
186.4209303645852
 20
213.8427564887678
 30
0
 11
190.4209303645852
 21
213.8427564887678
 31
0
  0
LINE
  8
1
 62
7
 10
186.4209303645852
 20
184.3427564887678
 30
0
 11
186.4209303645852
 21
213.8427564887678
 31
0
  0
LINE
  8
1
 62
7
 10
186.4209303645852
 20
184.3427564887678
 30
0
 11
190.4209303645852
 21
184.3427564887678
 31
0
  0
LINE
  8
1
 62
3
 10
224.9209303645852
 20
175.8427564887678
 30
0
 11
190.4209303645852
 21
212.8427564887678
 31
0
  0
LINE
  8
1
 62
3
 10
224.9209303645852
 20
212.7427564887678
 30
0
 11
190.4209303645853
 21
175.8427564887678
 31
0
  0
LINE
  8
1
 62
7
 10
190.4209303645853
 20
175.8427564887678
 30
0
 11
224.9209303645852
 21
175.8427564887678
 31
0
  0
LINE
  8
1
 62
7
 10
190.4209303645853
 20
175.8427564887678
 30
0
 11
190.4209303645852
 21
213.8427564887678
 31
0
  0
LINE
  8
1
 62
7
 10
224.9209303645852
 20
212.8427564887678
 30
0
 11
224.9209303645852
 21
175.8427564887678
 31
0
  0
LINE
  8
1
 62
7
 10
236.9209303645852
 20
187.3427564887678
 30
0
 11
233.9209303645852
 21
184.3427564887678
 31
0
  0
LINE
  8
1
 62
7
 10
236.9209303645852
 20
187.3427564887678
 30
0
 11
236.9209303645852
 21
211.899858275338
 31
0
  0
LINE
  8
1
 62
7
 10
226.9209303645852
 20
211.8427564887678
 30
0
 11
236.9209303645852
 21
201.8427564887678
 31
0
  0
LINE
  8
1
 62
7
 10
226.9209303645852
 20
211.8427564887678
 30
0
 11
226.9209303645852
 21
212.8427564887678
 31
0
  0
LINE
  8
1
 62
7
 10
224.9209303645852
 20
184.3427564887678
 30
0
 11
233.9209303645852
 21
184.3427564887678
 31
0
  0
LINE
  8
1
 62
7
 10
224.9209303645852
 20
212.7427564887678
 30
0
 11
226.9209303645852
 21
212.7427564887678
 31
0
  0
LINE
  8
1
 62
7
 10
137.1089941271688
 20
216.9514050170127
 30
0
 11
240.4111954754743
 21
232.7281346082229
 31
0
  0
LINE
  8
1
 62
7
 10
226.2053906663322
 20
216.3226979679683
 30
0
 11
158.6635683529783
 21
213.929950728796
 31
0
  0
LINE
  8
1
 62
7
 10
249.1467150395067
 20
194.368416534492
 30
0
 11
251.8721355831888
 21
221.8560880048089
 31
0
  0
LINE
  8
1
 62
7
 10
-22.07906963541481
 20
213.8427564887678
 30
0
 11
-22.07906963541481
 21
226.8427564887678
 31
0
  0
LINE
  8
1
 62
7
 10
-22.07906963541481
 20
226.8427564887678
 30
0
 11
-23.07906963541481
 21
227.8427564887678
 31
0
  0
LINE
  8
1
 62
7
 10
-21.07906963541481
 20
212.8427564887678
 30
0
 11
2.920930364585185
 21
212.8427564887678
 31
0
  0
LINE
  8
1
 62
7
 10
-21.07906963541481
 20
212.8427564887678
 30
0
 11
-22.07906963541481
 21
213.8427564887678
 31
0
  0
LINE
  8
1
 62
7
 10
68.92093036458519
 20
210.3427564887678
 30
0
 11
47.3643060375593
 21
210.3427564887678
 31
0
  0
LINE
  8
1
 62
7
 10
47.3643060375593
 20
210.3427564887678
 30
0
 11
45.9209303645852
 21
212.8427564887678
 31
0
  0
LINE
  8
1
 62
7
 10
69.0652679318826
 20
210.0927564887678
 30
0
 11
68.92093036458519
 21
210.3427564887678
 31
0
  0
LINE
  8
1
 62
3
 10
68.92093036458519
 20
210.3427564887678
 30
0
 11
68.05490496080071
 21
211.8427564887678
 31
0
  0
LINE
  8
1
 62
3
 10
68.05490496080071
 20
211.8427564887678
 30
0
 11
64.42093036458522
 21
211.8427564887678
 31
0
  0
LINE
  8
1
 62
7
 10
252.9209303645852
 20
227.8427564887678
 30
0
 11
252.9209303645852
 21
317.8427564887678
 31
0
  0
LINE
  8
1
 62
7
 10
251.9209303645852
 20
226.8427564887678
 30
0
 11
251.9209303645852
 21
213.8427564887678
 31
0
  0
LINE
  8
1
 62
7
 10
252.9209303645852
 20
227.8427564887678
 30
0
 11
251.9209303645852
 21
226.8427564887678
 31
0
  0
LINE
  8
1
 62
7
 10
183.9209303645852
 20
212.8427564887678
 30
0
 11
186.4209303645852
 21
212.8427564887678
 31
0
  0
LINE
  8
1
 62
7
 10
251.9209303645852
 20
213.8427564887678
 30
0
 11
250.9847895700216
 21
212.9066156942042
 31
0
  0
LINE
  8
1
 62
7
 10
182.4775546916111
 20
210.3427564887678
 30
0
 11
160.9209303645852
 21
210.3427564887678
 31
0
  0
LINE
  8
1
 62
7
 10
183.9209303645852
 20
212.8427564887678
 30
0
 11
182.4775546916111
 21
210.3427564887678
 31
0
  0
LINE
  8
1
 62
7
 10
160.9209303645852
 20
210.3427564887678
 30
0
 11
160.7765927972878
 21
210.0927564887678
 31
0
  0
LINE
  8
1
 62
3
 10
161.7869557683696
 20
211.8427564887678
 30
0
 11
160.9209303645852
 21
210.3427564887678
 31
0
  0
LINE
  8
1
 62
7
 10
186.4209303645852
 20
211.8427564887678
 30
0
 11
165.4209303645853
 21
211.8427564887678
 31
0
  0
LINE
  8
1
 62
7
 10
69.0652679318826
 20
210.0927564887678
 30
0
 11
137.2985148710195
 21
210.0927564887678
 31
0
  0
LINE
  8
1
 62
7
 10
46.9209303645852
 20
219.8427564887678
 30
0
 11
-22.07906963541481
 21
219.8427564887678
 31
0
  0
LINE
  8
1
 62
7
 10
252.9209303645853
 20
233.8427564887678
 30
0
 11
156.9209303645852
 21
233.8427564887678
 31
0
  0
LINE
  8
1
 62
7
 10
70.92093036458519
 20
237.8427564887678
 30
0
 11
-23.07906963541481
 21
237.8427564887678
 31
0
  0
LINE
  8
1
 62
7
 10
158.9209303645852
 20
308.3427564887678
 30
0
 11
158.9209303645852
 21
237.3427564887678
 31
0
  0
LINE
  8
1
 62
7
 10
158.9209303645852
 20
237.3427564887678
 30
0
 11
70.92093036458519
 21
237.3427564887678
 31
0
  0
LINE
  8
1
 62
7
 10
158.9209303645852
 20
237.8427564887678
 30
0
 11
252.9209303645852
 21
237.8427564887679
 31
0
  0
LINE
  8
1
 62
7
 10
-20.42535161443697
 20
332.8427564887678
 30
0
 11
-21.07906963541481
 21
332.8427564887678
 31
0
  0
LINE
  8
1
 62
7
 10
50.69084030692071
 20
346.8427564887678
 30
0
 11
50.6707573242616
 21
346.0796031477237
 31
0
  0
LINE
  8
1
 62
7
 10
50.7511867457998
 20
346.8427564887678
 30
0
 11
50.6739884972484
 21
346.1479722518052
 31
0
  0
LINE
  8
1
 62
7
 10
51.75734065003731
 20
346.8427564887678
 30
0
 11
51.667872231922
 21
346.0375407257303
 31
0
  0
LINE
  8
1
 62
7
 10
52.8622978569109
 20
346.8427564887678
 30
0
 11
52.7850996083595
 21
346.1479722518052
 31
0
  0
LINE
  8
1
 62
7
 10
53.86845176114841
 20
346.8427564887678
 30
0
 11
53.7789833430331
 21
346.0375407257303
 31
0
  0
LINE
  8
1
 62
7
 10
54.97340896802199
 20
346.8427564887678
 30
0
 11
54.8962107194706
 21
346.1479722518052
 31
0
  0
LINE
  8
1
 62
7
 10
55.97956287225952
 20
346.8427564887678
 30
0
 11
55.89009445414422
 21
346.0375407257304
 31
0
  0
LINE
  8
1
 62
7
 10
57.08452007913309
 20
346.8427564887678
 30
0
 11
57.0073218305817
 21
346.1479722518052
 31
0
  0
LINE
  8
1
 62
7
 10
58.09067398337061
 20
346.8427564887678
 30
0
 11
58.0012055652553
 21
346.0375407257304
 31
0
  0
LINE
  8
1
 62
7
 10
59.19563119024423
 20
346.8427564887678
 30
0
 11
59.11843294169279
 21
346.1479722518052
 31
0
  0
LINE
  8
1
 62
7
 10
60.20178509448169
 20
346.8427564887678
 30
0
 11
60.11231667636639
 21
346.0375407257304
 31
0
  0
LINE
  8
1
 62
7
 10
60.94049410646022
 20
346.8427564887678
 30
0
 11
60.92110340490882
 21
346.1059098298118
 31
0
  0
LINE
  8
1
 62
7
 10
61.17110340490882
 20
355.6059098298119
 30
0
 11
61.1510204222497
 21
354.8427564887678
 31
0
  0
LINE
  8
1
 62
7
 10
61.16787223192199
 20
355.5375407257304
 30
0
 11
61.09067398337061
 21
354.8427564887678
 31
0
  0
LINE
  8
1
 62
7
 10
60.17398849724839
 20
355.6479722518052
 30
0
 11
60.08452007913309
 21
354.8427564887678
 31
0
  0
LINE
  8
1
 62
7
 10
59.0567611208109
 20
355.5375407257304
 30
0
 11
58.97956287225952
 21
354.8427564887678
 31
0
  0
LINE
  8
1
 62
7
 10
58.0628773861373
 20
355.6479722518052
 30
0
 11
57.973408968022
 21
354.8427564887678
 31
0
  0
LINE
  8
1
 62
7
 10
56.94565000969982
 20
355.5375407257304
 30
0
 11
56.86845176114838
 21
354.8427564887678
 31
0
  0
LINE
  8
1
 62
7
 10
55.9517662750261
 20
355.6479722518052
 30
0
 11
55.86229785691091
 21
354.8427564887678
 31
0
  0
LINE
  8
1
 62
7
 10
54.8345388985887
 20
355.5375407257303
 30
0
 11
54.75734065003731
 21
354.8427564887678
 31
0
  0
LINE
  8
1
 62
7
 10
53.840655163915
 20
355.6479722518052
 30
0
 11
53.7511867457998
 21
354.8427564887678
 31
0
  0
LINE
  8
1
 62
7
 10
52.72342778747751
 20
355.5375407257303
 30
0
 11
52.64622953892621
 21
354.8427564887678
 31
0
  0
LINE
  8
1
 62
7
 10
51.7295440528039
 20
355.6479722518052
 30
0
 11
51.6400756346886
 21
354.8427564887678
 31
0
  0
LINE
  8
1
 62
7
 10
50.9207573242616
 20
355.5796031477237
 30
0
 11
50.9013666227102
 21
354.8427564887678
 31
0
  0
LINE
  8
1
 62
7
 10
67.02093036458518
 20
340.8427564887678
 30
0
 11
64.42093036458522
 21
340.8427564887678
 31
0
  0
LINE
  8
1
 62
7
 10
67.02093036458518
 20
370.8427564887678
 30
0
 11
64.42093036458522
 21
370.8427564887678
 31
0
  0
LINE
  8
1
 62
7
 10
67.02093036458518
 20
370.8427564887678
 30
0
 11
67.02093036458518
 21
340.8427564887678
 31
0
  0
LINE
  8
1
 62
7
 10
64.42093036458522
 20
333.8427564887678
 30
0
 11
64.42093036458522
 21
370.8427564887678
 31
0
  0
LINE
  8
1
 62
7
 10
61.42093036458522
 20
346.8427564887678
 30
0
 11
61.42093036458522
 21
344.8427564887678
 31
0
  0
LINE
  8
1
 62
7
 10
50.4209303645852
 20
354.8427564887678
 30
0
 11
64.42093036458522
 21
354.8427564887678
 31
0
  0
LINE
  8
1
 62
7
 10
50.4209303645852
 20
356.8427564887678
 30
0
 11
50.4209303645852
 21
344.8427564887678
 31
0
  0
LINE
  8
1
 62
7
 10
43.4209303645852
 20
355.0927564887678
 30
0
 11
39.4209303645852
 21
355.0927564887678
 31
0
  0
LINE
  8
1
 62
7
 10
43.4209303645852
 20
346.5927564887678
 30
0
 11
39.4209303645852
 21
346.5927564887678
 31
0
  0
LINE
  8
1
 62
7
 10
50.4209303645852
 20
346.8427564887678
 30
0
 11
64.42093036458522
 21
346.8427564887678
 31
0
  0
LINE
  8
1
 62
7
 10
61.42093036458522
 20
344.8427564887678
 30
0
 11
43.42093036458522
 21
344.8427564887678
 31
0
  0
LINE
  8
1
 62
7
 10
61.42093036458522
 20
356.8427564887678
 30
0
 11
61.42093036458522
 21
354.8427564887678
 31
0
  0
LINE
  8
1
 62
7
 10
43.4209303645852
 20
356.8427564887678
 30
0
 11
61.42093036458522
 21
356.8427564887678
 31
0
  0
LINE
  8
1
 62
7
 10
68.42093036458522
 20
358.3427564887678
 30
0
 11
67.02093036458518
 21
359.7427564887678
 31
0
  0
LINE
  8
1
 62
3
 10
47.3643060375593
 20
335.3427564887678
 30
0
 11
43.4209303645852
 21
335.3427564887678
 31
0
  0
LINE
  8
1
 62
3
 10
64.42093036458522
 20
333.8427564887678
 30
0
 11
68.0549049608008
 21
333.8427564887678
 31
0
  0
LINE
  8
1
 62
7
 10
68.42093036458522
 20
336.3427564887678
 30
0
 11
64.42093036458522
 21
336.3427564887678
 31
0
  0
LINE
  8
1
 62
7
 10
68.42093036458522
 20
358.3427564887678
 30
0
 11
68.42093036458522
 21
335.3427564887679
 31
0
  0
LINE
  8
1
 62
7
 10
43.4209303645852
 20
361.3427564887678
 30
0
 11
64.42093036458522
 21
361.3427564887678
 31
0
  0
LINE
  8
1
 62
7
 10
39.4209303645852
 20
355.3427564887678
 30
0
 11
43.4209303645852
 21
355.3427564887678
 31
0
  0
LINE
  8
1
 62
7
 10
43.4209303645852
 20
346.3427564887678
 30
0
 11
39.4209303645852
 21
346.3427564887678
 31
0
  0
LINE
  8
1
 62
7
 10
39.4209303645852
 20
332.8427564887678
 30
0
 11
-5.791402387061286
 21
332.8427564887678
 31
0
  0
LINE
  8
1
 62
7
 10
43.4209303645852
 20
331.8427564887678
 30
0
 11
39.4209303645852
 21
331.8427564887678
 31
0
  0
LINE
  8
1
 62
7
 10
43.4209303645852
 20
361.3427564887678
 30
0
 11
43.4209303645852
 21
331.8427564887678
 31
0
  0
LINE
  8
1
 62
7
 10
43.4209303645852
 20
361.3427564887678
 30
0
 11
39.4209303645852
 21
361.3427564887678
 31
0
  0
LINE
  8
1
 62
3
 10
4.920930364585171
 20
369.8427564887678
 30
0
 11
39.4209303645852
 21
332.8427564887678
 31
0
  0
LINE
  8
1
 62
3
 10
4.920930364585185
 20
332.8427564887678
 30
0
 11
39.4209303645852
 21
369.8427564887678
 31
0
  0
LINE
  8
1
 62
7
 10
39.4209303645852
 20
369.8427564887678
 30
0
 11
4.920930364585171
 21
369.8427564887678
 31
0
  0
LINE
  8
1
 62
7
 10
39.4209303645852
 20
369.8427564887678
 30
0
 11
39.4209303645852
 21
331.8427564887678
 31
0
  0
LINE
  8
1
 62
7
 10
4.920930364585185
 20
332.8427564887678
 30
0
 11
4.920930364585171
 21
369.8427564887678
 31
0
  0
LINE
  8
1
 62
7
 10
-7.079069635414815
 20
358.3427564887678
 30
0
 11
-4.079069635414815
 21
361.3427564887678
 31
0
  0
LINE
  8
1
 62
7
 10
-7.079069635414815
 20
358.3427564887678
 30
0
 11
-7.079069635414799
 21
334.5674568642335
 31
0
  0
LINE
  8
1
 62
7
 10
2.920930364585185
 20
333.8427564887678
 30
0
 11
-7.079069635414815
 21
343.8427564887678
 31
0
  0
LINE
  8
1
 62
7
 10
2.920930364585185
 20
333.8427564887678
 30
0
 11
2.920930364585185
 21
332.8427564887678
 31
0
  0
LINE
  8
1
 62
7
 10
4.920930364585185
 20
361.3427564887678
 30
0
 11
-4.079069635414815
 21
361.3427564887678
 31
0
  0
LINE
  8
1
 62
7
 10
4.920930364585185
 20
332.9427564887678
 30
0
 11
2.920930364585185
 21
332.9427564887678
 31
0
  0
LINE
  8
1
 62
3
  6
DASHDOT
 10
-158.8812614062649
 20
272.8427564887678
 30
0
 11
-158.8812614062649
 21
275.3427564887678
 31
0
  0
LINE
  8
1
 62
7
 10
-208.7806078068401
 20
292.4145532584922
 30
0
 11
-200.7806078068401
 21
306.2709597190434
 31
0
  0
LINE
  8
1
 62
7
 10
-200.7806078068401
 20
306.2709597190434
 30
0
 11
-206.3788341645999
 21
309.5030972136804
 31
0
  0
LINE
  8
1
 62
7
 10
-150.8812614062649
 20
219.8427564887679
 30
0
 11
-166.8812614062649
 21
219.8427564887679
 31
0
  0
LINE
  8
1
 62
7
 10
-166.8812614062649
 20
219.8427564887679
 30
0
 11
-166.8812614062651
 21
213.3784814994938
 31
0
  0
LINE
  8
1
 62
7
 10
-150.8812614062649
 20
311.8427564887679
 30
0
 11
-166.8812614062649
 21
311.8427564887679
 31
0
  0
LINE
  8
1
 62
7
 10
-116.9819150056896
 20
306.2709597190434
 30
0
 11
-108.9819150056896
 21
292.4145532584922
 31
0
  0
LINE
  8
1
 62
7
 10
-108.9819150056896
 20
292.4145532584922
 30
0
 11
-103.3836886479299
 21
295.6466907531294
 31
0
  0
LINE
  8
1
 62
7
 10
-23.07906963541481
 20
317.8427564887678
 30
0
 11
-23.07906963541481
 21
227.8427564887678
 31
0
  0
LINE
  8
1
 62
7
 10
-22.07906963541481
 20
318.8427564887678
 30
0
 11
-22.07906963541481
 21
331.8427564887678
 31
0
  0
LINE
  8
1
 62
7
 10
-23.07906963541481
 20
317.8427564887678
 30
0
 11
-22.07906963541481
 21
318.8427564887678
 31
0
  0
LINE
  8
1
 62
7
 10
45.9209303645852
 20
332.8427564887678
 30
0
 11
43.4209303645852
 21
332.8427564887678
 31
0
  0
LINE
  8
1
 62
7
 10
-22.07906963541481
 20
331.8427564887678
 30
0
 11
-21.07906963541481
 21
332.8427564887678
 31
0
  0
LINE
  8
1
 62
7
 10
47.3643060375593
 20
335.3427564887678
 30
0
 11
68.92093036458519
 21
335.3427564887678
 31
0
  0
LINE
  8
1
 62
7
 10
45.9209303645852
 20
332.8427564887678
 30
0
 11
47.3643060375593
 21
335.3427564887678
 31
0
  0
LINE
  8
1
 62
7
 10
68.92093036458519
 20
335.3427564887678
 30
0
 11
69.0652679318826
 21
335.5927564887678
 31
0
  0
LINE
  8
1
 62
3
 10
68.0549049608008
 20
333.8427564887678
 30
0
 11
68.92093036458519
 21
335.3427564887678
 31
0
  0
LINE
  8
1
 62
7
 10
43.4209303645852
 20
333.8427564887678
 30
0
 11
64.42093036458522
 21
333.8427564887678
 31
0
  0
LINE
  8
1
 62
7
 10
-23.07906963541491
 20
311.8427564887678
 30
0
 11
72.92093036458519
 21
311.8427564887678
 31
0
  0
LINE
  8
1
 62
7
 10
70.92093036458519
 20
237.3427564887678
 30
0
 11
70.92093036458519
 21
308.3427564887679
 31
0
  0
LINE
  8
1
 62
7
 10
70.92093036458519
 20
307.8427564887678
 30
0
 11
-23.07906963541481
 21
307.8427564887677
 31
0
  0
LINE
  8
1
 62
7
 10
-117.8812614062649
 20
263.8427564887679
 30
0
 11
-125.0581923556894
 21
263.8427564887679
 31
0
  0
LINE
  8
1
 62
7
 10
-117.8812614062649
 20
281.8427564887679
 30
0
 11
-117.8812614062649
 21
263.8427564887679
 31
0
  0
LINE
  8
1
 62
7
 10
-125.0581923556894
 20
281.8427564887679
 30
0
 11
-117.8812614062649
 21
281.8427564887679
 31
0
  0
LINE
  8
1
 62
3
  6
DIVIDE
 10
-156.3812614062648
 20
219.8427564887679
 30
0
 11
-156.3812614062648
 21
237.4308940695163
 31
0
  0
LINE
  8
1
 62
3
  6
DIVIDE
 10
-161.3812614062648
 20
219.8427564887679
 30
0
 11
-161.3812614062648
 21
237.4308940695163
 31
0
  0
LINE
  8
1
 62
3
  6
DIVIDE
 10
-114.2319150056898
 20
301.507819998229
 30
0
 11
-129.4636889558737
 21
292.7137512078548
 31
0
  0
LINE
  8
1
 62
3
  6
DIVIDE
 10
-206.0306078068402
 20
297.1776929793066
 30
0
 11
-190.7988338566563
 21
288.3836241889325
 31
0
  0
LINE
  8
1
 62
3
  6
DIVIDE
 10
-111.7319150056898
 20
297.1776929793068
 30
0
 11
-126.9636889558737
 21
288.3836241889326
 31
0
  0
LINE
  8
1
 62
3
  6
DIVIDE
 10
-203.5306078068402
 20
301.5078199982288
 30
0
 11
-188.2988338566563
 21
292.7137512078546
 31
0
  0
LINE
  8
1
 62
3
  6
DIVIDE
 10
38.92093036458519
 20
237.3427564887678
 30
0
 11
38.92093036458519
 21
308.3427564887678
 31
0
  0
LINE
  8
1
 62
3
  6
DIVIDE
 10
38.92093036458519
 20
308.3427564887678
 30
0
 11
2.920930364585185
 21
308.3427564887678
 31
0
  0
LINE
  8
1
 62
3
  6
DIVIDE
 10
2.920930364585185
 20
308.3427564887678
 30
0
 11
2.920930364585185
 21
237.3427564887678
 31
0
  0
LINE
  8
1
 62
3
  6
DIVIDE
 10
2.920930364585185
 20
237.3427564887678
 30
0
 11
38.92093036458519
 21
237.3427564887678
 31
0
  0
LINE
  8
1
 62
3
  6
DIVIDE
 10
226.9209303645852
 20
237.3427564887678
 30
0
 11
226.9209303645852
 21
308.3427564887678
 31
0
  0
LINE
  8
1
 62
3
  6
DIVIDE
 10
190.9209303645852
 20
237.3427564887678
 30
0
 11
226.9209303645852
 21
237.3427564887678
 31
0
  0
LINE
  8
1
 62
3
  6
DIVIDE
 10
190.9209303645852
 20
308.3427564887678
 30
0
 11
190.9209303645852
 21
237.3427564887678
 31
0
  0
LINE
  8
1
 62
3
  6
DIVIDE
 10
226.9209303645852
 20
308.3427564887678
 30
0
 11
190.9209303645852
 21
308.3427564887678
 31
0
  0
LINE
  8
1
 62
3
  6
DIVIDE
 10
215.4209303645852
 20
308.3427564887677
 30
0
 11
215.4209303645852
 21
325.8427564887677
 31
0
  0
LINE
  8
1
 62
3
  6
DIVIDE
 10
220.4209303645852
 20
325.8427564887677
 30
0
 11
220.4209303645852
 21
308.3427564887677
 31
0
  0
LINE
  8
1
 62
3
  6
DIVIDE
 10
203.4209303645852
 20
308.3427564887677
 30
0
 11
203.4209303645852
 21
325.8427564887677
 31
0
  0
LINE
  8
1
 62
3
  6
DIVIDE
 10
208.4209303645852
 20
325.8427564887677
 30
0
 11
208.4209303645852
 21
308.3427564887677
 31
0
  0
LINE
  8
1
 62
7
 10
-16.9782841306735
 20
351.8082134561529
 30
0
 11
-21.91787804773692
 21
324.6310095540862
 31
0
  0
LINE
  8
1
 62
7
 10
-11.3737733287627
 20
312.8676596411265
 30
0
 11
92.84749065433792
 21
319.5767274379338
 31
0
  0
LINE
  8
1
 62
7
 10
4.112306520496457
 20
328.0704413778748
 30
0
 11
71.63827518362933
 21
324.4652891066415
 31
0
  0
LINE
  8
1
 62
3
  6
DIVIDE
 10
21.42093036458519
 20
219.8427564887679
 30
0
 11
21.42093036458519
 21
237.3427564887679
 31
0
  0
LINE
  8
1
 62
3
  6
DIVIDE
 10
26.42093036458519
 20
237.3427564887679
 30
0
 11
26.42093036458519
 21
219.8427564887679
 31
0
  0
LINE
  8
1
 62
3
  6
DIVIDE
 10
9.420930364585185
 20
219.8427564887679
 30
0
 11
9.420930364585185
 21
237.3427564887679
 31
0
  0
LINE
  8
1
 62
3
  6
DIVIDE
 10
14.42093036458519
 20
237.3427564887679
 30
0
 11
14.42093036458519
 21
219.8427564887679
 31
0
  0
LINE
  8
1
 62
3
  6
DASHDOT
 10
252.9209303645852
 20
272.8427564887678
 30
0
 11
255.4209303645852
 21
272.8427564887678
 31
0
  0
LINE
  8
1
 62
3
  6
DASHDOT
 10
-25.57906963541481
 20
272.8427564887678
 30
0
 11
-23.07906963541481
 21
272.8427564887678
 31
0
  0
ARC
  8
1
 62
7
 10
-158.8812614062649
 20
272.8427564887678
 30
0
 40
59.00000000000002
 50
157.7929243354222
 51
202.2070756645776
  0
ARC
  8
1
 62
7
 10
-158.8812614062649
 20
272.8427564887678
 30
0
 40
59.00000000000003
 50
37.79292433542238
 51
82.20707566457764
  0
ARC
  8
1
 62
7
 10
-158.8812614062649
 20
272.8427564887678
 30
0
 40
58.99999999999999
 50
277.7929243354224
 51
322.2070756645776
  0
ARC
  8
1
 62
7
 10
-158.8812614062649
 20
272.8427564887678
 30
0
 40
58.99999999999997
 50
97.79292433542234
 51
142.2070756645776
  0
ARC
  8
1
 62
7
 10
-158.8812614062649
 20
272.8427564887678
 30
0
 40
58.99999999999993
 50
217.7929243354223
 51
262.2070756645774
  0
ARC
  8
1
 62
7
 10
-158.8812614062649
 20
272.8427564887678
 30
0
 40
58.99999999999998
 50
337.7929243354224
 51
22.20707566457771
  0
ARC
  8
1
 62
7
 10
-158.8812614062649
 20
272.8427564887678
 30
0
 40
45.99999999999999
 50
100.0154101682505
 51
199.9845898317493
  0
ARC
  8
1
 62
7
 10
-158.8812614062649
 20
272.8427564887678
 30
0
 40
46.00000000000006
 50
340.0154101682506
 51
79.98458983174918
  0
ARC
  8
1
 62
7
 10
-158.8812614062649
 20
272.8427564887678
 30
0
 40
45.99999999999991
 50
220.0154101682507
 51
319.9845898317494
  0
ARC
  8
1
 62
7
 10
-158.8812614062649
 20
272.8427564887678
 30
0
 40
59.99999999999999
 50
157.662255660766
 51
202.3377443392338
  0
ARC
  8
1
 62
7
 10
-158.8812614062649
 20
272.8427564887678
 30
0
 40
60.10000000000001
 50
157.4090219995194
 51
202.3505698740354
  0
ARC
  8
1
 62
7
 10
-158.8812614062649
 20
272.8427564887678
 30
0
 40
61
 50
180
 51
202.4640906577199
  0
ARC
  8
1
 62
7
 10
-158.8812614062649
 20
272.8427564887678
 30
0
 40
70.99999999999999
 50
96.46960161034264
 51
203.5303983896573
  0
ARC
  8
1
 62
7
 10
-158.8812614062649
 20
272.8427564887678
 30
0
 40
60.10000000000001
 50
277.6494301259645
 51
322.3505698740356
  0
ARC
  8
1
 62
7
 10
-158.8812614062649
 20
272.8427564887678
 30
0
 40
59.99999999999999
 50
277.6622556607662
 51
322.337744339234
  0
ARC
  8
1
 62
7
 10
-158.8812614062649
 20
272.8427564887678
 30
0
 40
60.99999999999992
 50
217.5359093422801
 51
322.46409065772
  0
ARC
  8
1
 62
7
 10
-158.8812614062649
 20
272.8427564887678
 30
0
 40
70.99999999999997
 50
216.4696016103426
 51
323.5303983896573
  0
ARC
  8
1
 62
7
 10
-158.8812614062649
 20
272.8427564887678
 30
0
 40
61
 50
97.53590934228005
 51
180
  0
ARC
  8
1
 62
7
 10
-158.8812614062649
 20
272.8427564887678
 30
0
 40
61.00000000000004
 50
337.5359093422801
 51
82.46409065771985
  0
ARC
  8
1
 62
7
 10
-158.8812614062649
 20
272.8427564887678
 30
0
 40
60.10000000000009
 50
37.4090219995194
 51
82.35056987403549
  0
ARC
  8
1
 62
7
 10
-158.8812614062649
 20
272.8427564887678
 30
0
 40
60.00000000000019
 50
37.66225566076602
 51
82.33774433923387
  0
ARC
  8
1
 62
7
 10
-158.8812614062649
 20
272.8427564887678
 30
0
 40
60.00000000000019
 50
97.66225566076604
 51
142.3377443392339
  0
ARC
  8
1
 62
7
 10
-158.8812614062649
 20
272.8427564887678
 30
0
 40
60.10000000000009
 50
97.64943012596442
 51
142.5909780004807
  0
ARC
  8
1
 62
7
 10
-158.8812614062649
 20
272.8427564887678
 30
0
 40
60.00000000000017
 50
337.6622556607662
 51
22.33774433923399
  0
ARC
  8
1
 62
7
 10
-158.8812614062649
 20
272.8427564887678
 30
0
 40
60.09999999999997
 50
337.6494301259645
 51
22.59097800048082
  0
ARC
  8
1
 62
7
 10
-158.8812614062649
 20
272.8427564887678
 30
0
 40
60.09999999999993
 50
217.6494301259644
 51
262.5909780004808
  0
ARC
  8
1
 62
7
 10
-158.8812614062649
 20
272.8427564887678
 30
0
 40
60.1
 50
277.4090219995194
 51
277.6494301259645
  0
ARC
  8
1
 62
7
 10
-158.8812614062649
 20
272.8427564887678
 30
0
 40
59.99999999999973
 50
217.6622556607663
 51
262.3377443392337
  0
ARC
  8
1
 62
7
 10
-158.8812614062649
 20
272.8427564887678
 30
0
 40
89.00000000000024
 50
65.8038757642733
 51
84.1961242357266
  0
ARC
  8
1
 62
7
 10
-158.8812614062649
 20
272.8427564887678
 30
0
 40
89.00000000000021
 50
35.80387576427335
 51
54.19612423572657
  0
ARC
  8
1
 62
7
 10
-158.8812614062649
 20
272.8427564887678
 30
0
 40
89.00000000000017
 50
5.803875764273318
 51
24.19612423572657
  0
ARC
  8
1
 62
7
 10
-158.8812614062649
 20
272.8427564887678
 30
0
 40
89.00000000000013
 50
335.8038757642734
 51
354.1961242357265
  0
ARC
  8
1
 62
7
 10
-158.8812614062649
 20
272.8427564887678
 30
0
 40
89.00000000000013
 50
305.8038757642734
 51
324.1961242357266
  0
ARC
  8
1
 62
7
 10
-158.8812614062649
 20
272.8427564887678
 30
0
 40
89.0000000000001
 50
275.8038757642735
 51
294.1961242357267
  0
ARC
  8
1
 62
7
 10
-158.8812614062649
 20
272.8427564887678
 30
0
 40
89.00000000000001
 50
245.8038757642735
 51
264.1961242357267
  0
ARC
  8
1
 62
7
 10
-158.8812614062649
 20
272.8427564887678
 30
0
 40
88.99999999999997
 50
215.8038757642734
 51
234.1961242357266
  0
ARC
  8
1
 62
7
 10
-158.8812614062649
 20
272.8427564887678
 30
0
 40
88.99999999999996
 50
185.8038757642734
 51
204.1961242357266
  0
ARC
  8
1
 62
7
 10
-158.8812614062649
 20
272.8427564887678
 30
0
 40
88.99999999999996
 50
155.8038757642734
 51
174.1961242357266
  0
ARC
  8
1
 62
7
 10
-158.8812614062649
 20
272.8427564887678
 30
0
 40
89
 50
125.8038757642734
 51
144.1961242357265
  0
ARC
  8
1
 62
7
 10
-158.8812614062649
 20
272.8427564887678
 30
0
 40
97.00000000000027
 50
54.67623951905148
 51
65.32376048094841
  0
ARC
  8
1
 62
7
 10
-158.8812614062649
 20
272.8427564887678
 30
0
 40
97.00000000000021
 50
24.67623951905146
 51
35.32376048094839
  0
ARC
  8
1
 62
7
 10
-158.8812614062649
 20
272.8427564887678
 30
0
 40
97.00000000000017
 50
354.6762395190514
 51
5.323760480948399
  0
ARC
  8
1
 62
7
 10
-158.8812614062649
 20
272.8427564887678
 30
0
 40
97.00000000000016
 50
324.6762395190515
 51
335.3237604809485
  0
ARC
  8
1
 62
7
 10
-158.8812614062649
 20
272.8427564887678
 30
0
 40
97.00000000000011
 50
294.6762395190516
 51
305.3237604809485
  0
ARC
  8
1
 62
7
 10
-158.8812614062649
 20
272.8427564887678
 30
0
 40
97.0000000000001
 50
264.6762395190516
 51
275.3237604809485
  0
ARC
  8
1
 62
7
 10
-158.8812614062649
 20
272.8427564887678
 30
0
 40
97
 50
234.6762395190517
 51
245.3237604809486
  0
ARC
  8
1
 62
7
 10
-158.8812614062649
 20
272.8427564887678
 30
0
 40
96.99999999999994
 50
204.6762395190516
 51
215.3237604809485
  0
ARC
  8
1
 62
7
 10
-158.8812614062649
 20
272.8427564887678
 30
0
 40
97
 50
174.6762395190515
 51
185.3237604809485
  0
ARC
  8
1
 62
7
 10
-158.8812614062649
 20
272.8427564887678
 30
0
 40
96.99999999999996
 50
144.6762395190515
 51
155.3237604809484
  0
ARC
  8
1
 62
7
 10
-158.8812614062649
 20
272.8427564887678
 30
0
 40
88.99999999999999
 50
95.80387576427339
 51
114.1961242357265
  0
ARC
  8
1
 62
7
 10
-158.8812614062649
 20
272.8427564887678
 30
0
 40
96.99999999999994
 50
114.6762395190515
 51
125.3237604809485
  0
ARC
  8
1
 62
7
 10
-158.8812614062649
 20
272.8427564887678
 30
0
 40
97
 50
84.67623951905154
 51
95.32376048094848
  0
ARC
  8
1
 62
7
 10
182.9209303645852
 20
388.3427564887678
 30
0
 40
62.49999999999999
 50
237.5649519251187
 51
270
  0
ARC
  8
1
 62
7
 10
168.4209303645853
 20
199.5927564887678
 30
0
 40
0.5
 50
270
 51
90
  0
ARC
  8
1
 62
7
 10
168.1709303645853
 20
190.0927564887678
 30
0
 40
0.4999999999999918
 50
300.0000000000005
 51
60.00000000000435
  0
ARC
  8
1
 62
7
 10
179.6709303645853
 20
199.5927564887678
 30
0
 40
0.5000000000000657
 50
119.9999999999957
 51
239.9999999999995
  0
ARC
  8
1
 62
7
 10
179.4209303645853
 20
190.0927564887678
 30
0
 40
0.5
 50
90
 51
270
  0
ARC
  8
1
 62
7
 10
165.4209303645853
 20
194.8427564887678
 30
0
 40
4.000000000000114
 50
130.5416018735052
 51
229.4583981264941
  0
ARC
  8
1
 62
7
 10
158.8051841462774
 20
209.9324583939581
 30
0
 40
3.999999999999953
 50
92.02892082267063
 51
221.4249285495647
  0
ARC
  8
1
 62
7
 10
153.556421245134
 20
205.3009912389866
 30
0
 40
2.99999999999997
 50
271.3899538407743
 51
41.42492854956109
  0
ARC
  8
1
 62
7
 10
153.1440540885688
 20
222.2959891303718
 30
0
 40
20.00000000000009
 50
206.5273203451663
 51
271.3899538407739
  0
ARC
  8
1
 62
7
 10
137.4864278494465
 20
214.4800604871489
 30
0
 40
2.500000000000009
 50
98.68334586868038
 51
206.527320345168
  0
ARC
  8
1
 62
7
 10
244.1711124302051
 20
194.8617507764714
 30
0
 40
5.000000000000092
 50
156.8497690256769
 51
354.3375931461306
  0
ARC
  8
1
 62
7
 10
226.7010459428801
 20
202.3314747960355
 30
0
 40
14.00000000000014
 50
336.849769025678
 51
92.02892082267486
  0
ARC
  8
1
 62
7
 10
241.9209303645852
 20
222.8427564887678
 30
0
 40
10.00000000000007
 50
354.3375931461302
 51
98.68334586868123
  0
ARC
  8
1
 62
7
 10
46.9209303645852
 20
157.3427564887678
 30
0
 40
62.49999999999999
 50
57.56495192511869
 51
90
  0
ARC
  8
1
 62
7
 10
156.9209303645852
 20
171.3427564887678
 30
0
 40
62.5
 50
90
 51
141.6838655263343
  0
ARC
  8
1
 62
7
 10
61.42093036458522
 20
346.0927564887678
 30
0
 40
0.5
 50
90
 51
270
  0
ARC
  8
1
 62
7
 10
61.67093036458522
 20
355.5927564887678
 30
0
 40
0.4999999999999918
 50
120.0000000000006
 51
240.000000000006
  0
ARC
  8
1
 62
7
 10
50.1709303645852
 20
346.0927564887678
 30
0
 40
0.5000000000000904
 50
299.999999999994
 51
59.99999999999946
  0
ARC
  8
1
 62
7
 10
50.4209303645852
 20
355.5927564887678
 30
0
 40
0.5
 50
270
 51
90
  0
ARC
  8
1
 62
7
 10
64.42093036458522
 20
350.8427564887678
 30
0
 40
4.000000000000044
 50
310.5416018735033
 51
49.45839812649559
  0
ARC
  8
1
 62
7
 10
-158.8812614062649
 20
272.8427564887678
 30
0
 40
45.00000000000012
 50
220.2403483211861
 51
319.759651678814
  0
ARC
  8
1
 62
7
 10
-158.8812614062649
 20
272.8427564887678
 30
0
 40
45.00000000000026
 50
100.2403483211862
 51
199.7596516788138
  0
ARC
  8
1
 62
7
 10
-158.8812614062649
 20
272.8427564887678
 30
0
 40
45.00000000000021
 50
340.2403483211862
 51
79.75965167881384
  0
ARC
  8
1
 62
7
 10
72.92093036458519
 20
374.3427564887678
 30
0
 40
62.5
 50
270
 51
321.6838655263343
  0
ARC
  8
1
 62
7
 10
-158.8812614062649
 20
272.8427564887678
 30
0
 40
35.00000000000001
 50
14.90059668783006
 51
345.0994033121702
  0
ARC
  8
1
 62
7
 10
-158.8812614062649
 20
272.8427564887678
 30
0
 40
70.99999999999997
 50
336.4696016103428
 51
83.53039838965736
  0
ARC
  8
1
 62
7
 10
-12.07906963541481
 20
322.8427564887678
 30
0
 40
10.00000000000004
 50
169.6986552865213
 51
274.0444080090718
  0
ARC
  8
1
 62
7
 10
92.68688504940937
 20
322.0715632721452
 30
0
 40
2.499999999999966
 50
273.6833458686833
 51
21.52732034516012
  0
ARC
  8
1
 62
7
 10
76.40763773913088
 20
315.6500286416389
 30
0
 40
20.00000000000004
 50
21.52732034516586
 51
86.38995384077462
  0
ARC
  8
1
 62
7
 10
77.47805142831183
 20
332.6162956009325
 30
0
 40
2.999999999999994
 50
86.38995384077548
 51
216.4249285495668
  0
ARC
  8
1
 62
7
 10
71.8456026947492
 20
328.4599124059192
 30
0
 40
3.999999999999976
 50
267.028920822676
 51
36.42492854956208
  0
ARC
  8
1
 62
7
 10
4.749833448791147
 20
342.0559181096742
 30
0
 40
14.00000000000009
 50
152.2108311660672
 51
267.3899829630649
  0
ARC
  8
1
 62
7
 10
-12.05887992451246
 20
350.9140869234938
 30
0
 40
4.999999999999943
 50
332.2108311660663
 51
169.6986552865226
  0
CIRCLE
  8
1
 62
7
 10
170.2264859201409
 20
199.5927564887678
 30
0
 40
0.5
  0
CIRCLE
  8
1
 62
7
 10
169.1709303645853
 20
190.0927564887678
 30
0
 40
0.5
  0
CIRCLE
  8
1
 62
7
 10
172.3375970312519
 20
199.5927564887678
 30
0
 40
0.5
  0
CIRCLE
  8
1
 62
7
 10
171.2820414756965
 20
190.0927564887678
 30
0
 40
0.5
  0
CIRCLE
  8
1
 62
7
 10
174.448708142363
 20
199.5927564887678
 30
0
 40
0.5
  0
CIRCLE
  8
1
 62
7
 10
173.3931525868074
 20
190.0927564887678
 30
0
 40
0.5
  0
CIRCLE
  8
1
 62
7
 10
176.5598192534741
 20
199.5927564887678
 30
0
 40
0.5
  0
CIRCLE
  8
1
 62
7
 10
175.5042636979185
 20
190.0927564887678
 30
0
 40
0.5
  0
CIRCLE
  8
1
 62
7
 10
178.6709303645853
 20
199.5927564887678
 30
0
 40
0.5
  0
CIRCLE
  8
1
 62
7
 10
177.6153748090297
 20
190.0927564887678
 30
0
 40
0.5
  0
CIRCLE
  8
1
 62
7
 10
241.9209303645852
 20
222.8427564887678
 30
0
 40
4
  0
CIRCLE
  8
1
 62
7
 10
59.61537480902962
 20
346.0927564887678
 30
0
 40
0.5
  0
CIRCLE
  8
1
 62
7
 10
60.67093036458522
 20
355.5927564887678
 30
0
 40
0.5
  0
CIRCLE
  8
1
 62
7
 10
57.50426369791853
 20
346.0927564887678
 30
0
 40
0.5
  0
CIRCLE
  8
1
 62
7
 10
58.55981925347413
 20
355.5927564887678
 30
0
 40
0.5
  0
CIRCLE
  8
1
 62
7
 10
55.39315258680739
 20
346.0927564887678
 30
0
 40
0.5
  0
CIRCLE
  8
1
 62
7
 10
56.44870814236293
 20
355.5927564887678
 30
0
 40
0.5
  0
CIRCLE
  8
1
 62
7
 10
53.2820414756963
 20
346.0927564887678
 30
0
 40
0.5
  0
CIRCLE
  8
1
 62
7
 10
54.3375970312519
 20
355.5927564887678
 30
0
 40
0.5
  0
CIRCLE
  8
1
 62
7
 10
51.1709303645852
 20
346.0927564887678
 30
0
 40
0.5
  0
CIRCLE
  8
1
 62
7
 10
52.2264859201407
 20
355.5927564887678
 30
0
 40
0.5
  0
CIRCLE
  8
1
 62
7
 10
-12.07906963541481
 20
322.8427564887678
 30
0
 40
4.000000000000002
  0
CIRCLE
  8
1
 62
7
 10
-158.8812614062649
 20
272.8427564887678
 30
0
 40
85.50000000000007
  0
CIRCLE
  8
1
 62
7
 10
-158.8812614062649
 20
272.8427564887678
 30
0
 40
88.50000000000007
  0
TEXT
  8
1
 62
7
 10
-181.5183900151511
 20
410.0618306974973
 30
0
 40
10
  1
OD 708
 41
0.9
  7
SIMPLEX
 72
1
 11
-154.5183900151511
 21
410.0618306974973
 31
0
  0
ENDSEC
  0
EOF
