  0
SECTION
  2
HEADER
  9
$ACADVER
  1
AC1009
  9
$INSBASE
 10
0
 20
0
  9
$EXTMIN
 10
-256.7059329363616
 20
169.6320526179776
  9
$EXTMAX
 10
267.9190907944382
 20
478.7645552181834
  9
$LIMMIN
 10
-256.7059329363616
 20
169.6320526179776
  9
$LIMMAX
 10
267.9190907944382
 20
478.7645552181834
  9
$VIEWCTR
 10
10
 20
10
  9
$VIEWSIZE
 40
10
  9
$SNAPMODE
 70
0
  9
$SNAPUNIT
 10
1
 20
1
  9
$SNAPBASE
 10
0
 20
0
  9
$SNAPANG
 50
0
  9
$SNAPSTYLE
 70
0
  9
$SNAPISOPAIR
 70
0
  9
$GRIDMODE
 70
0
  9
$GRIDUNIT
 10
0
 20
0
  9
$ORTHOMODE
 70
0
  9
$REGENMODE
 70
1
  9
$FILLMODE
 70
1
  9
$QTEXTMODE
 70
0
  9
$DRAGMODE
 70
2
  9
$LTSCALE
 40
1
  9
$OSMODE
 70
0
  9
$ATTMODE
 70
1
  9
$TEXTSIZE
 40
3.5
  9
$TRACEWID
 40
0.5
  9
$TEXTSTYLE
  7
STANDARD
  9
$CLAYER
  8
0
  9
$CELTYPE
  6
BYLAYER
  9
$CECOLOR
 62
256
  9
$DIMSCALE
 40
1
  9
$DIMASZ
 40
0.18
  9
$DIMEXO
 40
0.0625
  9
$DIMDLI
 40
0.38
  9
$DIMRND
 40
0
  9
$DIMDLE
 40
0
  9
$DIMEXE
 40
0.18
  9
$DIMTP
 40
0
  9
$DIMTM
 40
0
  9
$DIMTXT
 40
0.18
  9
$DIMCEN
 40
0.09
  9
$DIMTSZ
 40
0
  9
$DIMTOL
 70
0
  9
$DIMLIM
 70
0
  9
$DIMTIH
 70
1
  9
$DIMTOH
 70
1
  9
$DIMSE1
 70
0
  9
$DIMSE2
 70
0
  9
$DIMTAD
 70
0
  9
$DIMZIN
 70
0
  9
$DIMBLK
  1

  9
$DIMASO
 70
1
  9
$DIMSHO
 70
1
  9
$DIMPOST
  1

  9
$DIMAPOST
  1

  9
$DIMALT
 70
0
  9
$DIMALTD
 70
2
  9
$DIMALTF
 40
25.4
  9
$DIMLFAC
 40
1
  9
$DIMTOFL
 70
0
  9
$DIMTVP
 40
0
  9
$DIMTIX
 70
0
  9
$DIMSOXD
 70
0
  9
$DIMSAH
 70
0
  9
$DIMBLK1
  1

  9
$DIMBLK2
  1

  9
$DIMSTYLE
  2
*UNNAMED
  9
$DIMCLRD
 70
0
  9
$DIMCLRE
 70
0
  9
$DIMCLRT
 70
0
  9
$DIMTFAC
 40
1
  9
$DIMGAP
 40
0.09
  9
$LUNITS
 70
2
  9
$LUPREC
 70
4
  9
$AXISMODE
 70
0
  9
$AXISUNIT
 10
0
 20
0
  9
$SKETCHINC
 40
0.1
  9
$FILLETRAD
 40
2
  9
$AUNITS
 70
0
  9
$AUPREC
 70
0
  9
$MENU
  1
ACAD
  9
$ELEVATION
 40
0
  9
$THICKNESS
 40
0
  9
$VIEWDIR
 10
0
 20
0
 30
1
  9
$LIMCHECK
 70
0
  9
$BLIPMODE
 70
1
  9
$CHAMFERA
 40
0
  9
$CHAMFERB
 40
0
  9
$FASTZOOM
 70
1
  9
$SKPOLY
 70
0
  9
$ANGBASE
 50
0
  9
$ANGDIR
 70
0
  9
$PDMODE
 70
0
  9
$PDSIZE
 40
0
  9
$PLINEWID
 40
0
  9
$COORDS
 70
2
  0
ENDSEC
  0
SECTION
  2
TABLES
  0
TABLE
  2
DIMSTYLE
 70
0
  0
ENDTAB
  0
TABLE
  2
LTYPE
 70
9
  0
LTYPE
  2
CONTINUOUS
 70
64
  3
Solid line
 72
65
 73
0
 40
0
  0
LTYPE
  2
BORDER
 70
64
  3
__ __ . __ __ .
 72
65
 73
6
 40
24.16036293497104
 49
6.902960838563154
 49
-3.451480419281577
 49
6.902960838563154
 49
-3.451480419281577
 49
0
 49
-3.451480419281577
  0
LTYPE
  2
CENTER
 70
64
  3
____ _ ____ _
 72
65
 73
4
 40
27.61184335425262
 49
17.25740209640789
 49
-3.451480419281577
 49
3.451480419281577
 49
-3.451480419281577
  0
LTYPE
  2
DASHDOT
 70
64
  3
__ . __ . __ .
 72
65
 73
4
 40
13.80592167712631
 49
6.902960838563154
 49
-3.451480419281577
 49
0
 49
-3.451480419281577
  0
LTYPE
  2
DASHED
 70
64
  3
__ __ __ __ __
 72
65
 73
2
 40
10.35444125784473
 49
6.902960838563154
 49
-3.451480419281577
  0
LTYPE
  2
DIVIDE
 70
64
  3
__ . . __ . . 
 72
65
 73
6
 40
17.25740209640789
 49
6.902960838563154
 49
-3.451480419281577
 49
0
 49
-3.451480419281577
 49
0
 49
-3.451480419281577
  0
LTYPE
  2
DOT
 70
64
  3
..............
 72
65
 73
4
 40
6.902960838563154
 49
0
 49
-3.451480419281577
 49
0
 49
-3.451480419281577
  0
LTYPE
  2
HIDDEN
 70
64
  3
_ _ _ _ _ _ _
 72
65
 73
2
 40
5.177220628922366
 49
3.451480419281577
 49
-1.725740209640789
  0
LTYPE
  2
PHANTOM
 70
64
  3
_____ _ _ _____ _ _ 
 72
65
 73
6
 40
34.51480419281577
 49
17.25740209640789
 49
-3.451480419281577
 49
3.451480419281577
 49
-3.451480419281577
 49
3.451480419281577
 49
-3.451480419281577
  0
ENDTAB
  0
TABLE
  2
LAYER
 70
3
  0
LAYER
  2
1
 70
0
 62
7
  6
CONTINUOUS
  0
LAYER
  2
0
 70
0
 62
7
  6
CONTINUOUS
  0
ENDTAB
  0
TABLE
  2
STYLE
 70
4
  0
STYLE
  2
STANDARD
 70
0
 40
0
 41
1
 50
0
 71
0
 42
3.5
  3
txt
  4

  0
STYLE
  2
SIMPLEX
 70
0
 40
0
 41
1
 50
0
 71
0
 42
3.5
  3
simplex
  4

  0
STYLE
  2
COMPLEX
 70
0
 40
0
 41
1
 50
0
 71
0
 42
3.5
  3
complex
  4

  0
STYLE
  2
ITALIC
 70
0
 40
0
 41
1
 50
0
 71
0
 42
3.5
  3
italic
  4

  0
ENDTAB
  0
TABLE
  2
VIEW
 70
0
  0
ENDTAB
  0
ENDSEC
  0
SECTION
  2
BLOCKS
  0
ENDSEC
  0
SECTION
  2
ENTITIES
  0
LINE
  8
1
 62
3
  6
DIVIDE
 10
172.4190907944382
 20
210.3820526179775
 30
0
 11
172.4190907944382
 21
184.6320526179775
 31
0
  0
LINE
  8
1
 62
3
  6
DIVIDE
 10
163.9190907944382
 20
183.6320526179775
 30
0
 11
165.4190907944382
 21
182.1320526179775
 31
0
  0
LINE
  8
1
 62
3
  6
DIVIDE
 10
169.9190907944382
 20
182.1320526179775
 30
0
 11
172.4190907944382
 21
184.6320526179775
 31
0
  0
LINE
  8
1
 62
3
  6
DIVIDE
 10
165.4190907944382
 20
182.1320526179775
 30
0
 11
169.9190907944382
 21
182.1320526179775
 31
0
  0
LINE
  8
1
 62
3
  6
DIVIDE
 10
163.9190907944382
 20
195.6320526179775
 30
0
 11
163.9190907944382
 21
183.6320526179775
 31
0
  0
LINE
  8
1
 62
3
  6
DIVIDE
 10
161.1190907944382
 20
198.1320526179775
 30
0
 11
161.6190907944382
 21
198.6320526179775
 31
0
  0
LINE
  8
1
 62
3
  6
DIVIDE
 10
161.6190907944382
 20
198.6320526179775
 30
0
 11
163.9190907944382
 21
198.6320526179775
 31
0
  0
LINE
  8
1
 62
3
  6
DIVIDE
 10
164.4190907944382
 20
198.1320526179775
 30
0
 11
164.4190907944382
 21
196.1320526179775
 31
0
  0
LINE
  8
1
 62
3
  6
DIVIDE
 10
164.4190907944382
 20
196.1320526179775
 30
0
 11
163.9190907944382
 21
195.6320526179775
 31
0
  0
LINE
  8
1
 62
3
  6
DIVIDE
 10
141.7190907944382
 20
198.1320526179775
 30
0
 11
161.1190907944382
 21
198.1320526179775
 31
0
  0
LINE
  8
1
 62
3
  6
DIVIDE
 10
141.2190907944382
 20
198.6320526179775
 30
0
 11
141.7190907944382
 21
198.1320526179775
 31
0
  0
LINE
  8
1
 62
3
  6
DIVIDE
 10
138.9190907944382
 20
198.6320526179775
 30
0
 11
141.2190907944382
 21
198.6320526179775
 31
0
  0
LINE
  8
1
 62
3
  6
DIVIDE
 10
138.4190907944382
 20
196.1320526179775
 30
0
 11
138.4190907944382
 21
198.1320526179775
 31
0
  0
LINE
  8
1
 62
3
  6
DIVIDE
 10
138.9190907944382
 20
195.6320526179775
 30
0
 11
138.4190907944382
 21
196.1320526179775
 31
0
  0
LINE
  8
1
 62
3
  6
DIVIDE
 10
138.9190907944382
 20
195.6320526179775
 30
0
 11
138.9190907944382
 21
183.6320526179775
 31
0
  0
LINE
  8
1
 62
3
  6
DIVIDE
 10
137.4190907944382
 20
182.1320526179775
 30
0
 11
138.9190907944382
 21
183.6320526179775
 31
0
  0
LINE
  8
1
 62
3
  6
DIVIDE
 10
137.4190907944382
 20
182.1320526179775
 30
0
 11
132.9190907944382
 21
182.1320526179775
 31
0
  0
LINE
  8
1
 62
3
  6
DIVIDE
 10
130.4190907944382
 20
184.6320526179775
 30
0
 11
132.9190907944382
 21
182.1320526179775
 31
0
  0
LINE
  8
1
 62
3
  6
DIVIDE
 10
130.4190907944382
 20
184.6320526179775
 30
0
 11
130.4190907944382
 21
210.3820526179775
 31
0
  0
LINE
  8
1
 62
3
  6
DASHDOT
 10
151.4190907944382
 20
213.3260123443642
 30
0
 11
151.4190907944382
 21
178.3260123443642
 31
0
  0
LINE
  8
1
 62
3
  6
DASHDOT
 10
103.4190907944382
 20
213.3260123443642
 30
0
 11
103.4190907944382
 21
178.3260123443642
 31
0
  0
LINE
  8
1
 62
3
  6
DIVIDE
 10
172.4190907944382
 20
374.6320526179777
 30
0
 11
172.4190907944382
 21
348.8820526179777
 31
0
  0
LINE
  8
1
 62
3
  6
DIVIDE
 10
165.4190907944382
 20
377.1320526179777
 30
0
 11
163.9190907944382
 21
375.6320526179777
 31
0
  0
LINE
  8
1
 62
3
  6
DIVIDE
 10
172.4190907944382
 20
374.6320526179777
 30
0
 11
169.9190907944382
 21
377.1320526179777
 31
0
  0
LINE
  8
1
 62
3
  6
DIVIDE
 10
169.9190907944382
 20
377.1320526179777
 30
0
 11
165.4190907944382
 21
377.1320526179777
 31
0
  0
LINE
  8
1
 62
3
  6
DIVIDE
 10
163.9190907944382
 20
375.6320526179777
 30
0
 11
163.9190907944382
 21
363.6320526179777
 31
0
  0
LINE
  8
1
 62
3
  6
DIVIDE
 10
161.6190907944382
 20
360.6320526179777
 30
0
 11
161.1190907944382
 21
361.1320526179777
 31
0
  0
LINE
  8
1
 62
3
  6
DIVIDE
 10
163.9190907944382
 20
360.6320526179777
 30
0
 11
161.6190907944382
 21
360.6320526179777
 31
0
  0
LINE
  8
1
 62
3
  6
DIVIDE
 10
164.4190907944382
 20
363.1320526179777
 30
0
 11
164.4190907944382
 21
361.1320526179777
 31
0
  0
LINE
  8
1
 62
3
  6
DIVIDE
 10
163.9190907944382
 20
363.6320526179777
 30
0
 11
164.4190907944382
 21
363.1320526179777
 31
0
  0
LINE
  8
1
 62
3
  6
DIVIDE
 10
161.1190907944382
 20
361.1320526179777
 30
0
 11
141.7190907944382
 21
361.1320526179777
 31
0
  0
LINE
  8
1
 62
3
  6
DIVIDE
 10
141.7190907944382
 20
361.1320526179777
 30
0
 11
141.2190907944382
 21
360.6320526179777
 31
0
  0
LINE
  8
1
 62
3
  6
DIVIDE
 10
141.2190907944382
 20
360.6320526179777
 30
0
 11
138.9190907944382
 21
360.6320526179777
 31
0
  0
LINE
  8
1
 62
3
  6
DIVIDE
 10
138.4190907944382
 20
361.1320526179777
 30
0
 11
138.4190907944382
 21
363.1320526179777
 31
0
  0
LINE
  8
1
 62
3
  6
DIVIDE
 10
138.4190907944382
 20
363.1320526179777
 30
0
 11
138.9190907944382
 21
363.6320526179777
 31
0
  0
LINE
  8
1
 62
3
  6
DIVIDE
 10
138.9190907944382
 20
375.6320526179777
 30
0
 11
138.9190907944382
 21
363.6320526179777
 31
0
  0
LINE
  8
1
 62
3
  6
DIVIDE
 10
138.9190907944382
 20
375.6320526179777
 30
0
 11
137.4190907944382
 21
377.1320526179777
 31
0
  0
LINE
  8
1
 62
3
  6
DIVIDE
 10
132.9190907944382
 20
377.1320526179777
 30
0
 11
137.4190907944382
 21
377.1320526179777
 31
0
  0
LINE
  8
1
 62
3
  6
DIVIDE
 10
132.9190907944382
 20
377.1320526179777
 30
0
 11
130.4190907944382
 21
374.6320526179777
 31
0
  0
LINE
  8
1
 62
3
  6
DIVIDE
 10
130.4190907944382
 20
348.8820526179777
 30
0
 11
130.4190907944382
 21
374.6320526179777
 31
0
  0
LINE
  8
1
 62
3
  6
DASHDOT
 10
151.4190907944382
 20
380.938092891591
 30
0
 11
151.4190907944382
 21
345.938092891591
 31
0
  0
LINE
  8
1
 62
3
  6
DASHDOT
 10
103.4190907944382
 20
380.938092891591
 30
0
 11
103.4190907944382
 21
345.938092891591
 31
0
  0
LINE
  8
1
 62
7
 10
76.91909079443821
 20
349.6320526179777
 30
0
 11
80.91909079443821
 21
349.6320526179777
 31
0
  0
LINE
  8
1
 62
3
  6
DASHDOT
 10
-146.7059329363616
 20
279.6320526179777
 30
0
 11
-146.7059329363616
 21
282.1320526179777
 31
0
  0
LINE
  8
1
 62
7
 10
-72.27296708126927
 20
227.4205554379238
 30
0
 11
-92.66123033569348
 21
239.1917247161746
 31
0
  0
LINE
  8
1
 62
7
 10
-64.27296708126917
 20
241.2769618984749
 30
0
 11
-72.27296708126927
 21
227.4205554379238
 31
0
  0
LINE
  8
1
 62
7
 10
-64.27296708126917
 20
241.2769618984749
 30
0
 11
-84.66123033569348
 21
253.0481311767257
 31
0
  0
LINE
  8
1
 62
7
 10
-229.1388987914539
 20
241.2769618984749
 30
0
 11
-208.7506355370297
 21
253.0481311767257
 31
0
  0
LINE
  8
1
 62
7
 10
-221.1388987914539
 20
227.4205554379238
 30
0
 11
-229.1388987914539
 21
241.2769618984749
 31
0
  0
LINE
  8
1
 62
7
 10
-221.1388987914539
 20
227.4205554379238
 30
0
 11
-200.7506355370297
 21
239.1917247161746
 31
0
  0
LINE
  8
1
 62
7
 10
-101.5697262566007
 20
262.8102558482532
 30
0
 11
-109.5697262566007
 21
248.9538493877022
 31
0
  0
LINE
  8
1
 62
7
 10
-183.8421396161224
 20
248.9538493877022
 30
0
 11
-191.8421396161224
 21
262.8102558482532
 31
0
  0
LINE
  8
1
 62
7
 10
-154.7059329363616
 20
327.1320526179777
 30
0
 11
-138.7059329363615
 21
327.1320526179777
 31
0
  0
LINE
  8
1
 62
7
 10
-154.7059329363616
 20
370.1986405175342
 30
0
 11
-154.7059329363616
 21
346.6563019610326
 31
0
  0
LINE
  8
1
 62
7
 10
-138.7059329363615
 20
370.1986405175342
 30
0
 11
-138.7059329363615
 21
346.6563019610326
 31
0
  0
LINE
  8
1
 62
7
 10
-154.7059329363616
 20
370.1986405175342
 30
0
 11
-138.7059329363615
 21
370.1986405175342
 31
0
  0
LINE
  8
1
 62
7
 10
-200.9882465349108
 20
319.920890158775
 30
0
 11
-196.0048927287261
 21
317.043749497307
 31
0
  0
LINE
  8
1
 62
7
 10
-196.0048927287261
 20
317.043749497307
 30
0
 11
-203.7548927287261
 21
303.6203557386482
 31
0
  0
LINE
  8
1
 62
7
 10
-203.7548927287261
 20
303.6203557386482
 30
0
 11
-208.7382465349108
 21
306.4974964001162
 31
0
  0
LINE
  8
1
 62
7
 10
-84.67361933781236
 20
306.4974964001161
 30
0
 11
-89.65697314399706
 21
303.6203557386482
 31
0
  0
LINE
  8
1
 62
7
 10
-97.40697314399706
 20
317.043749497307
 30
0
 11
-92.42361933781224
 21
319.9208901587749
 31
0
  0
LINE
  8
1
 62
7
 10
-89.65697314399706
 20
303.6203557386482
 30
0
 11
-97.40697314399706
 21
317.043749497307
 31
0
  0
LINE
  8
1
 62
7
 10
-138.9559329363615
 20
218.2320526179777
 30
0
 11
-138.9559329363615
 21
212.4777712950419
 31
0
  0
LINE
  8
1
 62
7
 10
-154.4559329363616
 20
218.2320526179777
 30
0
 11
-138.9559329363615
 21
218.2320526179777
 31
0
  0
LINE
  8
1
 62
7
 10
-154.4559329363616
 20
212.4777712950419
 30
0
 11
-154.4559329363616
 21
218.2320526179777
 31
0
  0
LINE
  8
1
 62
7
 10
-202.6674571634279
 20
302.7038493877022
 30
0
 11
-208.7506355370296
 21
306.2159740592297
 31
0
  0
LINE
  8
1
 62
7
 10
-194.6674571634279
 20
316.5602558482531
 30
0
 11
-202.6674571634279
 21
302.7038493877022
 31
0
  0
LINE
  8
1
 62
7
 10
-200.7506355370296
 20
320.0723805197807
 30
0
 11
-194.6674571634279
 21
316.5602558482531
 31
0
  0
LINE
  8
1
 62
7
 10
-98.74440870929523
 20
316.5602558482531
 30
0
 11
-92.66123033569348
 21
320.0723805197806
 31
0
  0
LINE
  8
1
 62
7
 10
-90.74440870929529
 20
302.7038493877022
 30
0
 11
-98.74440870929523
 21
316.5602558482531
 31
0
  0
LINE
  8
1
 62
7
 10
-84.66123033569359
 20
306.2159740592296
 30
0
 11
-90.74440870929529
 21
302.7038493877022
 31
0
  0
LINE
  8
1
 62
7
 10
-102.8687643622773
 20
263.5602558482532
 30
0
 11
-110.8687643622773
 21
249.7038493877022
 31
0
  0
LINE
  8
1
 62
7
 10
-84.66123033569348
 20
253.0481311767257
 30
0
 11
-102.8687643622773
 21
263.5602558482532
 31
0
  0
LINE
  8
1
 62
7
 10
-110.8687643622773
 20
249.7038493877022
 30
0
 11
-92.66123033569348
 21
239.1917247161746
 31
0
  0
LINE
  8
1
 62
7
 10
-182.5431015104458
 20
249.7038493877022
 30
0
 11
-190.5431015104458
 21
263.5602558482532
 31
0
  0
LINE
  8
1
 62
7
 10
-190.5431015104458
 20
263.5602558482532
 30
0
 11
-208.7506355370297
 21
253.0481311767257
 31
0
  0
LINE
  8
1
 62
7
 10
-200.7506355370297
 20
239.1917247161746
 30
0
 11
-182.5431015104458
 21
249.7038493877022
 31
0
  0
LINE
  8
1
 62
7
 10
-138.7059329363615
 20
325.6320526179777
 30
0
 11
-138.7059329363615
 21
346.6563019610326
 31
0
  0
LINE
  8
1
 62
7
 10
-154.7059329363616
 20
325.6320526179777
 30
0
 11
-138.7059329363615
 21
325.6320526179777
 31
0
  0
LINE
  8
1
 62
7
 10
-154.7059329363616
 20
346.6563019610326
 30
0
 11
-154.7059329363616
 21
325.6320526179777
 31
0
  0
LINE
  8
1
 62
7
 10
-138.7059329363615
 20
219.6320526179777
 30
0
 11
-138.7059329363615
 21
212.6078032749228
 31
0
  0
LINE
  8
1
 62
7
 10
-154.7059329363616
 20
219.6320526179777
 30
0
 11
-138.7059329363615
 21
219.6320526179777
 31
0
  0
LINE
  8
1
 62
7
 10
-154.7059329363616
 20
212.6078032749228
 30
0
 11
-154.7059329363616
 21
219.6320526179777
 31
0
  0
LINE
  8
1
 62
7
 10
-99.68456160106946
 20
379.0754568122659
 30
0
 11
-103.9500626585497
 21
371.6873922609713
 31
0
  0
LINE
  8
1
 62
7
 10
-84.09610433294968
 20
370.0754568122659
 30
0
 11
-88.36160539042989
 21
362.6873922609714
 31
0
  0
LINE
  8
1
 62
7
 10
-56.26252874207317
 20
342.2418812213893
 30
0
 11
-63.65059329336769
 21
337.976380163909
 31
0
  0
LINE
  8
1
 62
7
 10
-47.26252874207317
 20
326.6534239532694
 30
0
 11
-54.65059329336769
 21
322.3879228957891
 31
0
  0
LINE
  8
1
 62
7
 10
-37.07473299765798
 20
288.6320526179774
 30
0
 11
-45.60573511261837
 21
288.6320526179774
 31
0
  0
LINE
  8
1
 62
7
 10
-37.07473299765798
 20
270.6320526179775
 30
0
 11
-45.60573511261837
 21
270.6320526179775
 31
0
  0
LINE
  8
1
 62
7
 10
-47.26252874207336
 20
232.6106812826857
 30
0
 11
-54.65059329336788
 21
236.8761823401658
 31
0
  0
LINE
  8
1
 62
7
 10
-56.26252874207336
 20
217.0222240145658
 30
0
 11
-63.65059329336788
 21
221.287725072046
 31
0
  0
LINE
  8
1
 62
7
 10
-84.09610433294996
 20
189.1886484236894
 30
0
 11
-88.36160539043017
 21
196.5767129749838
 31
0
  0
LINE
  8
1
 62
7
 10
-99.68456160106986
 20
180.1886484236894
 30
0
 11
-103.9500626585501
 21
187.5767129749838
 31
0
  0
LINE
  8
1
 62
7
 10
-137.7059329363618
 20
170.000852679274
 30
0
 11
-137.7059329363618
 21
178.5318547942345
 31
0
  0
LINE
  8
1
 62
7
 10
-155.7059329363617
 20
170.000852679274
 30
0
 11
-155.7059329363617
 21
178.5318547942345
 31
0
  0
LINE
  8
1
 62
7
 10
-193.7273042716536
 20
180.1886484236894
 30
0
 11
-189.4618032141733
 21
187.5767129749839
 31
0
  0
LINE
  8
1
 62
7
 10
-209.3157615397734
 20
189.1886484236894
 30
0
 11
-205.0502604822932
 21
196.5767129749839
 31
0
  0
LINE
  8
1
 62
7
 10
-237.1493371306499
 20
217.022224014566
 30
0
 11
-229.7612725793554
 21
221.2877250720462
 31
0
  0
LINE
  8
1
 62
7
 10
-246.1493371306499
 20
232.6106812826859
 30
0
 11
-238.7612725793554
 21
236.8761823401661
 31
0
  0
LINE
  8
1
 62
7
 10
-256.3371328750652
 20
270.6320526179778
 30
0
 11
-247.8061307601048
 21
270.6320526179778
 31
0
  0
LINE
  8
1
 62
7
 10
-256.3371328750652
 20
288.6320526179778
 30
0
 11
-247.8061307601047
 21
288.6320526179778
 31
0
  0
LINE
  8
1
 62
7
 10
-246.1493371306498
 20
326.6534239532696
 30
0
 11
-238.7612725793554
 21
322.3879228957894
 31
0
  0
LINE
  8
1
 62
7
 10
-237.1493371306499
 20
342.2418812213894
 30
0
 11
-229.7612725793554
 21
337.9763801639093
 31
0
  0
LINE
  8
1
 62
7
 10
-209.3157615397733
 20
370.0754568122659
 30
0
 11
-205.0502604822931
 21
362.6873922609714
 31
0
  0
LINE
  8
1
 62
7
 10
-193.7273042716534
 20
379.0754568122659
 30
0
 11
-189.4618032141732
 21
371.6873922609714
 31
0
  0
LINE
  8
1
 62
7
 10
-155.7059329363615
 20
389.2632525566813
 30
0
 11
-155.7059329363615
 21
380.7322504417209
 31
0
  0
LINE
  8
1
 62
7
 10
-137.7059329363615
 20
389.2632525566813
 30
0
 11
-137.7059329363615
 21
380.7322504417209
 31
0
  0
LINE
  8
1
 62
3
  6
DASHDOT
 10
-146.7059329363616
 20
279.6320526179777
 30
0
 11
-146.7059329363616
 21
277.1320526179777
 31
0
  0
LINE
  8
1
 62
3
  6
DASHDOT
 10
-146.7059329363616
 20
279.6320526179777
 30
0
 11
-149.2059329363616
 21
279.6320526179777
 31
0
  0
LINE
  8
1
 62
3
  6
DASHDOT
 10
-146.7059329363616
 20
279.6320526179777
 30
0
 11
-144.2059329363616
 21
279.6320526179777
 31
0
  0
LINE
  8
1
 62
3
  6
DIVIDE
 10
170.4190907944382
 20
352.8820526179777
 30
0
 11
84.41909079443819
 21
352.8820526179777
 31
0
  0
LINE
  8
1
 62
3
  6
DIVIDE
 10
84.41909079443819
 20
343.8820526179777
 30
0
 11
84.41909079443819
 21
352.8820526179777
 31
0
  0
LINE
  8
1
 62
3
  6
DIVIDE
 10
170.4190907944382
 20
343.8820526179777
 30
0
 11
84.41909079443819
 21
343.8820526179777
 31
0
  0
LINE
  8
1
 62
3
  6
DIVIDE
 10
170.4190907944382
 20
352.8820526179777
 30
0
 11
170.4190907944382
 21
343.8820526179777
 31
0
  0
LINE
  8
1
 62
7
 10
-7.927191184583919
 20
347.1320526179777
 30
0
 11
-9.08090920556181
 21
347.1320526179777
 31
0
  0
LINE
  8
1
 62
7
 10
1.124387101090278
 20
327.1569557703364
 30
0
 11
105.3017117211583
 21
332.6726998014867
 31
0
  0
LINE
  8
1
 62
7
 10
16.61046695034956
 20
342.3597375070848
 30
0
 11
84.14947559791784
 21
337.8021991004816
 31
0
  0
LINE
  8
1
 62
7
 10
-4.480123700820414
 20
366.097509585363
 30
0
 11
-9.419717617883848
 21
338.9203056832963
 31
0
  0
LINE
  8
1
 62
7
 10
79.51909079443817
 20
359.6320526179777
 30
0
 11
76.91909079443821
 21
359.6320526179777
 31
0
  0
LINE
  8
1
 62
7
 10
79.51909079443817
 20
379.0320526179776
 30
0
 11
80.91909079443821
 21
377.6320526179777
 31
0
  0
LINE
  8
1
 62
7
 10
76.91909079443821
 20
380.6320526179777
 30
0
 11
51.91909079443821
 21
380.6320526179777
 31
0
  0
LINE
  8
1
 62
7
 10
79.51909079443817
 20
389.6320526179777
 30
0
 11
79.51909079443817
 21
359.6320526179777
 31
0
  0
LINE
  8
1
 62
7
 10
76.91909079443821
 20
389.6320526179777
 30
0
 11
79.51909079443817
 21
389.6320526179777
 31
0
  0
LINE
  8
1
 62
7
 10
73.91909079443821
 20
363.6320526179777
 30
0
 11
73.91909079443821
 21
365.6320526179777
 31
0
  0
LINE
  8
1
 62
7
 10
73.91909079443821
 20
375.6320526179777
 30
0
 11
73.91909079443821
 21
373.6320526179777
 31
0
  0
LINE
  8
1
 62
7
 10
55.91909079443821
 20
345.6320526179777
 30
0
 11
55.91909079443821
 21
364.6320526179777
 31
0
  0
LINE
  8
1
 62
7
 10
51.91909079443821
 20
364.3820526179777
 30
0
 11
55.91909079443821
 21
364.3820526179777
 31
0
  0
LINE
  8
1
 62
7
 10
51.91909079443821
 20
374.8820526179777
 30
0
 11
55.91909079443821
 21
374.8820526179777
 31
0
  0
LINE
  8
1
 62
7
 10
76.91909079443821
 20
365.6320526179777
 30
0
 11
63.11909079443819
 21
365.6320526179777
 31
0
  0
LINE
  8
1
 62
7
 10
63.11909079443819
 20
375.6320526179777
 30
0
 11
63.11909079443819
 21
363.6320526179777
 31
0
  0
LINE
  8
1
 62
7
 10
56.11909079443819
 20
364.6320526179777
 30
0
 11
52.1190907944382
 21
364.6320526179777
 31
0
  0
LINE
  8
1
 62
7
 10
52.1190907944382
 20
374.6320526179777
 30
0
 11
52.1190907944382
 21
364.6320526179777
 31
0
  0
LINE
  8
1
 62
7
 10
76.91909079443821
 20
389.6320526179777
 30
0
 11
76.91909079443821
 21
347.8195526179777
 31
0
  0
LINE
  8
1
 62
7
 10
63.11909079443819
 20
373.6320526179777
 30
0
 11
76.91909079443821
 21
373.6320526179777
 31
0
  0
LINE
  8
1
 62
7
 10
56.11909079443819
 20
375.6320526179777
 30
0
 11
56.11909079443819
 21
363.6320526179777
 31
0
  0
LINE
  8
1
 62
7
 10
52.1190907944382
 20
374.6320526179777
 30
0
 11
56.11909079443819
 21
374.6320526179777
 31
0
  0
LINE
  8
1
 62
7
 10
-10.58090920556181
 20
314.6320526179777
 30
0
 11
83.41909079443816
 21
314.6320526179777
 31
0
  0
LINE
  8
1
 62
7
 10
85.41909079443821
 20
325.6320526179777
 30
0
 11
-9.58090920556181
 21
325.6320526179777
 31
0
  0
LINE
  8
1
 62
7
 10
51.91909079443821
 20
389.6320526179777
 30
0
 11
51.91909079443821
 21
347.1320526179777
 31
0
  0
LINE
  8
1
 62
7
 10
17.41909079443819
 20
389.6320526179777
 30
0
 11
17.41909079443819
 21
347.1320526179777
 31
0
  0
LINE
  8
1
 62
7
 10
14.41909079443819
 20
348.1320526179777
 30
0
 11
14.41909079443819
 21
347.1320526179777
 31
0
  0
LINE
  8
1
 62
7
 10
14.41909079443819
 20
347.2320526179777
 30
0
 11
51.91909079443821
 21
347.2320526179777
 31
0
  0
LINE
  8
1
 62
7
 10
55.91909079443821
 20
347.8195526179777
 30
0
 11
58.81601910450604
 21
347.8195526179777
 31
0
  0
LINE
  8
1
 62
3
 10
59.28511619822262
 20
348.6320526179777
 30
0
 11
55.91909079443821
 21
348.6320526179777
 31
0
  0
LINE
  8
1
 62
7
 10
58.81601910450604
 20
347.8195526179777
 30
0
 11
76.91909079443821
 21
347.8195526179777
 31
0
  0
LINE
  8
1
 62
7
 10
58.41909079443821
 20
347.1320526179777
 30
0
 11
55.91909079443821
 21
347.1320526179777
 31
0
  0
LINE
  8
1
 62
7
 10
51.91909079443821
 20
348.6320526179777
 30
0
 11
53.91909079443821
 21
348.6320526179777
 31
0
  0
LINE
  8
1
 62
7
 10
53.91909079443821
 20
348.6320526179777
 30
0
 11
53.91909079443821
 21
345.6320526179777
 31
0
  0
LINE
  8
1
 62
7
 10
55.91909079443821
 20
380.6320526179777
 30
0
 11
55.91909079443821
 21
374.6320526179777
 31
0
  0
LINE
  8
1
 62
7
 10
55.91909079443821
 20
345.6320526179777
 30
0
 11
53.91909079443821
 21
345.6320526179777
 31
0
  0
LINE
  8
1
 62
7
 10
53.91909079443821
 20
347.1320526179777
 30
0
 11
6.788499425842346
 21
347.1320526179777
 31
0
  0
LINE
  8
1
 62
7
 10
5.419090794438191
 20
348.8567529934437
 30
0
 11
5.419090794438191
 21
377.6320526179777
 31
0
  0
LINE
  8
1
 62
7
 10
5.419090794438191
 20
377.6320526179777
 30
0
 11
8.419090794438191
 21
380.6320526179777
 31
0
  0
LINE
  8
1
 62
7
 10
17.41909079443819
 20
380.6320526179777
 30
0
 11
8.419090794438191
 21
380.6320526179777
 31
0
  0
LINE
  8
1
 62
7
 10
5.419090794438191
 20
357.1320526179777
 30
0
 11
14.41909079443819
 21
348.1320526179777
 31
0
  0
LINE
  8
1
 62
3
 10
51.91909079443821
 20
347.2320526179777
 30
0
 11
17.41909079443819
 21
389.6320526179777
 31
0
  0
LINE
  8
1
 62
3
 10
51.91909079443821
 20
389.6320526179777
 30
0
 11
17.41909079443819
 21
347.2320526179777
 31
0
  0
LINE
  8
1
 62
7
 10
51.91909079443821
 20
389.6320526179777
 30
0
 11
17.41909079443819
 21
389.6320526179777
 31
0
  0
LINE
  8
1
 62
7
 10
115.9190907944382
 20
375.6320526179777
 30
0
 11
115.9190907944382
 21
363.6320526179777
 31
0
  0
LINE
  8
1
 62
7
 10
113.6190907944382
 20
360.6320526179777
 30
0
 11
113.1190907944382
 21
361.1320526179777
 31
0
  0
LINE
  8
1
 62
7
 10
115.9190907944382
 20
360.6320526179777
 30
0
 11
113.6190907944382
 21
360.6320526179777
 31
0
  0
LINE
  8
1
 62
7
 10
116.4190907944382
 20
363.1320526179777
 30
0
 11
116.4190907944382
 21
361.1320526179777
 31
0
  0
LINE
  8
1
 62
7
 10
115.9190907944382
 20
363.6320526179777
 30
0
 11
116.4190907944382
 21
363.1320526179777
 31
0
  0
LINE
  8
1
 62
7
 10
90.91909079443821
 20
375.6320526179777
 30
0
 11
90.91909079443821
 21
363.6320526179777
 31
0
  0
LINE
  8
1
 62
7
 10
113.1190907944382
 20
361.1320526179777
 30
0
 11
93.71909079443819
 21
361.1320526179777
 31
0
  0
LINE
  8
1
 62
7
 10
93.71909079443819
 20
361.1320526179777
 30
0
 11
93.21909079443819
 21
360.6320526179777
 31
0
  0
LINE
  8
1
 62
7
 10
93.21909079443819
 20
360.6320526179777
 30
0
 11
90.91909079443821
 21
360.6320526179777
 31
0
  0
LINE
  8
1
 62
7
 10
90.41909079443821
 20
361.1320526179777
 30
0
 11
90.41909079443821
 21
363.1320526179777
 31
0
  0
LINE
  8
1
 62
7
 10
90.41909079443821
 20
363.1320526179777
 30
0
 11
90.91909079443821
 21
363.6320526179777
 31
0
  0
LINE
  8
1
 62
7
 10
117.4190907944382
 20
377.1320526179777
 30
0
 11
115.9190907944382
 21
375.6320526179777
 31
0
  0
LINE
  8
1
 62
7
 10
90.91909079443821
 20
375.6320526179777
 30
0
 11
89.41909079443821
 21
377.1320526179777
 31
0
  0
LINE
  8
1
 62
7
 10
124.4190907944382
 20
374.6320526179777
 30
0
 11
121.9190907944382
 21
377.1320526179777
 31
0
  0
LINE
  8
1
 62
7
 10
84.91909079443821
 20
377.1320526179777
 30
0
 11
82.41909079443821
 21
374.6320526179777
 31
0
  0
LINE
  8
1
 62
7
 10
82.41909079443821
 20
348.8820526179777
 30
0
 11
82.41909079443821
 21
374.6320526179777
 31
0
  0
LINE
  8
1
 62
7
 10
84.91909079443821
 20
377.1320526179777
 30
0
 11
89.41909079443821
 21
377.1320526179777
 31
0
  0
LINE
  8
1
 62
7
 10
121.9190907944382
 20
377.1320526179777
 30
0
 11
117.4190907944382
 21
377.1320526179777
 31
0
  0
LINE
  8
1
 62
7
 10
124.4190907944382
 20
374.6320526179777
 30
0
 11
124.4190907944382
 21
348.8820526179777
 31
0
  0
LINE
  8
1
 62
7
 10
-9.58090920556181
 20
346.6320526179777
 30
0
 11
-9.08090920556181
 21
347.1320526179777
 31
0
  0
LINE
  8
1
 62
7
 10
-9.58090920556181
 20
346.6320526179777
 30
0
 11
-9.58090920556181
 21
325.6320526179777
 31
0
  0
LINE
  8
1
 62
7
 10
-9.58090920556181
 20
325.6320526179777
 30
0
 11
-10.58090920556181
 21
324.6320526179777
 31
0
  0
LINE
  8
1
 62
7
 10
81.41909079443816
 20
348.6320526179775
 30
0
 11
59.28511619822262
 21
348.6320526179777
 31
0
  0
LINE
  8
1
 62
7
 10
59.28511619822262
 20
348.6320526179777
 30
0
 11
58.41909079443821
 21
347.1320526179777
 31
0
  0
LINE
  8
1
 62
7
 10
68.41909079443821
 20
196.5188039639258
 30
0
 11
73.41909079443821
 21
193.6320526179777
 31
0
  0
LINE
  8
1
 62
7
 10
63.41909079443821
 20
193.6320526179777
 30
0
 11
68.41909079443821
 21
196.5188039639258
 31
0
  0
LINE
  8
1
 62
7
 10
73.41909079443821
 20
193.6320526179777
 30
0
 11
73.41909079443821
 21
178.6320526179777
 31
0
  0
LINE
  8
1
 62
7
 10
63.41909079443821
 20
193.6320526179777
 30
0
 11
73.41909079443821
 21
193.6320526179777
 31
0
  0
LINE
  8
1
 62
7
 10
63.41909079443821
 20
178.6320526179777
 30
0
 11
63.41909079443821
 21
193.6320526179777
 31
0
  0
LINE
  8
1
 62
7
 10
80.91909079443821
 20
181.6320526179777
 30
0
 11
77.91909079443821
 21
178.6320526179777
 31
0
  0
LINE
  8
1
 62
7
 10
80.91909079443821
 20
181.6320526179777
 30
0
 11
80.91909079443821
 21
210.6320526179777
 31
0
  0
LINE
  8
1
 62
7
 10
58.81601910450604
 20
211.4445526179777
 30
0
 11
55.91909079443821
 21
211.4445526179777
 31
0
  0
LINE
  8
1
 62
3
 10
55.91909079443821
 20
210.6320526179777
 30
0
 11
59.28511619822262
 21
210.6320526179777
 31
0
  0
LINE
  8
1
 62
7
 10
76.91909079443821
 20
211.4445526179777
 30
0
 11
58.81601910450604
 21
211.4445526179777
 31
0
  0
LINE
  8
1
 62
7
 10
76.91909079443821
 20
211.4445526179777
 30
0
 11
76.91909079443821
 21
209.6320526179777
 31
0
  0
LINE
  8
1
 62
7
 10
76.91909079443821
 20
209.6320526179777
 30
0
 11
80.91909079443821
 21
209.6320526179777
 31
0
  0
LINE
  8
1
 62
7
 10
51.91909079443821
 20
178.6320526179777
 30
0
 11
77.91909079443821
 21
178.6320526179777
 31
0
  0
LINE
  8
1
 62
7
 10
55.91909079443821
 20
212.1320526179777
 30
0
 11
58.41909079443821
 21
212.1320526179777
 31
0
  0
LINE
  8
1
 62
7
 10
53.91909079443821
 20
210.6320526179777
 30
0
 11
51.91909079443821
 21
210.6320526179777
 31
0
  0
LINE
  8
1
 62
7
 10
53.91909079443821
 20
218.1320526179777
 30
0
 11
53.91909079443821
 21
210.6320526179777
 31
0
  0
LINE
  8
1
 62
7
 10
55.91909079443821
 20
218.1320526179777
 30
0
 11
55.91909079443821
 21
178.6320526179777
 31
0
  0
LINE
  8
1
 62
7
 10
53.91909079443821
 20
218.1320526179777
 30
0
 11
55.91909079443821
 21
218.1320526179777
 31
0
  0
LINE
  8
1
 62
7
 10
51.91909079443821
 20
212.1320526179777
 30
0
 11
53.91909079443821
 21
212.1320526179777
 31
0
  0
LINE
  8
1
 62
7
 10
5.419090794438191
 20
181.6320526179777
 30
0
 11
5.419090794438191
 21
212.1320526179777
 31
0
  0
LINE
  8
1
 62
7
 10
8.419090794438191
 20
178.6320526179777
 30
0
 11
5.419090794438191
 21
181.6320526179777
 31
0
  0
LINE
  8
1
 62
7
 10
8.419090794438191
 20
178.6320526179777
 30
0
 11
17.41909079443819
 21
178.6320526179777
 31
0
  0
LINE
  8
1
 62
7
 10
14.41909079443819
 20
211.1320526179777
 30
0
 11
5.419090794438191
 21
202.1320526179777
 31
0
  0
LINE
  8
1
 62
7
 10
14.41909079443819
 20
218.2320526179777
 30
0
 11
14.41909079443819
 21
211.1320526179777
 31
0
  0
LINE
  8
1
 62
7
 10
51.91909079443821
 20
218.2320526179777
 30
0
 11
14.41909079443819
 21
218.2320526179777
 31
0
  0
LINE
  8
1
 62
3
 10
17.41909079443819
 20
169.6320526179777
 30
0
 11
51.91909079443821
 21
218.2320526179777
 31
0
  0
LINE
  8
1
 62
3
 10
17.41909079443819
 20
218.2320526179777
 30
0
 11
51.91909079443821
 21
169.6320526179777
 31
0
  0
LINE
  8
1
 62
7
 10
51.91909079443821
 20
169.6320526179777
 30
0
 11
51.91909079443821
 21
218.2320526179777
 31
0
  0
LINE
  8
1
 62
7
 10
17.41909079443819
 20
218.2320526179777
 30
0
 11
17.41909079443819
 21
169.6320526179777
 31
0
  0
LINE
  8
1
 62
7
 10
17.41909079443819
 20
169.6320526179777
 30
0
 11
51.91909079443821
 21
169.6320526179777
 31
0
  0
LINE
  8
1
 62
7
 10
115.9190907944382
 20
195.6320526179777
 30
0
 11
115.9190907944382
 21
183.6320526179777
 31
0
  0
LINE
  8
1
 62
7
 10
113.1190907944382
 20
198.1320526179777
 30
0
 11
113.6190907944382
 21
198.6320526179777
 31
0
  0
LINE
  8
1
 62
7
 10
113.6190907944382
 20
198.6320526179777
 30
0
 11
115.9190907944382
 21
198.6320526179777
 31
0
  0
LINE
  8
1
 62
7
 10
116.4190907944382
 20
198.1320526179777
 30
0
 11
116.4190907944382
 21
196.1320526179777
 31
0
  0
LINE
  8
1
 62
7
 10
116.4190907944382
 20
196.1320526179777
 30
0
 11
115.9190907944382
 21
195.6320526179777
 31
0
  0
LINE
  8
1
 62
7
 10
90.91909079443821
 20
195.6320526179777
 30
0
 11
90.91909079443821
 21
183.6320526179777
 31
0
  0
LINE
  8
1
 62
7
 10
93.71909079443819
 20
198.1320526179777
 30
0
 11
113.1190907944382
 21
198.1320526179777
 31
0
  0
LINE
  8
1
 62
7
 10
93.21909079443819
 20
198.6320526179777
 30
0
 11
93.71909079443819
 21
198.1320526179777
 31
0
  0
LINE
  8
1
 62
7
 10
90.91909079443821
 20
198.6320526179777
 30
0
 11
93.21909079443819
 21
198.6320526179777
 31
0
  0
LINE
  8
1
 62
7
 10
90.41909079443821
 20
196.1320526179777
 30
0
 11
90.41909079443821
 21
198.1320526179777
 31
0
  0
LINE
  8
1
 62
7
 10
90.91909079443821
 20
195.6320526179777
 30
0
 11
90.41909079443821
 21
196.1320526179777
 31
0
  0
LINE
  8
1
 62
7
 10
115.9190907944382
 20
183.6320526179777
 30
0
 11
117.4190907944382
 21
182.1320526179777
 31
0
  0
LINE
  8
1
 62
7
 10
89.41909079443821
 20
182.1320526179777
 30
0
 11
90.91909079443821
 21
183.6320526179777
 31
0
  0
LINE
  8
1
 62
7
 10
121.9190907944382
 20
182.1320526179777
 30
0
 11
124.4190907944382
 21
184.6320526179777
 31
0
  0
LINE
  8
1
 62
7
 10
82.41909079443821
 20
184.6320526179777
 30
0
 11
84.91909079443821
 21
182.1320526179777
 31
0
  0
LINE
  8
1
 62
7
 10
82.41909079443821
 20
184.6320526179777
 30
0
 11
82.41909079443821
 21
210.3820526179777
 31
0
  0
LINE
  8
1
 62
7
 10
89.41909079443821
 20
182.1320526179777
 30
0
 11
84.91909079443821
 21
182.1320526179777
 31
0
  0
LINE
  8
1
 62
7
 10
117.4190907944382
 20
182.1320526179777
 30
0
 11
121.9190907944382
 21
182.1320526179777
 31
0
  0
LINE
  8
1
 62
7
 10
124.4190907944382
 20
210.3820526179777
 30
0
 11
124.4190907944382
 21
184.6320526179777
 31
0
  0
LINE
  8
1
 62
7
 10
59.41909079443821
 20
219.6320526179777
 30
0
 11
-9.58090920556181
 21
219.6320526179777
 31
0
  0
LINE
  8
1
 62
7
 10
-9.08090920556181
 20
212.1320526179777
 30
0
 11
-9.58090920556181
 21
212.6320526179777
 31
0
  0
LINE
  8
1
 62
7
 10
-9.08090920556181
 20
212.1320526179777
 30
0
 11
14.41909079443819
 21
212.1320526179777
 31
0
  0
LINE
  8
1
 62
7
 10
-9.58090920556181
 20
233.6320526179777
 30
0
 11
-9.58090920556181
 21
212.6320526179777
 31
0
  0
LINE
  8
1
 62
7
 10
-10.58090920556181
 20
234.6320526179777
 30
0
 11
-9.58090920556181
 21
233.6320526179777
 31
0
  0
LINE
  8
1
 62
7
 10
59.28511619822262
 20
210.6320526179777
 30
0
 11
81.41909079443816
 21
210.6320526179777
 31
0
  0
LINE
  8
1
 62
7
 10
58.41909079443821
 20
212.1320526179777
 30
0
 11
59.28511619822262
 21
210.6320526179777
 31
0
  0
LINE
  8
1
 62
7
 10
-112.8828638857859
 20
270.6320526179777
 30
0
 11
-105.7059329363615
 21
270.6320526179777
 31
0
  0
LINE
  8
1
 62
7
 10
-105.7059329363615
 20
270.6320526179777
 30
0
 11
-105.7059329363615
 21
288.6320526179777
 31
0
  0
LINE
  8
1
 62
7
 10
-105.7059329363615
 20
288.6320526179777
 30
0
 11
-112.8828638857859
 21
288.6320526179777
 31
0
  0
LINE
  8
1
 62
7
 10
73.91909079443821
 20
375.6320526179777
 30
0
 11
55.91909079443821
 21
375.6320526179777
 31
0
  0
LINE
  8
1
 62
7
 10
73.91909079443821
 20
363.6320526179777
 30
0
 11
55.91909079443821
 21
363.6320526179777
 31
0
  0
LINE
  8
1
 62
7
 10
63.61891775411462
 20
374.3688992769335
 30
0
 11
63.59952705256315
 21
373.6320526179777
 31
0
  0
LINE
  8
1
 62
7
 10
64.70248113059256
 20
374.4513035075939
 30
0
 11
64.58790920166878
 21
373.6320526179777
 31
0
  0
LINE
  8
1
 62
7
 10
65.69284331542669
 20
374.3128017283614
 30
0
 11
65.59764080826024
 21
373.6320526179777
 31
0
  0
LINE
  8
1
 62
7
 10
67.35962398773542
 20
374.4513035075939
 30
0
 11
67.24505205881165
 21
373.6320526179777
 31
0
  0
LINE
  8
1
 62
7
 10
68.34998617256954
 20
374.3128017283614
 30
0
 11
68.25478366540308
 21
373.6320526179777
 31
0
  0
LINE
  8
1
 62
7
 10
70.01676684487826
 20
374.4513035075939
 30
0
 11
69.9021949159545
 21
373.6320526179777
 31
0
  0
LINE
  8
1
 62
7
 10
71.0071290297124
 20
374.3128017283614
 30
0
 11
70.91192652254595
 21
373.6320526179777
 31
0
  0
LINE
  8
1
 62
7
 10
72.67390970202112
 20
374.4513035075939
 30
0
 11
72.55933777309734
 21
373.6320526179777
 31
0
  0
LINE
  8
1
 62
7
 10
73.66427188685526
 20
374.3128017283614
 30
0
 11
73.5690693796888
 21
373.6320526179777
 31
0
  0
LINE
  8
1
 62
7
 10
73.66926383476177
 20
374.3952059590218
 30
0
 11
73.6491808521027
 21
373.6320526179777
 31
0
  0
LINE
  8
1
 62
7
 10
63.38900073677367
 20
365.6320526179777
 30
0
 11
63.36891775411462
 21
364.8688992769335
 31
0
  0
LINE
  8
1
 62
7
 10
63.46911220918757
 20
365.6320526179777
 30
0
 11
63.37390970202112
 21
364.9513035075939
 31
0
  0
LINE
  8
1
 62
7
 10
64.47884381577903
 20
365.6320526179777
 30
0
 11
64.36427188685526
 21
364.8128017283614
 31
0
  0
LINE
  8
1
 62
7
 10
66.12625506633044
 20
365.6320526179777
 30
0
 11
66.03105255916398
 21
364.9513035075939
 31
0
  0
LINE
  8
1
 62
7
 10
67.1359866729219
 20
365.6320526179777
 30
0
 11
67.02141474399812
 21
364.8128017283614
 31
0
  0
LINE
  8
1
 62
7
 10
68.78339792347329
 20
365.6320526179777
 30
0
 11
68.68819541630684
 21
364.9513035075939
 31
0
  0
LINE
  8
1
 62
7
 10
69.79312953006475
 20
365.6320526179777
 30
0
 11
69.67855760114098
 21
364.8128017283614
 31
0
  0
LINE
  8
1
 62
7
 10
71.44054078061615
 20
365.6320526179777
 30
0
 11
71.34533827344968
 21
364.9513035075939
 31
0
  0
LINE
  8
1
 62
7
 10
72.45027238720761
 20
365.6320526179777
 30
0
 11
72.33570045828382
 21
364.8128017283614
 31
0
  0
LINE
  8
1
 62
7
 10
73.43865453631324
 20
365.6320526179777
 30
0
 11
73.41926383476177
 21
364.8952059590218
 31
0
  0
LINE
  8
1
 62
7
 10
177.9190907944382
 20
209.6320526179777
 30
0
 11
173.9190907944382
 21
209.6320526179777
 31
0
  0
LINE
  8
1
 62
7
 10
263.5407267064156
 20
212.1320526179777
 30
0
 11
263.9190907944382
 21
212.1320526179777
 31
0
  0
LINE
  8
1
 62
7
 10
175.3190907944382
 20
199.6320526179777
 30
0
 11
177.9190907944382
 21
199.6320526179777
 31
0
  0
LINE
  8
1
 62
7
 10
175.3190907944382
 20
180.2320526179777
 30
0
 11
173.9190907944382
 21
181.6320526179777
 31
0
  0
LINE
  8
1
 62
7
 10
177.9190907944382
 20
178.6320526179777
 30
0
 11
202.9190907944382
 21
178.6320526179777
 31
0
  0
LINE
  8
1
 62
7
 10
175.3190907944382
 20
169.6320526179777
 30
0
 11
175.3190907944382
 21
199.6320526179777
 31
0
  0
LINE
  8
1
 62
7
 10
177.9190907944382
 20
169.6320526179777
 30
0
 11
175.3190907944382
 21
169.6320526179777
 31
0
  0
LINE
  8
1
 62
7
 10
180.9190907944382
 20
195.6320526179777
 30
0
 11
180.9190907944382
 21
193.6320526179777
 31
0
  0
LINE
  8
1
 62
7
 10
180.9190907944382
 20
183.6320526179777
 30
0
 11
180.9190907944382
 21
185.6320526179777
 31
0
  0
LINE
  8
1
 62
7
 10
198.9190907944382
 20
213.6320526179777
 30
0
 11
198.9190907944382
 21
194.6320526179777
 31
0
  0
LINE
  8
1
 62
7
 10
202.9190907944382
 20
194.8820526179777
 30
0
 11
198.9190907944382
 21
194.8820526179777
 31
0
  0
LINE
  8
1
 62
7
 10
202.9190907944382
 20
184.3820526179777
 30
0
 11
198.9190907944382
 21
184.3820526179777
 31
0
  0
LINE
  8
1
 62
7
 10
177.9190907944382
 20
193.6320526179777
 30
0
 11
191.7190907944382
 21
193.6320526179777
 31
0
  0
LINE
  8
1
 62
7
 10
191.7190907944382
 20
183.6320526179777
 30
0
 11
191.7190907944382
 21
195.6320526179777
 31
0
  0
LINE
  8
1
 62
7
 10
198.7190907944382
 20
194.6320526179777
 30
0
 11
202.7190907944382
 21
194.6320526179777
 31
0
  0
LINE
  8
1
 62
7
 10
202.7190907944382
 20
184.6320526179777
 30
0
 11
202.7190907944382
 21
194.6320526179777
 31
0
  0
LINE
  8
1
 62
7
 10
177.9190907944382
 20
169.6320526179777
 30
0
 11
177.9190907944382
 21
211.4445526179777
 31
0
  0
LINE
  8
1
 62
7
 10
191.7190907944382
 20
185.6320526179777
 30
0
 11
177.9190907944382
 21
185.6320526179777
 31
0
  0
LINE
  8
1
 62
7
 10
198.7190907944382
 20
183.6320526179777
 30
0
 11
198.7190907944382
 21
195.6320526179777
 31
0
  0
LINE
  8
1
 62
7
 10
202.7190907944382
 20
184.6320526179777
 30
0
 11
198.7190907944382
 21
184.6320526179777
 31
0
  0
LINE
  8
1
 62
7
 10
169.4190907944382
 20
233.6320526179777
 30
0
 11
264.4190907944382
 21
233.6320526179776
 31
0
  0
LINE
  8
1
 62
7
 10
202.9190907944382
 20
169.6320526179777
 30
0
 11
202.9190907944382
 21
212.1320526179777
 31
0
  0
LINE
  8
1
 62
7
 10
237.4190907944382
 20
169.6320526179777
 30
0
 11
237.4190907944382
 21
212.1320526179777
 31
0
  0
LINE
  8
1
 62
7
 10
240.4190907944382
 20
211.1320526179777
 30
0
 11
240.4190907944382
 21
212.1320526179777
 31
0
  0
LINE
  8
1
 62
7
 10
240.4190907944382
 20
212.0320526179776
 30
0
 11
202.9190907944382
 21
212.0320526179776
 31
0
  0
LINE
  8
1
 62
7
 10
173.9190907944382
 20
210.6320526179777
 30
0
 11
173.9190907944382
 21
181.6320526179777
 31
0
  0
LINE
  8
1
 62
7
 10
198.9190907944382
 20
211.4445526179777
 30
0
 11
196.0221624843703
 21
211.4445526179777
 31
0
  0
LINE
  8
1
 62
3
 10
195.5530653906537
 20
210.6320526179777
 30
0
 11
198.9190907944382
 21
210.6320526179777
 31
0
  0
LINE
  8
1
 62
7
 10
196.0221624843703
 20
211.4445526179777
 30
0
 11
177.9190907944382
 21
211.4445526179777
 31
0
  0
LINE
  8
1
 62
7
 10
196.4190907944382
 20
212.1320526179777
 30
0
 11
198.9190907944382
 21
212.1320526179777
 31
0
  0
LINE
  8
1
 62
7
 10
202.9190907944382
 20
210.6320526179777
 30
0
 11
200.9190907944382
 21
210.6320526179777
 31
0
  0
LINE
  8
1
 62
7
 10
200.9190907944382
 20
210.6320526179777
 30
0
 11
200.9190907944382
 21
213.6320526179777
 31
0
  0
LINE
  8
1
 62
7
 10
198.9190907944382
 20
178.6320526179777
 30
0
 11
198.9190907944382
 21
184.6320526179777
 31
0
  0
LINE
  8
1
 62
7
 10
198.9190907944382
 20
213.6320526179777
 30
0
 11
200.9190907944382
 21
213.6320526179777
 31
0
  0
LINE
  8
1
 62
7
 10
200.9190907944382
 20
212.1320526179777
 30
0
 11
248.468602016785
 21
212.1320526179777
 31
0
  0
LINE
  8
1
 62
7
 10
249.4190907944382
 20
211.2347209181899
 30
0
 11
249.4190907944382
 21
181.6320526179777
 31
0
  0
LINE
  8
1
 62
7
 10
249.4190907944382
 20
181.6320526179777
 30
0
 11
246.4190907944382
 21
178.6320526179777
 31
0
  0
LINE
  8
1
 62
7
 10
237.4190907944382
 20
178.6320526179777
 30
0
 11
246.4190907944382
 21
178.6320526179777
 31
0
  0
LINE
  8
1
 62
7
 10
249.4190907944382
 20
202.1320526179777
 30
0
 11
240.4190907944382
 21
211.1320526179777
 31
0
  0
LINE
  8
1
 62
3
 10
202.9190907944382
 20
212.0320526179776
 30
0
 11
237.4190907944382
 21
169.6320526179777
 31
0
  0
LINE
  8
1
 62
3
 10
202.9190907944382
 20
169.6320526179777
 30
0
 11
237.4190907944382
 21
212.0320526179776
 31
0
  0
LINE
  8
1
 62
7
 10
202.9190907944382
 20
169.6320526179777
 30
0
 11
237.4190907944382
 21
169.6320526179777
 31
0
  0
LINE
  8
1
 62
7
 10
264.4190907944382
 20
212.6320526179776
 30
0
 11
263.9190907944382
 21
212.1320526179777
 31
0
  0
LINE
  8
1
 62
7
 10
264.4190907944382
 20
212.6320526179776
 30
0
 11
264.4190907944382
 21
233.6320526179776
 31
0
  0
LINE
  8
1
 62
7
 10
264.4190907944382
 20
233.6320526179776
 30
0
 11
265.4190907944382
 21
234.6320526179776
 31
0
  0
LINE
  8
1
 62
7
 10
173.4190907944382
 20
210.6320526179777
 30
0
 11
195.5530653906537
 21
210.6320526179777
 31
0
  0
LINE
  8
1
 62
7
 10
195.5530653906537
 20
210.6320526179777
 30
0
 11
196.4190907944382
 21
212.1320526179777
 31
0
  0
LINE
  8
1
 62
7
 10
173.2747532271408
 20
210.3820526179777
 30
0
 11
173.4190907944382
 21
210.6320526179777
 31
0
  0
LINE
  8
1
 62
7
 10
81.56342836173558
 20
210.3820526179777
 30
0
 11
148.6757756407436
 21
210.3820526179777
 31
0
  0
LINE
  8
1
 62
7
 10
186.4190907944382
 20
362.7453012720295
 30
0
 11
181.4190907944382
 21
365.6320526179777
 31
0
  0
LINE
  8
1
 62
7
 10
191.4190907944382
 20
365.6320526179777
 30
0
 11
186.4190907944382
 21
362.7453012720295
 31
0
  0
LINE
  8
1
 62
7
 10
181.4190907944382
 20
365.6320526179777
 30
0
 11
181.4190907944382
 21
380.6320526179777
 31
0
  0
LINE
  8
1
 62
7
 10
191.4190907944382
 20
365.6320526179777
 30
0
 11
181.4190907944382
 21
365.6320526179777
 31
0
  0
LINE
  8
1
 62
7
 10
191.4190907944382
 20
380.6320526179777
 30
0
 11
191.4190907944382
 21
365.6320526179777
 31
0
  0
LINE
  8
1
 62
7
 10
173.9190907944382
 20
377.6320526179777
 30
0
 11
176.9190907944382
 21
380.6320526179777
 31
0
  0
LINE
  8
1
 62
7
 10
173.9190907944382
 20
377.6320526179777
 30
0
 11
173.9190907944382
 21
348.6320526179775
 31
0
  0
LINE
  8
1
 62
7
 10
196.0221624843703
 20
347.8195526179777
 30
0
 11
198.9190907944382
 21
347.8195526179777
 31
0
  0
LINE
  8
1
 62
3
 10
198.9190907944382
 20
348.6320526179777
 30
0
 11
195.5530653906537
 21
348.6320526179777
 31
0
  0
LINE
  8
1
 62
7
 10
177.9190907944382
 20
347.8195526179777
 30
0
 11
196.0221624843703
 21
347.8195526179777
 31
0
  0
LINE
  8
1
 62
7
 10
177.9190907944382
 20
347.8195526179777
 30
0
 11
177.9190907944382
 21
349.6320526179777
 31
0
  0
LINE
  8
1
 62
7
 10
177.9190907944382
 20
349.6320526179777
 30
0
 11
173.9190907944382
 21
349.6320526179777
 31
0
  0
LINE
  8
1
 62
7
 10
202.9190907944382
 20
380.6320526179777
 30
0
 11
176.9190907944382
 21
380.6320526179777
 31
0
  0
LINE
  8
1
 62
7
 10
198.9190907944382
 20
347.1320526179777
 30
0
 11
196.4190907944382
 21
347.1320526179777
 31
0
  0
LINE
  8
1
 62
7
 10
200.9190907944382
 20
348.6320526179777
 30
0
 11
202.9190907944382
 21
348.6320526179777
 31
0
  0
LINE
  8
1
 62
7
 10
200.9190907944382
 20
341.1320526179777
 30
0
 11
200.9190907944382
 21
348.6320526179777
 31
0
  0
LINE
  8
1
 62
7
 10
198.9190907944382
 20
341.1320526179777
 30
0
 11
198.9190907944382
 21
380.6320526179777
 31
0
  0
LINE
  8
1
 62
7
 10
200.9190907944382
 20
341.1320526179777
 30
0
 11
198.9190907944382
 21
341.1320526179777
 31
0
  0
LINE
  8
1
 62
7
 10
202.9190907944382
 20
347.1320526179777
 30
0
 11
200.9190907944382
 21
347.1320526179777
 31
0
  0
LINE
  8
1
 62
7
 10
249.4190907944382
 20
377.6320526179777
 30
0
 11
249.4190907944382
 21
347.1320526179777
 31
0
  0
LINE
  8
1
 62
7
 10
246.4190907944382
 20
380.6320526179777
 30
0
 11
249.4190907944382
 21
377.6320526179777
 31
0
  0
LINE
  8
1
 62
7
 10
246.4190907944382
 20
380.6320526179777
 30
0
 11
237.4190907944382
 21
380.6320526179777
 31
0
  0
LINE
  8
1
 62
7
 10
240.4190907944382
 20
348.1320526179777
 30
0
 11
249.4190907944382
 21
357.1320526179777
 31
0
  0
LINE
  8
1
 62
7
 10
240.4190907944382
 20
341.0320526179776
 30
0
 11
240.4190907944382
 21
348.1320526179777
 31
0
  0
LINE
  8
1
 62
7
 10
202.9190907944382
 20
341.0320526179776
 30
0
 11
240.4190907944382
 21
341.0320526179776
 31
0
  0
LINE
  8
1
 62
3
 10
237.4190907944382
 20
389.6320526179777
 30
0
 11
202.9190907944382
 21
341.0320526179776
 31
0
  0
LINE
  8
1
 62
3
 10
237.4190907944382
 20
341.0320526179776
 30
0
 11
202.9190907944382
 21
389.6320526179777
 31
0
  0
LINE
  8
1
 62
7
 10
202.9190907944382
 20
389.6320526179777
 30
0
 11
202.9190907944382
 21
341.0320526179776
 31
0
  0
LINE
  8
1
 62
7
 10
237.4190907944382
 20
341.0320526179776
 30
0
 11
237.4190907944382
 21
389.6320526179777
 31
0
  0
LINE
  8
1
 62
7
 10
237.4190907944382
 20
389.6320526179777
 30
0
 11
202.9190907944382
 21
389.6320526179777
 31
0
  0
LINE
  8
1
 62
7
 10
195.4190907944382
 20
339.6320526179777
 30
0
 11
264.4190907944382
 21
339.6320526179777
 31
0
  0
LINE
  8
1
 62
7
 10
263.9190907944382
 20
347.1320526179777
 30
0
 11
264.4190907944382
 21
346.6320526179777
 31
0
  0
LINE
  8
1
 62
7
 10
263.9190907944382
 20
347.1320526179777
 30
0
 11
240.4190907944382
 21
347.1320526179777
 31
0
  0
LINE
  8
1
 62
7
 10
264.4190907944382
 20
325.6320526179777
 30
0
 11
264.4190907944382
 21
346.6320526179777
 31
0
  0
LINE
  8
1
 62
7
 10
265.4190907944382
 20
324.6320526179777
 30
0
 11
264.4190907944382
 21
325.6320526179777
 31
0
  0
LINE
  8
1
 62
7
 10
195.5530653906537
 20
348.6320526179777
 30
0
 11
173.4190907944382
 21
348.6320526179775
 31
0
  0
LINE
  8
1
 62
7
 10
196.4190907944382
 20
347.1320526179777
 30
0
 11
195.5530653906537
 21
348.6320526179777
 31
0
  0
LINE
  8
1
 62
7
 10
173.2747532271408
 20
348.8820526179775
 30
0
 11
81.56342836173558
 21
348.8820526179775
 31
0
  0
LINE
  8
1
 62
7
 10
180.9190907944382
 20
183.6320526179777
 30
0
 11
198.9190907944382
 21
183.6320526179777
 31
0
  0
LINE
  8
1
 62
7
 10
180.9190907944382
 20
195.6320526179777
 30
0
 11
198.9190907944382
 21
195.6320526179777
 31
0
  0
LINE
  8
1
 62
7
 10
191.2192638347617
 20
184.8952059590218
 30
0
 11
191.2386545363132
 21
185.6320526179777
 31
0
  0
LINE
  8
1
 62
7
 10
190.1357004582838
 20
184.8128017283614
 30
0
 11
190.2502723872076
 21
185.6320526179777
 31
0
  0
LINE
  8
1
 62
7
 10
189.1453382734497
 20
184.9513035075939
 30
0
 11
189.2405407806161
 21
185.6320526179777
 31
0
  0
LINE
  8
1
 62
7
 10
187.478557601141
 20
184.8128017283614
 30
0
 11
187.5931295300647
 21
185.6320526179777
 31
0
  0
LINE
  8
1
 62
7
 10
186.4881954163068
 20
184.9513035075939
 30
0
 11
186.5833979234733
 21
185.6320526179777
 31
0
  0
LINE
  8
1
 62
7
 10
184.8214147439981
 20
184.8128017283614
 30
0
 11
184.9359866729218
 21
185.6320526179777
 31
0
  0
LINE
  8
1
 62
7
 10
183.8310525591639
 20
184.9513035075939
 30
0
 11
183.9262550663304
 21
185.6320526179777
 31
0
  0
LINE
  8
1
 62
7
 10
182.1642718868552
 20
184.8128017283614
 30
0
 11
182.278843815779
 21
185.6320526179777
 31
0
  0
LINE
  8
1
 62
7
 10
181.1739097020211
 20
184.9513035075939
 30
0
 11
181.2691122091875
 21
185.6320526179777
 31
0
  0
LINE
  8
1
 62
7
 10
181.1689177541146
 20
184.8688992769335
 30
0
 11
181.1890007367737
 21
185.6320526179777
 31
0
  0
LINE
  8
1
 62
7
 10
191.4491808521027
 20
193.6320526179777
 30
0
 11
191.4692638347618
 21
194.3952059590218
 31
0
  0
LINE
  8
1
 62
7
 10
191.3690693796888
 20
193.6320526179777
 30
0
 11
191.4642718868552
 21
194.3128017283614
 31
0
  0
LINE
  8
1
 62
7
 10
190.3593377730973
 20
193.6320526179777
 30
0
 11
190.4739097020211
 21
194.4513035075939
 31
0
  0
LINE
  8
1
 62
7
 10
188.7119265225459
 20
193.6320526179777
 30
0
 11
188.8071290297124
 21
194.3128017283614
 31
0
  0
LINE
  8
1
 62
7
 10
187.7021949159545
 20
193.6320526179777
 30
0
 11
187.8167668448783
 21
194.4513035075939
 31
0
  0
LINE
  8
1
 62
7
 10
186.0547836654031
 20
193.6320526179777
 30
0
 11
186.1499861725695
 21
194.3128017283614
 31
0
  0
LINE
  8
1
 62
7
 10
185.0450520588116
 20
193.6320526179777
 30
0
 11
185.1596239877354
 21
194.4513035075939
 31
0
  0
LINE
  8
1
 62
7
 10
183.3976408082602
 20
193.6320526179777
 30
0
 11
183.4928433154267
 21
194.3128017283614
 31
0
  0
LINE
  8
1
 62
7
 10
182.3879092016688
 20
193.6320526179777
 30
0
 11
182.5024811305925
 21
194.4513035075939
 31
0
  0
LINE
  8
1
 62
7
 10
181.3995270525631
 20
193.6320526179777
 30
0
 11
181.4189177541146
 21
194.3688992769335
 31
0
  0
LINE
  8
1
 62
7
 10
265.4190907944382
 20
244.6320526179776
 30
0
 11
171.4190907944382
 21
244.6320526179776
 31
0
  0
LINE
  8
1
 62
7
 10
264.3769780429034
 20
221.2152748112801
 30
0
 11
261.8446127054191
 21
193.7091459342914
 31
0
  0
LINE
  8
1
 62
7
 10
149.6511003893197
 20
215.504972833261
 30
0
 11
252.8399889214732
 21
232.0065874057435
 31
0
  0
LINE
  8
1
 62
7
 10
171.2263566751535
 20
212.6349253994556
 30
0
 11
238.749715074747
 21
215.5018176540291
 31
0
  0
LINE
  8
1
 62
7
 10
167.7960190541266
 20
210.3820526179777
 30
0
 11
173.2747532271408
 21
210.3820526179777
 31
0
  0
LINE
  8
1
 62
3
 10
177.9190907944382
 20
211.4445526179777
 30
0
 11
173.8881878881547
 21
211.4445526179777
 31
0
  0
LINE
  8
1
 62
3
 10
177.9190907944382
 20
347.8195526179777
 30
0
 11
173.8881878881547
 21
347.8195526179775
 31
0
  0
LINE
  8
1
 62
3
 10
76.91909079443821
 20
347.8195526179777
 30
0
 11
80.94999370072162
 21
347.8195526179775
 31
0
  0
LINE
  8
1
 62
3
 10
76.91909079443821
 20
211.4445526179777
 30
0
 11
80.94999370072161
 21
211.4445526179777
 31
0
  0
LINE
  8
1
 62
3
 10
173.4190907944382
 20
210.6320526179777
 30
0
 11
173.8881878881547
 21
211.4445526179777
 31
0
  0
LINE
  8
1
 62
7
 10
173.4190907944382
 20
348.6320526179775
 30
0
 11
173.2747532271408
 21
348.8820526179775
 31
0
  0
LINE
  8
1
 62
3
 10
173.8881878881547
 20
347.8195526179775
 30
0
 11
173.4190907944382
 21
348.6320526179775
 31
0
  0
LINE
  8
1
 62
7
 10
80.91909079443821
 20
348.6320526179775
 30
0
 11
80.91909079443821
 21
377.6320526179777
 31
0
  0
LINE
  8
1
 62
7
 10
81.56342836173558
 20
348.8820526179775
 30
0
 11
81.41909079443816
 21
348.6320526179775
 31
0
  0
LINE
  8
1
 62
3
 10
81.41909079443816
 20
348.6320526179775
 30
0
 11
80.94999370072162
 21
347.8195526179775
 31
0
  0
LINE
  8
1
 62
7
 10
81.41909079443816
 20
210.6320526179777
 30
0
 11
81.56342836173558
 21
210.3820526179777
 31
0
  0
LINE
  8
1
 62
3
 10
80.94999370072161
 20
211.4445526179777
 30
0
 11
81.41909079443816
 21
210.6320526179777
 31
0
  0
LINE
  8
1
 62
7
 10
171.4190907944382
 20
315.1320526179776
 30
0
 11
171.4190907944382
 21
244.1320526179776
 31
0
  0
LINE
  8
1
 62
7
 10
83.41909079443816
 20
315.1320526179777
 30
0
 11
83.41909079443816
 21
244.1320526179776
 31
0
  0
LINE
  8
1
 62
7
 10
171.4190907944382
 20
315.1320526179776
 30
0
 11
83.41909079443816
 21
315.1320526179777
 31
0
  0
LINE
  8
1
 62
7
 10
83.41909079443816
 20
244.1320526179776
 30
0
 11
171.4190907944382
 21
244.1320526179776
 31
0
  0
LINE
  8
1
 62
7
 10
265.4190907944382
 20
234.6320526179776
 30
0
 11
265.4190907944382
 21
324.6320526179777
 31
0
  0
LINE
  8
1
 62
7
 10
-10.58090920556181
 20
324.6320526179777
 30
0
 11
-10.58090920556181
 21
234.6320526179777
 31
0
  0
LINE
  8
1
 62
7
 10
83.41909079443816
 20
244.6320526179776
 30
0
 11
-10.58090920556181
 21
244.6320526179776
 31
0
  0
LINE
  8
1
 62
7
 10
171.4190907944382
 20
314.6320526179777
 30
0
 11
265.4190907944382
 21
314.6320526179777
 31
0
  0
LINE
  8
1
 62
3
  6
DIVIDE
 10
220.9190907944382
 20
339.6320526179777
 30
0
 11
220.9190907944382
 21
315.1320526179775
 31
0
  0
LINE
  8
1
 62
3
  6
DIVIDE
 10
215.9190907944382
 20
315.1320526179775
 30
0
 11
215.9190907944382
 21
339.6320526179777
 31
0
  0
LINE
  8
1
 62
3
  6
DIVIDE
 10
232.9190907944382
 20
339.6320526179777
 30
0
 11
232.9190907944382
 21
315.1320526179775
 31
0
  0
LINE
  8
1
 62
3
  6
DIVIDE
 10
227.9190907944382
 20
315.1320526179775
 30
0
 11
227.9190907944382
 21
339.6320526179777
 31
0
  0
LINE
  8
1
 62
3
  6
DIVIDE
 10
239.4190907944382
 20
315.1320526179776
 30
0
 11
203.4190907944382
 21
315.1320526179776
 31
0
  0
LINE
  8
1
 62
3
  6
DIVIDE
 10
239.4190907944382
 20
244.1320526179776
 30
0
 11
239.4190907944382
 21
315.1320526179776
 31
0
  0
LINE
  8
1
 62
3
  6
DIVIDE
 10
203.4190907944382
 20
244.1320526179776
 30
0
 11
239.4190907944382
 21
244.1320526179776
 31
0
  0
LINE
  8
1
 62
3
  6
DIVIDE
 10
203.4190907944382
 20
315.1320526179776
 30
0
 11
203.4190907944382
 21
244.1320526179776
 31
0
  0
LINE
  8
1
 62
3
  6
DIVIDE
 10
51.41909079443816
 20
244.1320526179777
 30
0
 11
51.41909079443816
 21
315.1320526179777
 31
0
  0
LINE
  8
1
 62
3
  6
DIVIDE
 10
15.41909079443816
 20
315.1320526179777
 30
0
 11
15.41909079443816
 21
244.1320526179777
 31
0
  0
LINE
  8
1
 62
3
  6
DIVIDE
 10
51.41909079443816
 20
315.1320526179777
 30
0
 11
15.41909079443816
 21
315.1320526179777
 31
0
  0
LINE
  8
1
 62
3
  6
DIVIDE
 10
15.41909079443816
 20
244.1320526179777
 30
0
 11
51.41909079443816
 21
244.1320526179777
 31
0
  0
LINE
  8
1
 62
3
  6
DIVIDE
 10
33.91909079443816
 20
219.6320526179776
 30
0
 11
33.91909079443816
 21
244.1320526179778
 31
0
  0
LINE
  8
1
 62
3
  6
DIVIDE
 10
38.91909079443816
 20
244.1320526179778
 30
0
 11
38.91909079443816
 21
219.6320526179776
 31
0
  0
LINE
  8
1
 62
3
  6
DIVIDE
 10
21.91909079443816
 20
219.6320526179776
 30
0
 11
21.91909079443816
 21
244.1320526179778
 31
0
  0
LINE
  8
1
 62
3
  6
DIVIDE
 10
26.91909079443816
 20
244.1320526179778
 30
0
 11
26.91909079443816
 21
219.6320526179776
 31
0
  0
LINE
  8
1
 62
3
  6
DIVIDE
 10
-93.49440870929531
 20
307.4669891085167
 30
0
 11
-114.7883604859703
 21
295.1729203181424
 31
0
  0
LINE
  8
1
 62
3
  6
DIVIDE
 10
-95.99440870929534
 20
311.7971161274389
 30
0
 11
-117.2883604859703
 21
299.5030473370646
 31
0
  0
LINE
  8
1
 62
3
  6
DIVIDE
 10
-149.2059329363615
 20
219.6320526179777
 30
0
 11
-149.2059329363615
 21
244.2201901987262
 31
0
  0
LINE
  8
1
 62
3
  6
DIVIDE
 10
-144.2059329363615
 20
219.6320526179777
 30
0
 11
-144.2059329363615
 21
244.2201901987262
 31
0
  0
LINE
  8
1
 62
3
  6
DIVIDE
 10
-176.1235053867528
 20
299.5030473370646
 30
0
 11
-197.4174571634278
 21
311.7971161274389
 31
0
  0
LINE
  8
1
 62
3
  6
DIVIDE
 10
-178.6235053867528
 20
295.1729203181424
 30
0
 11
-199.9174571634278
 21
307.4669891085167
 31
0
  0
LINE
  8
1
 62
3
  6
DASHDOT
 10
267.9190907944382
 20
279.6320526179776
 30
0
 11
265.4190907944382
 21
279.6320526179776
 31
0
  0
LINE
  8
1
 62
3
  6
DASHDOT
 10
-10.58090920556184
 20
279.6320526179777
 30
0
 11
-13.08090920556184
 21
279.6320526179777
 31
0
  0
ARC
  8
1
 62
7
 10
-146.7059329363616
 20
279.6320526179777
 30
0
 40
66.99999999999993
 50
96.85764841535067
 51
143.1423515846493
  0
ARC
  8
1
 62
7
 10
-146.7059329363616
 20
279.6320526179777
 30
0
 40
66.99999999999993
 50
336.8576484153508
 51
23.14235158464939
  0
ARC
  8
1
 62
7
 10
-146.7059329363616
 20
279.6320526179777
 30
0
 40
67.00000000000006
 50
156.8576484153506
 51
203.1423515846493
  0
ARC
  8
1
 62
7
 10
-146.7059329363616
 20
279.6320526179777
 30
0
 40
67.00000000000001
 50
36.8576484153507
 51
83.14235158464928
  0
ARC
  8
1
 62
7
 10
-146.7059329363616
 20
279.6320526179777
 30
0
 40
66.99999999999994
 50
276.8576484153506
 51
323.1423515846493
  0
ARC
  8
1
 62
7
 10
-146.7059329363616
 20
279.6320526179777
 30
0
 40
66.99999999999997
 50
216.8576484153507
 51
263.1423515846493
  0
ARC
  8
1
 62
7
 10
-146.7059329363616
 20
279.6320526179777
 30
0
 40
67.59999999999999
 50
180
 51
203.2035066938187
  0
ARC
  8
1
 62
7
 10
-146.7059329363616
 20
279.6320526179777
 30
0
 40
68.5
 50
180
 51
203.2932165557502
  0
ARC
  8
1
 62
7
 10
-146.7059329363616
 20
279.6320526179777
 30
0
 40
77.5
 50
180
 51
204.0750427140155
  0
ARC
  8
1
 62
7
 10
-146.7059329363616
 20
279.6320526179777
 30
0
 40
77.50000000000001
 50
215.9249572859845
 51
324.0750427140155
  0
ARC
  8
1
 62
7
 10
-146.7059329363616
 20
279.6320526179777
 30
0
 40
68.5
 50
216.7067834442498
 51
323.2932165557502
  0
ARC
  8
1
 62
7
 10
-146.7059329363616
 20
279.6320526179777
 30
0
 40
67.60000000000005
 50
276.5831479165354
 51
323.2035066938187
  0
ARC
  8
1
 62
7
 10
-146.7059329363616
 20
279.6320526179777
 30
0
 40
67.60000000000004
 50
36.58314791653515
 51
83.20350669381863
  0
ARC
  8
1
 62
7
 10
-146.7059329363616
 20
279.6320526179777
 30
0
 40
68.50000000000003
 50
336.7067834442497
 51
83.29321655575016
  0
ARC
  8
1
 62
7
 10
-146.7059329363616
 20
279.6320526179777
 30
0
 40
68.50000000000001
 50
96.70678344424977
 51
180
  0
ARC
  8
1
 62
7
 10
-146.7059329363616
 20
279.6320526179777
 30
0
 40
77.5
 50
95.92495728598453
 51
180
  0
ARC
  8
1
 62
7
 10
-146.7059329363616
 20
279.6320526179777
 30
0
 40
77.50000000000004
 50
335.9249572859845
 51
84.0750427140154
  0
ARC
  8
1
 62
7
 10
-146.7059329363616
 20
279.6320526179777
 30
0
 40
67.59999999999991
 50
96.79649330618133
 51
143.4168520834647
  0
ARC
  8
1
 62
7
 10
-146.7059329363616
 20
279.6320526179777
 30
0
 40
67.60000000000004
 50
336.7964933061813
 51
23.41685208346469
  0
ARC
  8
1
 62
7
 10
-146.7059329363616
 20
279.6320526179777
 30
0
 40
67.59999999999998
 50
216.7964933061813
 51
263.4168520834648
  0
ARC
  8
1
 62
7
 10
-146.7059329363616
 20
279.6320526179777
 30
0
 40
67.59999999999995
 50
156.5831479165353
 51
180
  0
ARC
  8
1
 62
7
 10
-146.7059329363616
 20
279.6320526179777
 30
0
 40
67.49999999999999
 50
96.80660978532958
 51
143.1933902146704
  0
ARC
  8
1
 62
7
 10
-146.7059329363616
 20
279.6320526179777
 30
0
 40
67.50000000000009
 50
336.8066097853296
 51
23.19339021467038
  0
ARC
  8
1
 62
7
 10
-146.7059329363616
 20
279.6320526179777
 30
0
 40
67.5
 50
276.8066097853297
 51
323.1933902146704
  0
ARC
  8
1
 62
7
 10
-146.7059329363616
 20
279.6320526179777
 30
0
 40
67.50000000000001
 50
36.80660978532951
 51
83.19339021467033
  0
ARC
  8
1
 62
7
 10
-146.7059329363616
 20
279.6320526179777
 30
0
 40
67.50000000000011
 50
216.8066097853296
 51
263.1933902146704
  0
ARC
  8
1
 62
7
 10
-146.7059329363616
 20
279.6320526179777
 30
0
 40
67.5
 50
156.8066097853295
 51
203.1933902146704
  0
ARC
  8
1
 62
7
 10
-146.7059329363616
 20
279.6320526179777
 30
0
 40
101.5
 50
35.08709495258876
 51
54.91290504741101
  0
ARC
  8
1
 62
7
 10
-146.7059329363616
 20
279.6320526179777
 30
0
 40
101.5000000000001
 50
5.087094952588726
 51
24.91290504741095
  0
ARC
  8
1
 62
7
 10
-146.7059329363616
 20
279.6320526179777
 30
0
 40
101.5
 50
335.0870949525887
 51
354.912905047411
  0
ARC
  8
1
 62
7
 10
-146.7059329363616
 20
279.6320526179777
 30
0
 40
101.5
 50
305.0870949525888
 51
324.912905047411
  0
ARC
  8
1
 62
7
 10
-146.7059329363616
 20
279.6320526179777
 30
0
 40
101.5
 50
275.0870949525888
 51
294.912905047411
  0
ARC
  8
1
 62
7
 10
-146.7059329363616
 20
279.6320526179777
 30
0
 40
101.5
 50
245.0870949525888
 51
264.9129050474111
  0
ARC
  8
1
 62
7
 10
-146.7059329363616
 20
279.6320526179777
 30
0
 40
101.5
 50
215.0870949525889
 51
234.9129050474111
  0
ARC
  8
1
 62
7
 10
-146.7059329363616
 20
279.6320526179777
 30
0
 40
101.5
 50
185.0870949525888
 51
204.9129050474111
  0
ARC
  8
1
 62
7
 10
-146.7059329363616
 20
279.6320526179777
 30
0
 40
101.5
 50
155.0870949525889
 51
174.912905047411
  0
ARC
  8
1
 62
7
 10
-146.7059329363616
 20
279.6320526179777
 30
0
 40
101.4999999999999
 50
125.0870949525889
 51
144.9129050474111
  0
ARC
  8
1
 62
7
 10
-146.7059329363616
 20
279.6320526179777
 30
0
 40
101.5
 50
95.08709495258884
 51
114.9129050474111
  0
ARC
  8
1
 62
7
 10
-146.7059329363616
 20
279.6320526179777
 30
0
 40
101.4999999999999
 50
65.0870949525887
 51
84.91290504741107
  0
ARC
  8
1
 62
7
 10
-146.7059329363616
 20
279.6320526179777
 30
0
 40
110
 50
55.30691744497428
 51
64.69308255502544
  0
ARC
  8
1
 62
7
 10
-146.7059329363616
 20
279.6320526179777
 30
0
 40
110
 50
25.30691744497429
 51
34.69308255502551
  0
ARC
  8
1
 62
7
 10
-146.7059329363616
 20
279.6320526179777
 30
0
 40
110.0000000000001
 50
355.3069174449743
 51
4.693082555025467
  0
ARC
  8
1
 62
7
 10
-146.7059329363616
 20
279.6320526179777
 30
0
 40
110
 50
325.3069174449743
 51
334.6930825550255
  0
ARC
  8
1
 62
7
 10
-146.7059329363616
 20
279.6320526179777
 30
0
 40
110
 50
295.3069174449743
 51
304.6930825550256
  0
ARC
  8
1
 62
7
 10
-146.7059329363616
 20
279.6320526179777
 30
0
 40
110.0000000000001
 50
265.3069174449744
 51
274.6930825550255
  0
ARC
  8
1
 62
7
 10
-146.7059329363616
 20
279.6320526179777
 30
0
 40
110.0000000000001
 50
235.3069174449744
 51
244.6930825550255
  0
ARC
  8
1
 62
7
 10
-146.7059329363616
 20
279.6320526179777
 30
0
 40
110
 50
205.3069174449744
 51
214.6930825550256
  0
ARC
  8
1
 62
7
 10
-146.7059329363616
 20
279.6320526179777
 30
0
 40
110.0000000000001
 50
175.3069174449743
 51
184.6930825550256
  0
ARC
  8
1
 62
7
 10
-146.7059329363616
 20
279.6320526179777
 30
0
 40
110
 50
145.3069174449744
 51
154.6930825550256
  0
ARC
  8
1
 62
7
 10
-146.7059329363616
 20
279.6320526179777
 30
0
 40
109.9999999999999
 50
115.3069174449744
 51
124.6930825550256
  0
ARC
  8
1
 62
7
 10
-146.7059329363616
 20
279.6320526179777
 30
0
 40
110.0000000000001
 50
85.30691744497435
 51
94.69308255502557
  0
ARC
  8
1
 62
7
 10
88.82632619809363
 20
328.9121388268605
 30
0
 40
19.99999999999995
 50
20.9495892863115
 51
86.85688100350873
  0
ARC
  8
1
 62
7
 10
90.08159137209009
 20
345.8862510485921
 30
0
 40
3.000000000000018
 50
93.03159480886977
 51
215.7731774897525
  0
ARC
  8
1
 62
7
 10
84.40222836218095
 20
341.7942056185321
 30
0
 40
4.000000000000056
 50
266.3771697628647
 51
35.77317748975305
  0
ARC
  8
1
 62
7
 10
105.169495156211
 20
335.169201109308
 30
0
 40
2.499999999999976
 50
273.0315948088734
 51
20.94958928631099
  0
ARC
  8
1
 62
7
 10
17.24799387864422
 20
356.3452142388842
 30
0
 40
14.00000000000004
 50
152.2108311660669
 51
267.389982963065
  0
ARC
  8
1
 62
7
 10
0.4190907944381905
 20
337.1320526179777
 30
0
 40
10.00000000000001
 50
169.6986552865199
 51
274.0444080090716
  0
ARC
  8
1
 62
7
 10
85.41909079443821
 20
375.6320526179777
 30
0
 40
50
 50
270
 51
327.6560885867666
  0
ARC
  8
1
 62
7
 10
59.41909079443821
 20
169.6320526179777
 30
0
 40
49.99999999999999
 50
54.58736188894046
 51
90
  0
ARC
  8
1
 62
7
 10
-146.7059329363616
 20
279.6320526179777
 30
0
 40
35.00000000000016
 50
14.90059668782981
 51
345.0994033121702
  0
ARC
  8
1
 62
7
 10
0.4392805053406335
 20
365.2033830527037
 30
0
 40
4.999999999999951
 50
332.2108311660678
 51
169.69865528652
  0
ARC
  8
1
 62
7
 10
63.11909079443819
 20
374.3820526179777
 30
0
 40
0.5
 50
270
 51
90
  0
ARC
  8
1
 62
7
 10
62.86909079443819
 20
364.8820526179777
 30
0
 40
0.5000000000000904
 50
299.999999999994
 51
59.99999999999946
  0
ARC
  8
1
 62
7
 10
74.16909079443819
 20
374.3820526179777
 30
0
 40
0.4999999999999918
 50
120.0000000000006
 51
240.000000000006
  0
ARC
  8
1
 62
7
 10
73.91909079443819
 20
364.8820526179777
 30
0
 40
0.5
 50
90
 51
270
  0
ARC
  8
1
 62
7
 10
169.4190907944382
 20
183.6320526179777
 30
0
 40
50
 50
90
 51
147.6560885867666
  0
ARC
  8
1
 62
7
 10
195.4190907944382
 20
389.6320526179777
 30
0
 40
50.00000000000004
 50
234.5873618889404
 51
270
  0
ARC
  8
1
 62
7
 10
191.7190907944382
 20
184.8820526179777
 30
0
 40
0.5
 50
90
 51
270
  0
ARC
  8
1
 62
7
 10
191.9690907944382
 20
194.3820526179777
 30
0
 40
0.4999999999999672
 50
120.0000000000022
 51
240.0000000000044
  0
ARC
  8
1
 62
7
 10
180.6690907944382
 20
184.8820526179777
 30
0
 40
0.5000000000000657
 50
299.9999999999957
 51
59.99999999999783
  0
ARC
  8
1
 62
7
 10
180.9190907944382
 20
194.3820526179777
 30
0
 40
0.5
 50
270
 51
90
  0
ARC
  8
1
 62
7
 10
256.8656690811865
 20
194.1675348376401
 30
0
 40
4.999999999999628
 50
157.2520399369684
 51
354.7398640574245
  0
ARC
  8
1
 62
7
 10
254.4190907944382
 20
222.1320526179777
 30
0
 40
9.999999999999925
 50
354.7398640574232
 51
99.08561677997527
  0
ARC
  8
1
 62
7
 10
239.3435890326859
 20
201.514419263975
 30
0
 40
13.99999999999999
 50
337.2520399369709
 51
92.43119173396825
  0
ARC
  8
1
 62
7
 10
171.3960349488503
 20
208.63852585944
 30
0
 40
4.000000000000206
 50
92.43119173396777
 51
221.8271994608544
  0
ARC
  8
1
 62
7
 10
166.179918453731
 20
203.970321846188
 30
0
 40
3.00000000000008
 50
271.7922247520648
 51
41.82719946085186
  0
ARC
  8
1
 62
7
 10
150.0458758575609
 20
213.0363391363196
 30
0
 40
2.499999999999919
 50
99.08561677997416
 51
206.9295912564553
  0
ARC
  8
1
 62
7
 10
165.648241378468
 20
220.9620056793942
 30
0
 40
20
 50
206.9295912564583
 51
271.7922247520662
  0
CIRCLE
  8
1
 62
7
 10
-146.7059329363616
 20
279.6320526179777
 30
0
 40
98
  0
CIRCLE
  8
1
 62
7
 10
-146.7059329363616
 20
279.6320526179777
 30
0
 40
101
  0
CIRCLE
  8
1
 62
7
 10
0.4190907944381905
 20
337.1320526179777
 30
0
 40
4
  0
CIRCLE
  8
1
 62
7
 10
-146.7059329363616
 20
279.6320526179777
 30
0
 40
45.00000000000009
  0
CIRCLE
  8
1
 62
7
 10
-146.7059329363616
 20
279.6320526179777
 30
0
 40
45.99999999999999
  0
CIRCLE
  8
1
 62
7
 10
65.19766222300963
 20
374.3820526179777
 30
0
 40
0.5
  0
CIRCLE
  8
1
 62
7
 10
63.86909079443819
 20
364.8820526179777
 30
0
 40
0.5
  0
CIRCLE
  8
1
 62
7
 10
67.85480508015247
 20
374.3820526179777
 30
0
 40
0.5
  0
CIRCLE
  8
1
 62
7
 10
66.52623365158105
 20
364.8820526179777
 30
0
 40
0.5
  0
CIRCLE
  8
1
 62
7
 10
70.51194793729535
 20
374.3820526179777
 30
0
 40
0.5
  0
CIRCLE
  8
1
 62
7
 10
69.18337650872391
 20
364.8820526179777
 30
0
 40
0.5
  0
CIRCLE
  8
1
 62
7
 10
73.16909079443819
 20
374.3820526179777
 30
0
 40
0.5
  0
CIRCLE
  8
1
 62
7
 10
71.84051936586677
 20
364.8820526179777
 30
0
 40
0.5
  0
CIRCLE
  8
1
 62
7
 10
254.4190907944382
 20
222.1320526179777
 30
0
 40
4
  0
CIRCLE
  8
1
 62
7
 10
189.6405193658667
 20
184.8820526179777
 30
0
 40
0.5
  0
CIRCLE
  8
1
 62
7
 10
190.9690907944382
 20
194.3820526179777
 30
0
 40
0.5
  0
CIRCLE
  8
1
 62
7
 10
186.9833765087239
 20
184.8820526179777
 30
0
 40
0.5
  0
CIRCLE
  8
1
 62
7
 10
188.3119479372953
 20
194.3820526179777
 30
0
 40
0.5
  0
CIRCLE
  8
1
 62
7
 10
184.326233651581
 20
184.8820526179777
 30
0
 40
0.5
  0
CIRCLE
  8
1
 62
7
 10
185.6548050801525
 20
194.3820526179777
 30
0
 40
0.5
  0
CIRCLE
  8
1
 62
7
 10
181.6690907944382
 20
184.8820526179777
 30
0
 40
0.5
  0
CIRCLE
  8
1
 62
7
 10
182.9976622230096
 20
194.3820526179777
 30
0
 40
0.5
  0
POLYLINE
  8
1
 62
7
 66
1
  0
VERTEX
  8
1
 10
79.51909079443817
 20
372.6320526179777
 30
0
 42
-0.0369790046752391
  0
VERTEX
  8
1
 10
80.07076838430324
 20
371.7749097608349
 30
0
 42
-0.04435933990423028
  0
VERTEX
  8
1
 10
80.43855344421328
 20
370.917766903692
 30
0
 42
-0.0506089484678122
  0
VERTEX
  8
1
 10
80.62244597416829
 20
370.0606240465492
 30
0
 42
-0.05350721698167528
  0
VERTEX
  8
1
 10
80.62244597416827
 20
369.2034811894063
 30
0
 42
-0.0517298307018964
  0
VERTEX
  8
1
 10
80.43855344421328
 20
368.3463383322634
 30
0
 42
-0.04611170986949695
  0
VERTEX
  8
1
 10
80.07076838430325
 20
367.4891954751206
 30
0
 42
-0.03882490217843713
  0
VERTEX
  8
1
 10
79.51909079443817
 20
366.6320526179777
 30
0
  0
SEQEND
  8
1
  0
POLYLINE
  8
1
 62
7
 66
1
  0
VERTEX
  8
1
 10
175.3190907944382
 20
186.6320526179777
 30
0
 42
-0.03697900467521884
  0
VERTEX
  8
1
 10
174.7674132045732
 20
187.4891954751206
 30
0
 42
-0.04435933990426895
  0
VERTEX
  8
1
 10
174.3996281446631
 20
188.3463383322634
 30
0
 42
-0.05060894846786779
  0
VERTEX
  8
1
 10
174.2157356147081
 20
189.2034811894063
 30
0
 42
-0.05350721698159647
  0
VERTEX
  8
1
 10
174.2157356147081
 20
190.0606240465491
 30
0
 42
-0.05172983070191086
  0
VERTEX
  8
1
 10
174.3996281446631
 20
190.917766903692
 30
0
 42
-0.04611170986950089
  0
VERTEX
  8
1
 10
174.7674132045732
 20
191.7749097608349
 30
0
 42
-0.03882490217838593
  0
VERTEX
  8
1
 10
175.3190907944382
 20
192.6320526179777
 30
0
  0
SEQEND
  8
1
  0
ARC
  8
1
 62
3
  6
DIVIDE
 10
163.9190907944382
 20
198.1320526179775
 30
0
 40
0.5
 50
0
 51
90
  0
ARC
  8
1
 62
3
  6
DIVIDE
 10
138.9190907944382
 20
198.1320526179775
 30
0
 40
0.5
 50
90
 51
180
  0
ARC
  8
1
 62
3
  6
DIVIDE
 10
163.9190907944382
 20
361.1320526179777
 30
0
 40
0.5
 50
270
 51
0
  0
ARC
  8
1
 62
3
  6
DIVIDE
 10
138.9190907944382
 20
361.1320526179777
 30
0
 40
0.5
 50
180
 51
270
  0
ARC
  8
1
 62
7
 10
115.9190907944382
 20
361.1320526179777
 30
0
 40
0.5
 50
270
 51
0
  0
ARC
  8
1
 62
7
 10
90.91909079443821
 20
361.1320526179777
 30
0
 40
0.5
 50
180
 51
270
  0
ARC
  8
1
 62
7
 10
115.9190907944382
 20
198.1320526179777
 30
0
 40
0.5
 50
0
 51
90
  0
ARC
  8
1
 62
7
 10
90.91909079443821
 20
198.1320526179777
 30
0
 40
0.5
 50
90
 51
180
  0
TEXT
  8
1
 62
7
 10
-186.9183900151511
 20
466.7645552181834
 30
0
 40
12
  1
OD 808
 41
0.9
  7
SIMPLEX
 72
1
 11
-154.5183900151511
 21
466.7645552181834
 31
0
  0
ENDSEC
  0
EOF
