  0
SECTION
  2
HEADER
  9
$ACADVER
  1
AC1009
  9
$INSBASE
 10
0
 20
0
  9
$EXTMIN
 10
736.5897636314178
 20
398.1953809549584
  9
$EXTMAX
 10
1419.301750593457
 20
764.314153846665
  9
$LIMMIN
 10
736.5897636314178
 20
398.1953809549584
  9
$LIMMAX
 10
1419.301750593457
 20
764.314153846665
  9
$VIEWCTR
 10
10
 20
10
  9
$VIEWSIZE
 40
10
  9
$SNAPMODE
 70
0
  9
$SNAPUNIT
 10
1
 20
1
  9
$SNAPBASE
 10
0
 20
0
  9
$SNAPANG
 50
0
  9
$SNAPSTYLE
 70
0
  9
$SNAPISOPAIR
 70
0
  9
$GRIDMODE
 70
0
  9
$GRIDUNIT
 10
0
 20
0
  9
$ORTHOMODE
 70
0
  9
$REGENMODE
 70
1
  9
$FILLMODE
 70
1
  9
$QTEXTMODE
 70
0
  9
$DRAGMODE
 70
2
  9
$LTSCALE
 40
1
  9
$OSMODE
 70
0
  9
$ATTMODE
 70
1
  9
$TEXTSIZE
 40
3.5
  9
$TRACEWID
 40
0.5
  9
$TEXTSTYLE
  7
STANDARD
  9
$CLAYER
  8
0
  9
$CELTYPE
  6
BYLAYER
  9
$CECOLOR
 62
256
  9
$DIMSCALE
 40
1
  9
$DIMASZ
 40
0.18
  9
$DIMEXO
 40
0.0625
  9
$DIMDLI
 40
0.38
  9
$DIMRND
 40
0
  9
$DIMDLE
 40
0
  9
$DIMEXE
 40
0.18
  9
$DIMTP
 40
0
  9
$DIMTM
 40
0
  9
$DIMTXT
 40
0.18
  9
$DIMCEN
 40
0.09
  9
$DIMTSZ
 40
0
  9
$DIMTOL
 70
0
  9
$DIMLIM
 70
0
  9
$DIMTIH
 70
1
  9
$DIMTOH
 70
1
  9
$DIMSE1
 70
0
  9
$DIMSE2
 70
0
  9
$DIMTAD
 70
0
  9
$DIMZIN
 70
0
  9
$DIMBLK
  1

  9
$DIMASO
 70
1
  9
$DIMSHO
 70
1
  9
$DIMPOST
  1

  9
$DIMAPOST
  1

  9
$DIMALT
 70
0
  9
$DIMALTD
 70
2
  9
$DIMALTF
 40
25.4
  9
$DIMLFAC
 40
1
  9
$DIMTOFL
 70
0
  9
$DIMTVP
 40
0
  9
$DIMTIX
 70
0
  9
$DIMSOXD
 70
0
  9
$DIMSAH
 70
0
  9
$DIMBLK1
  1

  9
$DIMBLK2
  1

  9
$DIMSTYLE
  2
*UNNAMED
  9
$DIMCLRD
 70
0
  9
$DIMCLRE
 70
0
  9
$DIMCLRT
 70
0
  9
$DIMTFAC
 40
1
  9
$DIMGAP
 40
0.09
  9
$LUNITS
 70
2
  9
$LUPREC
 70
4
  9
$AXISMODE
 70
0
  9
$AXISUNIT
 10
0
 20
0
  9
$SKETCHINC
 40
0.1
  9
$FILLETRAD
 40
2
  9
$AUNITS
 70
0
  9
$AUPREC
 70
0
  9
$MENU
  1
ACAD
  9
$ELEVATION
 40
0
  9
$THICKNESS
 40
0
  9
$VIEWDIR
 10
0
 20
0
 30
1
  9
$LIMCHECK
 70
0
  9
$BLIPMODE
 70
1
  9
$CHAMFERA
 40
0
  9
$CHAMFERB
 40
0
  9
$FASTZOOM
 70
1
  9
$SKPOLY
 70
0
  9
$ANGBASE
 50
0
  9
$ANGDIR
 70
0
  9
$PDMODE
 70
0
  9
$PDSIZE
 40
0
  9
$PLINEWID
 40
0
  9
$COORDS
 70
2
  0
ENDSEC
  0
SECTION
  2
TABLES
  0
TABLE
  2
DIMSTYLE
 70
0
  0
ENDTAB
  0
TABLE
  2
LTYPE
 70
9
  0
LTYPE
  2
CONTINUOUS
 70
64
  3
Solid line
 72
65
 73
0
 40
0
  0
LTYPE
  2
BORDER
 70
64
  3
__ __ . __ __ .
 72
65
 73
6
 40
31.44068361009391
 49
8.983052460026832
 49
-4.491526230013416
 49
8.983052460026832
 49
-4.491526230013416
 49
0
 49
-4.491526230013416
  0
LTYPE
  2
CENTER
 70
64
  3
____ _ ____ _
 72
65
 73
4
 40
35.93220984010733
 49
22.45763115006708
 49
-4.491526230013416
 49
4.491526230013416
 49
-4.491526230013416
  0
LTYPE
  2
DASHDOT
 70
64
  3
__ . __ . __ .
 72
65
 73
4
 40
17.96610492005366
 49
8.983052460026832
 49
-4.491526230013416
 49
0
 49
-4.491526230013416
  0
LTYPE
  2
DASHED
 70
64
  3
__ __ __ __ __
 72
65
 73
2
 40
13.47457869004025
 49
8.983052460026832
 49
-4.491526230013416
  0
LTYPE
  2
DIVIDE
 70
64
  3
__ . . __ . . 
 72
65
 73
6
 40
22.45763115006708
 49
8.983052460026832
 49
-4.491526230013416
 49
0
 49
-4.491526230013416
 49
0
 49
-4.491526230013416
  0
LTYPE
  2
DOT
 70
64
  3
..............
 72
65
 73
4
 40
8.983052460026832
 49
0
 49
-4.491526230013416
 49
0
 49
-4.491526230013416
  0
LTYPE
  2
HIDDEN
 70
64
  3
_ _ _ _ _ _ _
 72
65
 73
2
 40
6.737289345020123
 49
4.491526230013416
 49
-2.245763115006708
  0
LTYPE
  2
PHANTOM
 70
64
  3
_____ _ _ _____ _ _ 
 72
65
 73
6
 40
44.91526230013416
 49
22.45763115006708
 49
-4.491526230013416
 49
4.491526230013416
 49
-4.491526230013416
 49
4.491526230013416
 49
-4.491526230013416
  0
ENDTAB
  0
TABLE
  2
LAYER
 70
3
  0
LAYER
  2
1
 70
0
 62
7
  6
CONTINUOUS
  0
LAYER
  2
0
 70
0
 62
7
  6
CONTINUOUS
  0
ENDTAB
  0
TABLE
  2
STYLE
 70
4
  0
STYLE
  2
STANDARD
 70
0
 40
0
 41
1
 50
0
 71
0
 42
3.5
  3
txt
  4

  0
STYLE
  2
SIMPLEX
 70
0
 40
0
 41
1
 50
0
 71
0
 42
3.5
  3
simplex
  4

  0
STYLE
  2
COMPLEX
 70
0
 40
0
 41
1
 50
0
 71
0
 42
3.5
  3
complex
  4

  0
STYLE
  2
ITALIC
 70
0
 40
0
 41
1
 50
0
 71
0
 42
3.5
  3
italic
  4

  0
ENDTAB
  0
TABLE
  2
VIEW
 70
0
  0
ENDTAB
  0
ENDSEC
  0
SECTION
  2
BLOCKS
  0
ENDSEC
  0
SECTION
  2
ENTITIES
  0
LINE
  8
1
 62
3
  6
DIVIDE
 10
1363.301750593457
 20
434.695380954959
 30
0
 11
1363.301750593457
 21
450.195380954959
 31
0
  0
LINE
  8
1
 62
3
  6
DIVIDE
 10
1407.301750593457
 20
470.1953809549589
 30
0
 11
1407.301750593457
 21
437.6953809549593
 31
0
  0
LINE
  8
1
 62
3
  6
DIVIDE
 10
1402.301750593457
 20
432.6953809549593
 30
0
 11
1395.301750593457
 21
432.6953809549593
 31
0
  0
LINE
  8
1
 62
3
  6
DIVIDE
 10
1407.301750593457
 20
437.6953809549593
 30
0
 11
1402.301750593457
 21
432.6953809549593
 31
0
  0
LINE
  8
1
 62
3
  6
DIVIDE
 10
1395.301750593457
 20
432.6953809549593
 30
0
 11
1393.301750593457
 21
434.6953809549593
 31
0
  0
LINE
  8
1
 62
3
  6
DIVIDE
 10
1393.301750593457
 20
434.6953809549593
 30
0
 11
1393.301750593457
 21
450.1953809549593
 31
0
  0
LINE
  8
1
 62
3
  6
DIVIDE
 10
1393.301750593457
 20
450.1953809549593
 30
0
 11
1363.301750593457
 21
450.195380954959
 31
0
  0
LINE
  8
1
 62
3
  6
DIVIDE
 10
1363.301750593457
 20
434.695380954959
 30
0
 11
1361.301750593457
 21
432.6953809549593
 31
0
  0
LINE
  8
1
 62
3
  6
DIVIDE
 10
1354.301750593457
 20
432.6953809549593
 30
0
 11
1361.301750593457
 21
432.6953809549593
 31
0
  0
LINE
  8
1
 62
3
  6
DIVIDE
 10
1349.301750593457
 20
437.6953809549593
 30
0
 11
1354.301750593457
 21
432.6953809549593
 31
0
  0
LINE
  8
1
 62
3
  6
DIVIDE
 10
1349.301750593457
 20
470.6953809549593
 30
0
 11
1349.301750593457
 21
437.6953809549593
 31
0
  0
LINE
  8
1
 62
3
  6
DASHDOT
 10
1378.301750593457
 20
447.1953809549593
 30
0
 11
1378.301750593457
 21
473.1953809549593
 31
0
  0
LINE
  8
1
 62
3
  6
DASHDOT
 10
1348.301750593457
 20
447.1953809549593
 30
0
 11
1348.301750593457
 21
473.1953809549593
 31
0
  0
LINE
  8
1
 62
3
  6
DIVIDE
 10
1349.301750593457
 20
666.1953809549589
 30
0
 11
1362.95860484295
 21
652.5385267054664
 31
0
  0
LINE
  8
1
 62
3
  6
DIVIDE
 10
1349.301750593457
 20
682.6953809549589
 30
0
 11
1349.301750593457
 21
649.6953809549589
 31
0
  0
LINE
  8
1
 62
3
  6
DIVIDE
 10
1361.301750593457
 20
687.6953809549589
 30
0
 11
1354.301750593457
 21
687.6953809549589
 31
0
  0
LINE
  8
1
 62
3
  6
DIVIDE
 10
1354.301750593457
 20
687.6953809549589
 30
0
 11
1349.301750593457
 21
682.6953809549589
 31
0
  0
LINE
  8
1
 62
3
  6
DIVIDE
 10
1361.301750593457
 20
687.6953809549589
 30
0
 11
1363.301750593457
 21
685.6953809549589
 31
0
  0
LINE
  8
1
 62
3
  6
DIVIDE
 10
1363.301750593457
 20
670.1953809549589
 30
0
 11
1393.301750593457
 21
670.1953809549589
 31
0
  0
LINE
  8
1
 62
3
  6
DIVIDE
 10
1393.301750593457
 20
670.1953809549589
 30
0
 11
1393.301750593457
 21
685.6953809549589
 31
0
  0
LINE
  8
1
 62
3
  6
DIVIDE
 10
1395.301750593457
 20
687.6953809549589
 30
0
 11
1402.301750593457
 21
687.6953809549589
 31
0
  0
LINE
  8
1
 62
3
  6
DIVIDE
 10
1402.301750593457
 20
687.6953809549589
 30
0
 11
1407.301750593457
 21
682.6953809549589
 31
0
  0
LINE
  8
1
 62
3
  6
DIVIDE
 10
1393.301750593457
 20
685.6953809549589
 30
0
 11
1395.301750593457
 21
687.6953809549589
 31
0
  0
LINE
  8
1
 62
3
  6
DIVIDE
 10
1407.301750593457
 20
682.6953809549589
 30
0
 11
1407.301750593457
 21
650.1953809549589
 31
0
  0
LINE
  8
1
 62
7
 10
1171.301750593457
 20
660.1953809549589
 30
0
 11
1175.288215874891
 21
660.1953809549589
 31
0
  0
LINE
  8
1
 62
3
 10
1283.301750593457
 20
398.1953809549591
 30
0
 11
1211.301750593457
 21
469.1953809549591
 31
0
  0
LINE
  8
1
 62
3
 10
1283.301750593457
 20
469.1953809549589
 30
0
 11
1211.301750593457
 21
398.1953809549591
 31
0
  0
LINE
  8
1
 62
7
 10
1283.301750593457
 20
398.1953809549591
 30
0
 11
1211.301750593457
 21
398.1953809549591
 31
0
  0
LINE
  8
1
 62
7
 10
1293.636409588551
 20
682.6953809549589
 30
0
 11
1293.301750593457
 21
684.5933264296073
 31
0
  0
LINE
  8
1
 62
7
 10
1296.281314299178
 20
697.6953809549589
 30
0
 11
1293.636409588551
 21
682.6953809549589
 31
0
  0
LINE
  8
1
 62
7
 10
1298.926219009805
 20
682.6953809549589
 30
0
 11
1296.281314299178
 21
697.6953809549589
 31
0
  0
LINE
  8
1
 62
7
 10
1301.571123720432
 20
697.6953809549589
 30
0
 11
1298.926219009805
 21
682.6953809549589
 31
0
  0
LINE
  8
1
 62
7
 10
1304.216028431059
 20
682.6953809549589
 30
0
 11
1301.571123720432
 21
697.6953809549589
 31
0
  0
LINE
  8
1
 62
7
 10
1306.860933141686
 20
697.6953809549589
 30
0
 11
1304.216028431059
 21
682.6953809549589
 31
0
  0
LINE
  8
1
 62
7
 10
1307.301750593457
 20
695.1953809549589
 30
0
 11
1306.860933141686
 21
697.6953809549589
 31
0
  0
LINE
  8
1
 62
7
 10
1211.301750593457
 20
722.1953809549589
 30
0
 11
1283.301750593457
 21
722.1953809549589
 31
0
  0
LINE
  8
1
 62
7
 10
1288.301750593457
 20
469.1953809549589
 30
0
 11
1207.301750593457
 21
469.1953809549591
 31
0
  0
LINE
  8
1
 62
3
 10
1290.301750593457
 20
664.1953809549589
 30
0
 11
1288.301750593457
 21
664.1953809549589
 31
0
  0
LINE
  8
1
 62
3
  6
DASHDOT
 10
898.5897636314184
 20
575.195380954959
 30
0
 11
898.5897636314184
 21
545.195380954959
 31
0
  0
LINE
  8
1
 62
3
 10
1290.301750593457
 20
458.1953809549589
 30
0
 11
1319.301750593457
 21
458.1953809549589
 31
0
  0
LINE
  8
1
 62
7
 10
1407.301750593457
 20
488.1953809549589
 30
0
 11
1409.301750593457
 21
490.1953809549589
 31
0
  0
LINE
  8
1
 62
7
 10
1407.301750593457
 20
470.1953809549589
 30
0
 11
1407.301750593457
 21
488.1953809549589
 31
0
  0
LINE
  8
1
 62
7
 10
1317.301750593457
 20
456.1953809549589
 30
0
 11
1319.301750593457
 21
458.1953809549589
 31
0
  0
LINE
  8
1
 62
7
 10
1407.301750593457
 20
470.1953809549589
 30
0
 11
1322.301750593457
 21
470.1953809549589
 31
0
  0
LINE
  8
1
 62
7
 10
1409.301750593457
 20
630.1953809549589
 30
0
 11
1409.301750593457
 21
490.1953809549589
 31
0
  0
LINE
  8
1
 62
7
 10
1171.301750593457
 20
460.1953809549589
 30
0
 11
1207.301750593457
 21
460.1953809549589
 31
0
  0
LINE
  8
1
 62
7
 10
1290.301750593457
 20
460.1953809549589
 30
0
 11
1290.301750593457
 21
456.1953809549589
 31
0
  0
LINE
  8
1
 62
7
 10
1290.301750593457
 20
456.1953809549589
 30
0
 11
1317.301750593457
 21
456.1953809549589
 31
0
  0
LINE
  8
1
 62
7
 10
1169.301750593457
 20
490.1953809549587
 30
0
 11
1171.301750593457
 21
488.1953809549587
 31
0
  0
LINE
  8
1
 62
7
 10
1171.301750593457
 20
488.1953809549587
 30
0
 11
1171.301750593457
 21
460.1953809549589
 31
0
  0
LINE
  8
1
 62
3
  6
DASHDOT
 10
1419.301750593457
 20
560.195380954959
 30
0
 11
1409.301750593457
 21
560.195380954959
 31
0
  0
LINE
  8
1
 62
7
 10
886.0897636314184
 20
693.1953809549589
 30
0
 11
886.0897636314184
 21
625.1953809549589
 31
0
  0
LINE
  8
1
 62
7
 10
886.0897636314184
 20
625.1953809549589
 30
0
 11
911.0897636314181
 21
625.1953809549589
 31
0
  0
LINE
  8
1
 62
7
 10
911.0897636314181
 20
625.1953809549589
 30
0
 11
911.0897636314181
 21
693.1953809549589
 31
0
  0
LINE
  8
1
 62
7
 10
848.5481123854299
 20
516.8700634076536
 30
0
 11
836.0481123854299
 21
538.5206985022646
 31
0
  0
LINE
  8
1
 62
7
 10
961.1314148774065
 20
538.5206985022644
 30
0
 11
948.6314148774065
 21
516.8700634076533
 31
0
  0
LINE
  8
1
 62
7
 10
886.0897636314184
 20
460.9797067900369
 30
0
 11
886.0897636314184
 21
470.1953809549589
 31
0
  0
LINE
  8
1
 62
7
 10
886.0897636314184
 20
470.1953809549589
 30
0
 11
911.0897636314181
 21
470.1953809549589
 31
0
  0
LINE
  8
1
 62
7
 10
911.0897636314181
 20
470.1953809549589
 30
0
 11
911.0897636314181
 21
460.9797067900369
 31
0
  0
LINE
  8
1
 62
7
 10
990.7630579118405
 20
598.9779004901145
 30
0
 11
982.7820499720175
 21
594.3700634076533
 31
0
  0
LINE
  8
1
 62
7
 10
982.7820499720175
 20
594.3700634076533
 30
0
 11
970.2820499720175
 21
616.0206985022643
 31
0
  0
LINE
  8
1
 62
7
 10
970.2820499720175
 20
616.0206985022643
 30
0
 11
978.2630579118405
 21
620.6285355847255
 31
0
  0
LINE
  8
1
 62
7
 10
818.9164693509962
 20
620.6285355847255
 30
0
 11
826.8974772908188
 21
616.0206985022644
 31
0
  0
LINE
  8
1
 62
7
 10
826.8974772908188
 20
616.0206985022644
 30
0
 11
814.3974772908189
 21
594.3700634076533
 31
0
  0
LINE
  8
1
 62
7
 10
814.3974772908189
 20
594.3700634076533
 30
0
 11
806.4164693509962
 21
598.9779004901145
 31
0
  0
LINE
  8
1
 62
3
  6
DASHDOT
 10
870.3186749307328
 20
511.2284189400852
 30
0
 11
857.9046670716291
 21
489.7267266025584
 31
0
  0
LINE
  8
1
 62
3
  6
DASHDOT
 10
939.4581653500986
 20
630.9815291558484
 30
0
 11
927.0919887391727
 21
609.5626829703551
 31
0
  0
LINE
  8
1
 62
7
 10
1171.301750593457
 20
470.1953809549589
 30
0
 11
1319.301750593457
 21
470.1953809549589
 31
0
  0
LINE
  8
1
 62
3
  6
DASHDOT
 10
952.1854737072255
 20
484.5072374530864
 30
0
 11
944.9096691757216
 21
488.7079251579214
 31
0
  0
LINE
  8
1
 62
7
 10
1204.301750593457
 20
508.6953809549589
 30
0
 11
1289.301750593457
 21
508.6953809549589
 31
0
  0
LINE
  8
1
 62
7
 10
1169.301750593457
 20
501.1953809549589
 30
0
 11
1409.301750593457
 21
501.1953809549589
 31
0
  0
LINE
  8
1
 62
7
 10
1169.301750593457
 20
510.1953809549589
 30
0
 11
1204.301750593457
 21
510.1953809549589
 31
0
  0
LINE
  8
1
 62
7
 10
1409.301750593457
 20
510.1953809549589
 30
0
 11
1289.301750593457
 21
510.1953809549589
 31
0
  0
LINE
  8
1
 62
7
 10
884.5897636314181
 20
501.1953809549589
 30
0
 11
912.5897636314181
 21
501.1953809549589
 31
0
  0
LINE
  8
1
 62
7
 10
912.5897636314181
 20
501.1953809549589
 30
0
 11
912.5897636314181
 21
512.1953809549589
 31
0
  0
LINE
  8
1
 62
7
 10
884.5897636314181
 20
501.1953809549589
 30
0
 11
884.5897636314181
 21
512.1953809549589
 31
0
  0
LINE
  8
1
 62
3
  6
DIVIDE
 10
1232.301750593457
 20
501.1953809549589
 30
0
 11
1232.301750593457
 21
470.1953809549589
 31
0
  0
LINE
  8
1
 62
3
  6
DIVIDE
 10
1226.301750593457
 20
470.1953809549589
 30
0
 11
1226.301750593457
 21
501.1953809549589
 31
0
  0
LINE
  8
1
 62
3
  6
DIVIDE
 10
1262.301750593457
 20
501.1953809549589
 30
0
 11
1262.301750593457
 21
470.1953809549589
 31
0
  0
LINE
  8
1
 62
3
  6
DIVIDE
 10
1256.301750593457
 20
470.1953809549589
 30
0
 11
1256.301750593457
 21
501.1953809549589
 31
0
  0
LINE
  8
1
 62
3
  6
DIVIDE
 10
901.5897636314181
 20
470.1953809549589
 30
0
 11
901.5897636314181
 21
501.1953809549589
 31
0
  0
LINE
  8
1
 62
3
  6
DIVIDE
 10
895.5897636314184
 20
470.1953809549589
 30
0
 11
895.5897636314184
 21
501.1953809549589
 31
0
  0
LINE
  8
1
 62
3
  6
DIVIDE
 10
975.0320499720175
 20
607.7934571663124
 30
0
 11
941.614335499096
 21
588.499730719669
 31
0
  0
LINE
  8
1
 62
3
  6
DIVIDE
 10
978.0320499720175
 20
602.5973047436056
 30
0
 11
944.6143354990961
 21
583.3035782969623
 31
0
  0
LINE
  8
1
 62
3
  6
DIVIDE
 10
855.5651917637406
 20
588.499730719669
 30
0
 11
822.1474772908188
 21
607.7934571663124
 31
0
  0
LINE
  8
1
 62
3
  6
DIVIDE
 10
852.5651917637406
 20
583.3035782969622
 30
0
 11
819.1474772908188
 21
602.5973047436056
 31
0
  0
LINE
  8
1
 62
3
 10
1319.301750593457
 20
662.1953809549589
 30
0
 11
1290.301750593457
 21
662.1953809549589
 31
0
  0
LINE
  8
1
 62
7
 10
1409.301750593457
 20
630.1953809549589
 30
0
 11
1407.301750593457
 21
632.1953809549589
 31
0
  0
LINE
  8
1
 62
7
 10
1407.301750593457
 20
632.1953809549589
 30
0
 11
1407.301750593457
 21
650.1953809549589
 31
0
  0
LINE
  8
1
 62
7
 10
1319.301750593457
 20
662.1953809549589
 30
0
 11
1317.301750593457
 21
664.1953809549589
 31
0
  0
LINE
  8
1
 62
7
 10
1322.301750593457
 20
649.6953809549589
 30
0
 11
1322.301750593457
 21
650.1953809549589
 31
0
  0
LINE
  8
1
 62
7
 10
1319.301750593457
 20
649.6953809549589
 30
0
 11
1322.301750593457
 21
649.6953809549589
 31
0
  0
LINE
  8
1
 62
7
 10
1290.301750593457
 20
660.1953809549589
 30
0
 11
1193.245704353626
 21
660.1953809549589
 31
0
  0
LINE
  8
1
 62
7
 10
1290.301750593457
 20
664.1953809549589
 30
0
 11
1290.301750593457
 21
660.1953809549589
 31
0
  0
LINE
  8
1
 62
7
 10
1317.301750593457
 20
664.1953809549589
 30
0
 11
1290.301750593457
 21
664.1953809549589
 31
0
  0
LINE
  8
1
 62
7
 10
1169.301750593457
 20
630.1953809549591
 30
0
 11
1169.301750593457
 21
490.1953809549587
 31
0
  0
LINE
  8
1
 62
7
 10
1171.301750593457
 20
632.1953809549591
 30
0
 11
1169.301750593457
 21
630.1953809549591
 31
0
  0
LINE
  8
1
 62
7
 10
1171.301750593457
 20
660.1953809549589
 30
0
 11
1171.301750593457
 21
632.1953809549591
 31
0
  0
LINE
  8
1
 62
7
 10
1289.301750593457
 20
611.6953809549589
 30
0
 11
1204.301750593457
 21
611.6953809549589
 31
0
  0
LINE
  8
1
 62
7
 10
1204.301750593457
 20
610.1953809549589
 30
0
 11
1169.301750593457
 21
610.1953809549589
 31
0
  0
LINE
  8
1
 62
7
 10
1289.301750593457
 20
610.1953809549589
 30
0
 11
1409.301750593457
 21
610.1953809549589
 31
0
  0
LINE
  8
1
 62
7
 10
1289.301750593457
 20
611.6953809549589
 30
0
 11
1289.301750593457
 21
508.6953809549589
 31
0
  0
LINE
  8
1
 62
7
 10
1204.301750593457
 20
611.6953809549589
 30
0
 11
1204.301750593457
 21
508.6953809549589
 31
0
  0
LINE
  8
1
 62
7
 10
1365.301750593457
 20
687.6953809549589
 30
0
 11
1372.301750593457
 21
687.6953809549589
 31
0
  0
LINE
  8
1
 62
7
 10
1331.301750593457
 20
687.6953809549589
 30
0
 11
1324.301750593457
 21
687.6953809549589
 31
0
  0
LINE
  8
1
 62
7
 10
1319.301750593457
 20
682.6953809549589
 30
0
 11
1319.301750593457
 21
649.6953809549589
 31
0
  0
LINE
  8
1
 62
7
 10
1333.301750593457
 20
685.6953809549589
 30
0
 11
1333.301750593457
 21
670.1953809549589
 31
0
  0
LINE
  8
1
 62
7
 10
1377.301750593457
 20
682.6953809549589
 30
0
 11
1377.301750593457
 21
650.1953809549589
 31
0
  0
LINE
  8
1
 62
7
 10
1324.301750593457
 20
687.6953809549589
 30
0
 11
1319.301750593457
 21
682.6953809549589
 31
0
  0
LINE
  8
1
 62
7
 10
1372.301750593457
 20
687.6953809549589
 30
0
 11
1377.301750593457
 21
682.6953809549589
 31
0
  0
LINE
  8
1
 62
7
 10
1331.301750593457
 20
687.6953809549589
 30
0
 11
1333.301750593457
 21
685.6953809549589
 31
0
  0
LINE
  8
1
 62
7
 10
1363.301750593457
 20
685.6953809549589
 30
0
 11
1365.301750593457
 21
687.6953809549589
 31
0
  0
LINE
  8
1
 62
7
 10
1322.301750593457
 20
650.1953809549589
 30
0
 11
1407.301750593457
 21
650.1953809549589
 31
0
  0
LINE
  8
1
 62
7
 10
1319.301750593457
 20
666.1953809549589
 30
0
 11
1332.95860484295
 21
652.5385267054664
 31
0
  0
LINE
  8
1
 62
3
  6
DIVIDE
 10
1363.301750593457
 20
670.1953809549589
 30
0
 11
1363.301750593457
 21
685.6953809549589
 31
0
  0
LINE
  8
1
 62
7
 10
1333.301750593457
 20
670.1953809549589
 30
0
 11
1363.301750593457
 21
670.1953809549589
 31
0
  0
LINE
  8
1
 62
7
 10
1322.301750593457
 20
470.1953809549589
 30
0
 11
1322.301750593457
 21
470.6953809549589
 31
0
  0
LINE
  8
1
 62
7
 10
1322.301750593457
 20
470.6953809549589
 30
0
 11
1319.301750593457
 21
470.6953809549589
 31
0
  0
LINE
  8
1
 62
7
 10
1372.301750593457
 20
432.695380954959
 30
0
 11
1365.301750593457
 21
432.695380954959
 31
0
  0
LINE
  8
1
 62
7
 10
1324.301750593457
 20
432.695380954959
 30
0
 11
1331.301750593457
 21
432.695380954959
 31
0
  0
LINE
  8
1
 62
7
 10
1319.301750593457
 20
470.6953809549589
 30
0
 11
1319.301750593457
 21
437.695380954959
 31
0
  0
LINE
  8
1
 62
7
 10
1333.301750593457
 20
450.195380954959
 30
0
 11
1333.301750593457
 21
434.695380954959
 31
0
  0
LINE
  8
1
 62
7
 10
1377.301750593457
 20
470.195380954959
 30
0
 11
1377.301750593457
 21
437.695380954959
 31
0
  0
LINE
  8
1
 62
7
 10
1319.301750593457
 20
437.695380954959
 30
0
 11
1324.301750593457
 21
432.695380954959
 31
0
  0
LINE
  8
1
 62
7
 10
1377.301750593457
 20
437.695380954959
 30
0
 11
1372.301750593457
 21
432.695380954959
 31
0
  0
LINE
  8
1
 62
7
 10
1333.301750593457
 20
434.695380954959
 30
0
 11
1331.301750593457
 21
432.695380954959
 31
0
  0
LINE
  8
1
 62
7
 10
1365.301750593457
 20
432.695380954959
 30
0
 11
1363.301750593457
 21
434.695380954959
 31
0
  0
LINE
  8
1
 62
7
 10
1363.301750593457
 20
450.195380954959
 30
0
 11
1333.301750593457
 21
450.195380954959
 31
0
  0
LINE
  8
1
 62
7
 10
1216.199186039446
 20
643.6005091826594
 30
0
 11
1313.019908960328
 21
638.7594730366153
 31
0
  0
LINE
  8
1
 62
7
 10
1184.301750593457
 20
628.1953809549589
 30
0
 11
1344.301750593457
 21
628.1953809549589
 31
0
  0
LINE
  8
1
 62
7
 10
1179.398124359162
 20
686.4334004816897
 30
0
 11
1172.446311242014
 21
642.0524102450551
 31
0
  0
LINE
  8
1
 62
7
 10
911.0897636314181
 20
628.1953809549589
 30
0
 11
886.0897636314184
 21
628.1953809549589
 31
0
  0
LINE
  8
1
 62
7
 10
911.0897636314181
 20
693.1953809549589
 30
0
 11
886.0897636314184
 21
693.1953809549589
 31
0
  0
LINE
  8
1
 62
7
 10
777.158384928088
 20
504.5206985022644
 30
0
 11
789.658384928088
 21
482.8700634076536
 31
0
  0
LINE
  8
1
 62
7
 10
836.0481123854299
 20
538.5206985022646
 30
0
 11
777.158384928088
 21
504.5206985022644
 31
0
  0
LINE
  8
1
 62
7
 10
789.658384928088
 20
482.8700634076536
 30
0
 11
848.5481123854299
 21
516.8700634076536
 31
0
  0
LINE
  8
1
 62
7
 10
833.4500361740767
 20
537.0206985022644
 30
0
 11
845.9500361740767
 21
515.3700634076536
 31
0
  0
LINE
  8
1
 62
7
 10
951.2294910887605
 20
515.3700634076536
 30
0
 11
963.7294910887605
 21
537.0206985022644
 31
0
  0
LINE
  8
1
 62
7
 10
948.6314148774065
 20
516.8700634076533
 30
0
 11
1007.521142334749
 21
482.8700634076536
 31
0
  0
LINE
  8
1
 62
7
 10
1020.021142334749
 20
504.5206985022644
 30
0
 11
961.1314148774065
 21
538.5206985022644
 31
0
  0
LINE
  8
1
 62
7
 10
1007.521142334749
 20
482.8700634076536
 30
0
 11
1020.021142334749
 21
504.5206985022644
 31
0
  0
LINE
  8
1
 62
3
  6
DIVIDE
 10
1323.301750593457
 20
659.1953809549589
 30
0
 11
1323.301750593457
 21
641.1953809549589
 31
0
  0
LINE
  8
1
 62
3
  6
DIVIDE
 10
1403.301750593457
 20
641.1953809549589
 30
0
 11
1323.301750593457
 21
641.1953809549589
 31
0
  0
LINE
  8
1
 62
7
 10
1311.301750593457
 20
709.1953809549589
 30
0
 11
1283.301750593457
 21
709.1953809549591
 31
0
  0
LINE
  8
1
 62
7
 10
1316.301750593457
 20
704.1953809549589
 30
0
 11
1316.301750593457
 21
664.1953809549589
 31
0
  0
LINE
  8
1
 62
7
 10
1313.901750593457
 20
706.5953809549588
 30
0
 11
1316.301750593457
 21
704.1953809549589
 31
0
  0
LINE
  8
1
 62
7
 10
1283.301750593457
 20
411.1953809549589
 30
0
 11
1311.301750593457
 21
411.195380954959
 31
0
  0
LINE
  8
1
 62
7
 10
1316.301750593457
 20
416.195380954959
 30
0
 11
1311.301750593457
 21
411.195380954959
 31
0
  0
LINE
  8
1
 62
7
 10
1316.301750593457
 20
456.1953809549589
 30
0
 11
1316.301750593457
 21
416.195380954959
 31
0
  0
LINE
  8
1
 62
7
 10
1288.301750593457
 20
460.195380954959
 30
0
 11
1288.301750593457
 21
411.1953809549589
 31
0
  0
LINE
  8
1
 62
7
 10
1288.301750593457
 20
460.195380954959
 30
0
 11
1288.301750593457
 21
469.1953809549589
 31
0
  0
LINE
  8
1
 62
7
 10
1283.301750593457
 20
398.1953809549591
 30
0
 11
1283.301750593457
 21
469.1953809549589
 31
0
  0
LINE
  8
1
 62
7
 10
1288.301750593457
 20
460.195380954959
 30
0
 11
1290.301750593457
 21
460.1953809549589
 31
0
  0
LINE
  8
1
 62
7
 10
1288.301750593457
 20
437.9453809549589
 30
0
 11
1283.301750593457
 21
437.9453809549589
 31
0
  0
LINE
  8
1
 62
7
 10
1283.301750593457
 20
422.4453809549589
 30
0
 11
1288.301750593457
 21
422.4453809549589
 31
0
  0
LINE
  8
1
 62
7
 10
1288.301750593457
 20
697.9453809549591
 30
0
 11
1283.301750593457
 21
697.9453809549591
 31
0
  0
LINE
  8
1
 62
7
 10
1283.301750593457
 20
682.4453809549591
 30
0
 11
1288.301750593457
 21
682.4453809549591
 31
0
  0
LINE
  8
1
 62
7
 10
1311.301750593457
 20
723.1953809549589
 30
0
 11
1311.301750593457
 21
662.1953809549589
 31
0
  0
LINE
  8
1
 62
7
 10
1290.301750593457
 20
662.1953809549589
 30
0
 11
1288.301750593457
 21
662.1953809549589
 31
0
  0
LINE
  8
1
 62
7
 10
1290.301750593457
 20
458.1953809549589
 30
0
 11
1288.301750593457
 21
458.1953809549589
 31
0
  0
LINE
  8
1
 62
3
 10
1290.301750593457
 20
456.1953809549589
 30
0
 11
1288.301750593457
 21
456.1953809549589
 31
0
  0
LINE
  8
1
 62
7
 10
1311.301750593457
 20
458.1953809549589
 30
0
 11
1311.301750593457
 21
454.1953809549589
 31
0
  0
LINE
  8
1
 62
7
 10
1316.301750593457
 20
454.1953809549589
 30
0
 11
1311.301750593457
 21
454.1953809549589
 31
0
  0
LINE
  8
1
 62
7
 10
1307.301750593457
 20
697.6953809549589
 30
0
 11
1307.301750593457
 21
695.1953809549589
 31
0
  0
LINE
  8
1
 62
7
 10
1311.301750593457
 20
723.1953809549589
 30
0
 11
1313.901750593457
 21
723.1953809549589
 31
0
  0
LINE
  8
1
 62
7
 10
1311.301750593457
 20
681.1953809549589
 30
0
 11
1313.901750593457
 21
681.1953809549589
 31
0
  0
LINE
  8
1
 62
7
 10
1307.301750593457
 20
682.6953809549589
 30
0
 11
1283.801750593457
 21
682.6953809549589
 31
0
  0
LINE
  8
1
 62
7
 10
1307.301750593457
 20
697.6953809549589
 30
0
 11
1283.801750593457
 21
697.6953809549589
 31
0
  0
LINE
  8
1
 62
7
 10
1293.301750593457
 20
697.6953809549589
 30
0
 11
1293.301750593457
 21
682.6953809549589
 31
0
  0
LINE
  8
1
 62
7
 10
1307.301750593457
 20
685.1953809549589
 30
0
 11
1307.301750593457
 21
682.6953809549589
 31
0
  0
LINE
  8
1
 62
7
 10
1313.901750593457
 20
723.1953809549589
 30
0
 11
1313.901750593457
 21
681.1953809549589
 31
0
  0
LINE
  8
1
 62
7
 10
1293.301750593457
 20
695.1953809549589
 30
0
 11
1311.301750593457
 21
695.1953809549589
 31
0
  0
LINE
  8
1
 62
7
 10
1311.301750593457
 20
685.1953809549589
 30
0
 11
1293.301750593457
 21
685.1953809549589
 31
0
  0
LINE
  8
1
 62
7
 10
1211.301750593457
 20
722.1953809549589
 30
0
 11
1211.301750593457
 21
660.1953809549589
 31
0
  0
LINE
  8
1
 62
7
 10
1207.301750593457
 20
660.1953809549589
 30
0
 11
1207.301750593457
 21
662.1953809549589
 31
0
  0
LINE
  8
1
 62
7
 10
1195.301750593457
 20
660.1953809549589
 30
0
 11
1195.301750593457
 21
704.1953809549589
 31
0
  0
LINE
  8
1
 62
7
 10
1200.301750593457
 20
709.1953809549589
 30
0
 11
1211.301750593457
 21
709.1953809549589
 31
0
  0
LINE
  8
1
 62
7
 10
1207.301750593457
 20
662.1953809549589
 30
0
 11
1195.301750593457
 21
674.1953809549589
 31
0
  0
LINE
  8
1
 62
7
 10
1200.301750593457
 20
709.1953809549589
 30
0
 11
1195.301750593457
 21
704.1953809549589
 31
0
  0
LINE
  8
1
 62
7
 10
1211.301750593457
 20
411.1953809549589
 30
0
 11
1200.301750593457
 21
411.1953809549589
 31
0
  0
LINE
  8
1
 62
7
 10
1195.301750593457
 20
416.1953809549589
 30
0
 11
1200.301750593457
 21
411.1953809549589
 31
0
  0
LINE
  8
1
 62
7
 10
1195.301750593457
 20
416.1953809549589
 30
0
 11
1195.301750593457
 21
460.1953809549589
 31
0
  0
LINE
  8
1
 62
7
 10
1195.301750593457
 20
446.1953809549589
 30
0
 11
1207.301750593457
 21
458.1953809549589
 31
0
  0
LINE
  8
1
 62
7
 10
1207.301750593457
 20
458.1953809549589
 30
0
 11
1207.301750593457
 21
469.1953809549591
 31
0
  0
LINE
  8
1
 62
7
 10
1283.301750593457
 20
722.1953809549589
 30
0
 11
1283.301750593457
 21
660.1953809549589
 31
0
  0
LINE
  8
1
 62
7
 10
1211.301750593457
 20
469.1953809549591
 30
0
 11
1211.301750593457
 21
398.1953809549591
 31
0
  0
LINE
  8
1
 62
7
 10
1381.801750593457
 20
625.1953809549589
 30
0
 11
1169.301750593457
 21
625.1953809549591
 31
0
  0
LINE
  8
1
 62
7
 10
1381.801750593457
 20
625.1953809549589
 30
0
 11
1381.801750593457
 21
650.1953809549589
 31
0
  0
LINE
  8
1
 62
3
  6
DASHDOT
 10
913.5897636314184
 20
560.195380954959
 30
0
 11
883.5897636314184
 21
560.195380954959
 31
0
  0
LINE
  8
1
 62
7
 10
937.3397636314181
 20
641.9953809549588
 30
0
 11
935.7809179046061
 21
641.0953809549588
 31
0
  0
LINE
  8
1
 62
7
 10
935.7809179046061
 20
641.0953809549588
 30
0
 11
935.7809179046061
 21
639.2953809549589
 31
0
  0
LINE
  8
1
 62
7
 10
935.7809179046061
 20
639.2953809549589
 30
0
 11
937.3397636314181
 21
638.3953809549589
 31
0
  0
LINE
  8
1
 62
7
 10
937.3397636314181
 20
638.3953809549589
 30
0
 11
938.8986093582302
 21
639.2953809549589
 31
0
  0
LINE
  8
1
 62
7
 10
938.8986093582302
 20
639.2953809549589
 30
0
 11
938.8986093582302
 21
641.0953809549588
 31
0
  0
LINE
  8
1
 62
7
 10
938.8986093582302
 20
641.0953809549588
 30
0
 11
937.3397636314181
 21
641.9953809549588
 31
0
  0
LINE
  8
1
 62
7
 10
811.4915770554754
 20
554.6538653516058
 30
0
 11
809.9327313286634
 21
555.5538653516059
 31
0
  0
LINE
  8
1
 62
7
 10
809.9327313286634
 20
555.5538653516059
 30
0
 11
808.3738856018514
 21
554.6538653516058
 31
0
  0
LINE
  8
1
 62
7
 10
808.3738856018514
 20
554.6538653516058
 30
0
 11
808.3738856018514
 21
552.8538653516058
 31
0
  0
LINE
  8
1
 62
7
 10
808.3738856018514
 20
552.8538653516058
 30
0
 11
809.9327313286634
 21
551.9538653516057
 31
0
  0
LINE
  8
1
 62
7
 10
809.9327313286634
 20
551.9538653516057
 30
0
 11
811.4915770554754
 21
552.8538653516058
 31
0
  0
LINE
  8
1
 62
7
 10
811.4915770554754
 20
552.8538653516058
 30
0
 11
811.4915770554754
 21
554.6538653516058
 31
0
  0
LINE
  8
1
 62
7
 10
950.0556416609855
 20
485.7368965583121
 30
0
 11
950.0556416609855
 21
487.5368965583122
 31
0
  0
LINE
  8
1
 62
7
 10
950.0556416609855
 20
487.5368965583122
 30
0
 11
948.4967959341735
 21
488.4368965583122
 31
0
  0
LINE
  8
1
 62
7
 10
948.4967959341735
 20
488.4368965583122
 30
0
 11
946.9379502073615
 21
487.5368965583122
 31
0
  0
LINE
  8
1
 62
7
 10
946.9379502073615
 20
487.5368965583122
 30
0
 11
946.9379502073615
 21
485.7368965583121
 31
0
  0
LINE
  8
1
 62
7
 10
946.9379502073615
 20
485.7368965583121
 30
0
 11
948.4967959341735
 21
484.8368965583122
 31
0
  0
LINE
  8
1
 62
7
 10
948.4967959341735
 20
484.8368965583122
 30
0
 11
950.0556416609855
 21
485.7368965583121
 31
0
  0
LINE
  8
1
 62
3
  6
DASHDOT
 10
1348.301750593457
 20
647.1953809549589
 30
0
 11
1348.301750593457
 21
673.1953809549589
 31
0
  0
LINE
  8
1
 62
3
  6
DASHDOT
 10
1169.301750593457
 20
560.195380954959
 30
0
 11
1159.301750593457
 21
560.195380954959
 31
0
  0
LINE
  8
1
 62
3
  6
DASHDOT
 10
1378.301750593457
 20
647.1953809549589
 30
0
 11
1378.301750593457
 21
673.1953809549589
 31
0
  0
LINE
  8
1
 62
7
 10
1296.301750593457
 20
411.195380954959
 30
0
 11
1296.301750593457
 21
429.195380954959
 31
0
  0
LINE
  8
1
 62
7
 10
1296.301750593457
 20
429.195380954959
 30
0
 11
1308.301750593457
 21
429.195380954959
 31
0
  0
LINE
  8
1
 62
7
 10
1308.301750593457
 20
429.195380954959
 30
0
 11
1308.301750593457
 21
411.195380954959
 31
0
  0
LINE
  8
1
 62
7
 10
1296.301750593457
 20
429.195380954959
 30
0
 11
1302.301750593457
 21
432.6594825700967
 31
0
  0
LINE
  8
1
 62
7
 10
1302.301750593457
 20
432.6594825700967
 30
0
 11
1308.301750593457
 21
429.195380954959
 31
0
  0
LINE
  8
1
 62
3
  6
DIVIDE
 10
1403.301750593457
 20
659.1953809549589
 30
0
 11
1403.301750593457
 21
641.1953809549589
 31
0
  0
LINE
  8
1
 62
3
  6
DIVIDE
 10
1403.301750593457
 20
659.1953809549589
 30
0
 11
1323.301750593457
 21
659.1953809549589
 31
0
  0
LINE
  8
1
 62
7
 10
911.0897636314181
 20
469.19538095496
 30
0
 11
886.0897636314184
 21
469.19538095496
 31
0
  0
LINE
  8
1
 62
7
 10
971.1480753758015
 20
616.5206985022637
 30
0
 11
983.6480753758012
 21
594.8700634076529
 31
0
  0
LINE
  8
1
 62
7
 10
813.5314518870355
 20
594.8700634076531
 30
0
 11
826.0314518870355
 21
616.5206985022638
 31
0
  0
LINE
  8
1
 62
3
 10
1283.301750593457
 20
722.1953809549589
 30
0
 11
1211.301750593457
 21
660.1953809549589
 31
0
  0
LINE
  8
1
 62
3
 10
1211.301750593457
 20
722.1953809549589
 30
0
 11
1283.301750593457
 21
660.1953809549589
 31
0
  0
LINE
  8
1
 62
7
 10
1288.301750593457
 20
709.1953809549589
 30
0
 11
1288.301750593457
 21
697.6953809549589
 31
0
  0
LINE
  8
1
 62
7
 10
1283.801750593457
 20
697.6953809549589
 30
0
 11
1283.801750593457
 21
682.6953809549589
 31
0
  0
LINE
  8
1
 62
7
 10
1288.301750593457
 20
682.6953809549589
 30
0
 11
1288.301750593457
 21
660.1953809549589
 31
0
  0
ARC
  8
1
 62
3
  6
DIVIDE
 10
898.5897636314184
 20
560.195380954959
 30
0
 40
51.50000000000001
 50
135
 51
165.0000000000001
  0
ARC
  8
1
 62
3
  6
DIVIDE
 10
898.5897636314184
 20
560.195380954959
 30
0
 40
51.50000000000009
 50
14.99999999999994
 51
45
  0
ARC
  8
1
 62
7
 10
898.5897636314184
 20
560.195380954959
 30
0
 40
102
 50
217.0392366824679
 51
322.960763317532
  0
ARC
  8
1
 62
7
 10
898.5897636314184
 20
560.195380954959
 30
0
 40
102
 50
337.039236682468
 51
82.96076331753213
  0
ARC
  8
1
 62
7
 10
898.5897636314184
 20
560.195380954959
 30
0
 40
101.9999999999999
 50
97.03923668246799
 51
202.960763317532
  0
ARC
  8
1
 62
7
 10
898.5897636314184
 20
560.195380954959
 30
0
 40
100.0000000000001
 50
37.18075578145819
 51
82.81924421854184
  0
ARC
  8
1
 62
7
 10
898.5897636314184
 20
560.195380954959
 30
0
 40
100.0000000000001
 50
157.1807557814583
 51
202.8192442185417
  0
ARC
  8
1
 62
7
 10
898.5897636314184
 20
560.195380954959
 30
0
 40
69.99999999999996
 50
100.2865606114749
 51
199.7134393885249
  0
ARC
  8
1
 62
7
 10
898.5897636314184
 20
560.195380954959
 30
0
 40
99.9999999999999
 50
277.1807557814581
 51
322.8192442185417
  0
ARC
  8
1
 62
7
 10
898.5897636314184
 20
560.195380954959
 30
0
 40
69.99999999999994
 50
246.5472006993752
 51
319.7134393885247
  0
ARC
  8
1
 62
7
 10
898.5897636314184
 20
560.195380954959
 30
0
 40
100.0000000000001
 50
217.1807557814582
 51
262.8192442185417
  0
ARC
  8
1
 62
7
 10
898.5897636314184
 20
560.195380954959
 30
0
 40
100.0000000000002
 50
337.1807557814583
 51
22.81924421854165
  0
ARC
  8
1
 62
7
 10
898.5897636314184
 20
560.195380954959
 30
0
 40
99.99999999999987
 50
97.18075578145829
 51
142.8192442185418
  0
ARC
  8
1
 62
3
  6
DASHDOT
 10
898.5897636314184
 20
560.195380954959
 30
0
 40
68.99999999999999
 50
230.4096523472581
 51
250.2051111305362
  0
ARC
  8
1
 62
3
  6
DASHDOT
 10
898.5897636314184
 20
560.195380954959
 30
0
 40
69.0000000000002
 50
49.61161829588755
 51
70.39513831253603
  0
ARC
  8
1
 62
7
 10
898.5897636314184
 20
560.195380954959
 30
0
 40
69.99999999999996
 50
66.54720069937531
 51
79.71343938852523
  0
ARC
  8
1
 62
7
 10
898.5897636314184
 20
560.195380954959
 30
0
 40
69.99999999999946
 50
340.2865606114747
 51
53.45279930062496
  0
ARC
  8
1
 62
7
 10
898.5897636314184
 20
560.195380954959
 30
0
 40
70.00000000000011
 50
220.286560611475
 51
233.4527993006248
  0
ARC
  8
1
 62
7
 10
898.5897636314184
 20
560.195380954959
 30
0
 40
50.00000000000005
 50
286.2602047083117
 51
253.7397952916878
  0
ARC
  8
1
 62
7
 10
898.5897636314184
 20
560.195380954959
 30
0
 40
72.00000000000019
 50
66.03133874535342
 51
80.00215651243245
  0
ARC
  8
1
 62
7
 10
898.5897636314184
 20
560.195380954959
 30
0
 40
72.00000000000023
 50
219.9978434875676
 51
233.9686612546466
  0
ARC
  8
1
 62
7
 10
898.5897636314184
 20
560.195380954959
 30
0
 40
72.00000000000034
 50
99.99784348756771
 51
200.0021565124322
  0
ARC
  8
1
 62
7
 10
898.5897636314184
 20
560.195380954959
 30
0
 40
71.99999999999992
 50
339.9978434875675
 51
53.96866125464645
  0
ARC
  8
1
 62
7
 10
1344.301750593457
 20
637.1953809549589
 30
0
 40
9
 50
270
 51
119.2013804914312
  0
ARC
  8
1
 62
7
 10
1187.301750593457
 20
685.1953809549589
 30
0
 40
7.999999999999649
 50
332.6369722410333
 51
171.0975610792765
  0
ARC
  8
1
 62
7
 10
1184.301750593457
 20
640.1953809549591
 30
0
 40
12.00000000000074
 50
171.097561079278
 51
270
  0
ARC
  8
1
 62
7
 10
1217.497564079988
 20
669.5680699934834
 30
0
 40
26.00000000000067
 50
152.636972241036
 51
267.1375947738864
  0
ARC
  8
1
 62
7
 10
1315.516789807523
 20
688.6970899805075
 30
0
 40
49.99999999999997
 50
267.1375947738877
 51
299.2013804914263
  0
ARC
  8
1
 62
7
 10
1344.301750593457
 20
637.1953809549589
 30
0
 40
12.00000000000085
 50
228.5903778907246
 51
156.5941251971378
  0
ARC
  8
1
 62
7
 10
898.5897636314184
 20
560.195380954959
 30
0
 40
72.00000000000019
 50
246.0313387453535
 51
320.002156512432
  0
ARC
  8
1
 62
7
 10
1305.828501196512
 20
690.1953809549589
 30
0
 40
10.47324939694503
 50
320.4298081014134
 51
39.57019189858614
  0
ARC
  8
1
 62
7
 10
898.5897636314184
 20
560.195380954959
 30
0
 40
114.0000000000002
 50
216.2950894388492
 51
323.7049105611507
  0
ARC
  8
1
 62
7
 10
898.5897636314184
 20
560.195380954959
 30
0
 40
114
 50
336.2950894388492
 51
83.70491056115088
  0
ARC
  8
1
 62
7
 10
898.5897636314184
 20
560.195380954959
 30
0
 40
114.0000000000001
 50
96.29508943884923
 51
203.7049105611508
  0
CIRCLE
  8
1
 62
7
 10
933.0897636314181
 20
619.9511338160852
 30
0
 40
6.400000000000205
  0
CIRCLE
  8
1
 62
3
 10
933.0897636314181
 20
619.9511338160852
 30
0
 40
8
  0
CIRCLE
  8
1
 62
7
 10
864.0897636314184
 20
500.4396280938327
 30
0
 40
6.400000000000091
  0
CIRCLE
  8
1
 62
3
 10
864.0897636314184
 20
500.4396280938327
 30
0
 40
8
  0
CIRCLE
  8
1
 62
7
 10
1344.301750593457
 20
637.1953809549589
 30
0
 40
4
  0
CIRCLE
  8
1
 62
7
 10
898.5897636314184
 20
560.195380954959
 30
0
 40
144.0000000000006
  0
CIRCLE
  8
1
 62
7
 10
898.5897636314184
 20
560.195380954959
 30
0
 40
149.0000000000006
  0
CIRCLE
  8
1
 62
7
 10
937.3397636314181
 20
640.1953809549589
 30
0
 40
3
  0
CIRCLE
  8
1
 62
3
 10
937.3397636314181
 20
640.1953809549589
 30
0
 40
2.399999999999977
  0
CIRCLE
  8
1
 62
7
 10
809.9327313286631
 20
553.753865351606
 30
0
 40
3.000000000000049
  0
CIRCLE
  8
1
 62
3
 10
809.9327313286631
 20
553.753865351606
 30
0
 40
2.399999999999596
  0
CIRCLE
  8
1
 62
7
 10
948.4967959341735
 20
486.6368965583118
 30
0
 40
3.000000000000049
  0
CIRCLE
  8
1
 62
3
 10
948.4967959341735
 20
486.6368965583118
 30
0
 40
2.399999999999718
  0
CIRCLE
  8
1
 62
7
 10
898.5897636314184
 20
560.195380954959
 30
0
 40
162.0000000000006
  0
CIRCLE
  8
1
 62
3
 10
898.5897636314184
 20
560.195380954959
 30
0
 40
150.7512014616617
  0
CIRCLE
  8
1
 62
7
 10
1184.301750593457
 20
640.1953809549591
 30
0
 40
5
  0
ARC
  8
1
 62
3
  6
DIVIDE
 10
1404.301750593457
 20
467.1953809549593
 30
0
 40
3
 50
0
 51
90
  0
ARC
  8
1
 62
3
  6
DIVIDE
 10
1352.301750593457
 20
467.1953809549593
 30
0
 40
3
 50
90
 51
180
  0
ARC
  8
1
 62
3
  6
DIVIDE
 10
1368.615459092442
 20
658.1953809549589
 30
0
 40
7.999999999999743
 50
225.0000000000023
 51
270
  0
ARC
  8
1
 62
3
  6
DIVIDE
 10
1352.301750593457
 20
653.1953809549589
 30
0
 40
3
 50
180
 51
270
  0
ARC
  8
1
 62
3
  6
DIVIDE
 10
1404.301750593457
 20
653.1953809549589
 30
0
 40
3
 50
270
 51
0
  0
ARC
  8
1
 62
7
 10
1374.301750593457
 20
653.1953809549589
 30
0
 40
3
 50
270
 51
0
  0
ARC
  8
1
 62
7
 10
1322.301750593457
 20
653.1953809549589
 30
0
 40
3
 50
180
 51
270
  0
ARC
  8
1
 62
7
 10
1338.615459092442
 20
658.1953809549589
 30
0
 40
7.999999999999743
 50
225.0000000000023
 51
270
  0
ARC
  8
1
 62
7
 10
1374.301750593457
 20
467.195380954959
 30
0
 40
3
 50
0
 51
90
  0
ARC
  8
1
 62
7
 10
1322.301750593457
 20
467.195380954959
 30
0
 40
2.999999999999943
 50
90
 51
180
  0
TEXT
  8
1
 62
7
 10
855.951838883225
 20
754.314153846665
 30
0
 40
10
  1
OS 1208MG
 41
0.9
  7
SIMPLEX
 72
1
 11
896.451838883225
 21
754.314153846665
 31
0
  0
ENDSEC
  0
EOF
