  0
SECTION
  2
HEADER
  9
$ACADVER
  1
AC1009
  9
$INSBASE
 10
0
 20
0
  9
$EXTMIN
 10
-1107.123862878653
 20
-131.7729273856089
  9
$EXTMAX
 10
-359.3258195780861
 20
330.3408172594181
  9
$LIMMIN
 10
-1107.123862878653
 20
-131.7729273856089
  9
$LIMMAX
 10
-359.3258195780861
 20
330.3408172594181
  9
$VIEWCTR
 10
10
 20
10
  9
$VIEWSIZE
 40
10
  9
$SNAPMODE
 70
0
  9
$SNAPUNIT
 10
1
 20
1
  9
$SNAPBASE
 10
0
 20
0
  9
$SNAPANG
 50
0
  9
$SNAPSTYLE
 70
0
  9
$SNAPISOPAIR
 70
0
  9
$GRIDMODE
 70
0
  9
$GRIDUNIT
 10
0
 20
0
  9
$ORTHOMODE
 70
0
  9
$REGENMODE
 70
1
  9
$FILLMODE
 70
1
  9
$QTEXTMODE
 70
0
  9
$DRAGMODE
 70
2
  9
$LTSCALE
 40
1
  9
$OSMODE
 70
0
  9
$ATTMODE
 70
1
  9
$TEXTSIZE
 40
3.5
  9
$TRACEWID
 40
0.5
  9
$TEXTSTYLE
  7
STANDARD
  9
$CLAYER
  8
0
  9
$CELTYPE
  6
BYLAYER
  9
$CECOLOR
 62
256
  9
$DIMSCALE
 40
1
  9
$DIMASZ
 40
0.18
  9
$DIMEXO
 40
0.0625
  9
$DIMDLI
 40
0.38
  9
$DIMRND
 40
0
  9
$DIMDLE
 40
0
  9
$DIMEXE
 40
0.18
  9
$DIMTP
 40
0
  9
$DIMTM
 40
0
  9
$DIMTXT
 40
0.18
  9
$DIMCEN
 40
0.09
  9
$DIMTSZ
 40
0
  9
$DIMTOL
 70
0
  9
$DIMLIM
 70
0
  9
$DIMTIH
 70
1
  9
$DIMTOH
 70
1
  9
$DIMSE1
 70
0
  9
$DIMSE2
 70
0
  9
$DIMTAD
 70
0
  9
$DIMZIN
 70
0
  9
$DIMBLK
  1

  9
$DIMASO
 70
1
  9
$DIMSHO
 70
1
  9
$DIMPOST
  1

  9
$DIMAPOST
  1

  9
$DIMALT
 70
0
  9
$DIMALTD
 70
2
  9
$DIMALTF
 40
25.4
  9
$DIMLFAC
 40
1
  9
$DIMTOFL
 70
0
  9
$DIMTVP
 40
0
  9
$DIMTIX
 70
0
  9
$DIMSOXD
 70
0
  9
$DIMSAH
 70
0
  9
$DIMBLK1
  1

  9
$DIMBLK2
  1

  9
$DIMSTYLE
  2
*UNNAMED
  9
$DIMCLRD
 70
0
  9
$DIMCLRE
 70
0
  9
$DIMCLRT
 70
0
  9
$DIMTFAC
 40
1
  9
$DIMGAP
 40
0.09
  9
$LUNITS
 70
2
  9
$LUPREC
 70
4
  9
$AXISMODE
 70
0
  9
$AXISUNIT
 10
0
 20
0
  9
$SKETCHINC
 40
0.1
  9
$FILLETRAD
 40
2
  9
$AUNITS
 70
0
  9
$AUPREC
 70
0
  9
$MENU
  1
ACAD
  9
$ELEVATION
 40
0
  9
$THICKNESS
 40
0
  9
$VIEWDIR
 10
0
 20
0
 30
1
  9
$LIMCHECK
 70
0
  9
$BLIPMODE
 70
1
  9
$CHAMFERA
 40
0
  9
$CHAMFERB
 40
0
  9
$FASTZOOM
 70
1
  9
$SKPOLY
 70
0
  9
$ANGBASE
 50
0
  9
$ANGDIR
 70
0
  9
$PDMODE
 70
0
  9
$PDSIZE
 40
0
  9
$PLINEWID
 40
0
  9
$COORDS
 70
2
  0
ENDSEC
  0
SECTION
  2
TABLES
  0
TABLE
  2
DIMSTYLE
 70
0
  0
ENDTAB
  0
TABLE
  2
LTYPE
 70
9
  0
LTYPE
  2
CONTINUOUS
 70
64
  3
Solid line
 72
65
 73
0
 40
0
  0
LTYPE
  2
BORDER
 70
64
  3
__ __ . __ __ .
 72
65
 73
6
 40
34.43806778357874
 49
9.839447938165353
 49
-4.919723969082677
 49
9.839447938165353
 49
-4.919723969082677
 49
0
 49
-4.919723969082677
  0
LTYPE
  2
CENTER
 70
64
  3
____ _ ____ _
 72
65
 73
4
 40
39.35779175266141
 49
24.59861984541338
 49
-4.919723969082677
 49
4.919723969082677
 49
-4.919723969082677
  0
LTYPE
  2
DASHDOT
 70
64
  3
__ . __ . __ .
 72
65
 73
4
 40
19.67889587633071
 49
9.839447938165353
 49
-4.919723969082677
 49
0
 49
-4.919723969082677
  0
LTYPE
  2
DASHED
 70
64
  3
__ __ __ __ __
 72
65
 73
2
 40
14.75917190724803
 49
9.839447938165353
 49
-4.919723969082677
  0
LTYPE
  2
DIVIDE
 70
64
  3
__ . . __ . . 
 72
65
 73
6
 40
24.59861984541338
 49
9.839447938165353
 49
-4.919723969082677
 49
0
 49
-4.919723969082677
 49
0
 49
-4.919723969082677
  0
LTYPE
  2
DOT
 70
64
  3
..............
 72
65
 73
4
 40
9.839447938165353
 49
0
 49
-4.919723969082677
 49
0
 49
-4.919723969082677
  0
LTYPE
  2
HIDDEN
 70
64
  3
_ _ _ _ _ _ _
 72
65
 73
2
 40
7.379585953624015
 49
4.919723969082677
 49
-2.459861984541338
  0
LTYPE
  2
PHANTOM
 70
64
  3
_____ _ _ _____ _ _ 
 72
65
 73
6
 40
49.19723969082676
 49
24.59861984541338
 49
-4.919723969082677
 49
4.919723969082677
 49
-4.919723969082677
 49
4.919723969082677
 49
-4.919723969082677
  0
ENDTAB
  0
TABLE
  2
LAYER
 70
3
  0
LAYER
  2
1
 70
0
 62
7
  6
CONTINUOUS
  0
LAYER
  2
0
 70
0
 62
7
  6
CONTINUOUS
  0
ENDTAB
  0
TABLE
  2
STYLE
 70
4
  0
STYLE
  2
STANDARD
 70
0
 40
0
 41
1
 50
0
 71
0
 42
3.5
  3
txt
  4

  0
STYLE
  2
SIMPLEX
 70
0
 40
0
 41
1
 50
0
 71
0
 42
3.5
  3
simplex
  4

  0
STYLE
  2
COMPLEX
 70
0
 40
0
 41
1
 50
0
 71
0
 42
3.5
  3
complex
  4

  0
STYLE
  2
ITALIC
 70
0
 40
0
 41
1
 50
0
 71
0
 42
3.5
  3
italic
  4

  0
ENDTAB
  0
TABLE
  2
VIEW
 70
0
  0
ENDTAB
  0
ENDSEC
  0
SECTION
  2
BLOCKS
  0
ENDSEC
  0
SECTION
  2
ENTITIES
  0
LINE
  8
1
 62
3
  6
DIVIDE
 10
-415.8258195780861
 20
-69.77292738560887
 30
0
 11
-416.6258195780861
 21
-68.97292738560888
 31
0
  0
LINE
  8
1
 62
3
  6
DIVIDE
 10
-416.6258195780861
 20
-68.97292738560888
 30
0
 11
-420.1258195780861
 21
-68.97292738560888
 31
0
  0
LINE
  8
1
 62
7
 10
-418.5258195780862
 20
-72.47292738560888
 30
0
 11
-418.5258195780862
 21
-68.97292738560888
 31
0
  0
LINE
  8
1
 62
7
 10
-419.3258195780861
 20
-73.2729273856089
 30
0
 11
-418.5258195780862
 21
-72.47292738560888
 31
0
  0
LINE
  8
1
 62
3
  6
DIVIDE
 10
-420.1258195780861
 20
-72.47292738560888
 30
0
 11
-419.3258195780861
 21
-73.2729273856089
 31
0
  0
LINE
  8
1
 62
3
  6
DASHDOT
 10
-401.8258195780861
 20
-42.55664503702379
 30
0
 11
-401.8258195780861
 21
-97.55664503702379
 31
0
  0
LINE
  8
1
 62
3
  6
DASHDOT
 10
-436.8258195780861
 20
-42.55664503702379
 30
0
 11
-436.8258195780861
 21
-97.55664503702379
 31
0
  0
LINE
  8
1
 62
3
  6
DIVIDE
 10
-436.8258195780861
 20
-49.77292738560887
 30
0
 11
-436.8258195780861
 21
-87.27292738560887
 31
0
  0
LINE
  8
1
 62
3
  6
DIVIDE
 10
-431.8258195780861
 20
-92.27292738560887
 30
0
 11
-436.8258195780861
 21
-87.27292738560887
 31
0
  0
LINE
  8
1
 62
3
  6
DIVIDE
 10
-431.8258195780861
 20
-92.27292738560887
 30
0
 11
-421.3258195780861
 21
-92.27292738560887
 31
0
  0
LINE
  8
1
 62
3
  6
DIVIDE
 10
-419.3258195780861
 20
-90.2729273856089
 30
0
 11
-421.3258195780861
 21
-92.27292738560887
 31
0
  0
LINE
  8
1
 62
3
  6
DIVIDE
 10
-419.3258195780861
 20
-71.39807609892181
 30
0
 11
-419.3258195780861
 21
-90.2729273856089
 31
0
  0
LINE
  8
1
 62
3
  6
DIVIDE
 10
-420.1258195780861
 20
-68.97292738560888
 30
0
 11
-420.1258195780861
 21
-72.47292738560888
 31
0
  0
LINE
  8
1
 62
3
  6
DIVIDE
 10
-415.8258195780861
 20
-69.77292738560887
 30
0
 11
-387.8258195780862
 21
-69.77292738560887
 31
0
  0
LINE
  8
1
 62
3
  6
DIVIDE
 10
-387.0258195780862
 20
-68.97292738560888
 30
0
 11
-387.8258195780862
 21
-69.77292738560887
 31
0
  0
LINE
  8
1
 62
3
  6
DIVIDE
 10
-383.5258195780862
 20
-68.97292738560888
 30
0
 11
-387.0258195780862
 21
-68.97292738560888
 31
0
  0
LINE
  8
1
 62
3
  6
DIVIDE
 10
-383.5258195780862
 20
-72.47292738560888
 30
0
 11
-383.5258195780862
 21
-68.97292738560888
 31
0
  0
LINE
  8
1
 62
3
  6
DIVIDE
 10
-384.3258195780861
 20
-73.27292738560887
 30
0
 11
-383.5258195780862
 21
-72.47292738560888
 31
0
  0
LINE
  8
1
 62
3
  6
DIVIDE
 10
-384.3258195780861
 20
-71.39807609892178
 30
0
 11
-384.3258195780861
 21
-90.27292738560887
 31
0
  0
LINE
  8
1
 62
3
  6
DIVIDE
 10
-382.3258195780861
 20
-92.27292738560887
 30
0
 11
-384.3258195780861
 21
-90.27292738560887
 31
0
  0
LINE
  8
1
 62
3
  6
DIVIDE
 10
-382.3258195780861
 20
-92.27292738560887
 30
0
 11
-371.8258195780861
 21
-92.27292738560887
 31
0
  0
LINE
  8
1
 62
3
  6
DIVIDE
 10
-366.8258195780861
 20
-87.27292738560887
 30
0
 11
-371.8258195780861
 21
-92.27292738560887
 31
0
  0
LINE
  8
1
 62
3
  6
DIVIDE
 10
-366.8258195780861
 20
-49.77292738560887
 30
0
 11
-366.8258195780861
 21
-87.27292738560887
 31
0
  0
LINE
  8
1
 62
3
  6
DIVIDE
 10
-436.8258195780861
 20
180.2270726143911
 30
0
 11
-416.8258195780861
 21
160.2270726143911
 31
0
  0
LINE
  8
1
 62
3
  6
DIVIDE
 10
-436.8258195780861
 20
197.7270726143911
 30
0
 11
-436.8258195780861
 21
160.2270726143911
 31
0
  0
LINE
  8
1
 62
3
  6
DIVIDE
 10
-436.8258195780861
 20
197.7270726143911
 30
0
 11
-431.8258195780861
 21
202.7270726143911
 31
0
  0
LINE
  8
1
 62
7
 10
-421.3258195780861
 20
202.7270726143911
 30
0
 11
-419.3258195780861
 21
200.7270726143911
 31
0
  0
LINE
  8
1
 62
3
  6
DIVIDE
 10
-421.3258195780861
 20
202.7270726143911
 30
0
 11
-431.8258195780861
 21
202.7270726143911
 31
0
  0
LINE
  8
1
 62
3
  6
DIVIDE
 10
-416.6258195780861
 20
179.4270726143911
 30
0
 11
-415.8258195780861
 21
180.2270726143911
 31
0
  0
LINE
  8
1
 62
3
  6
DIVIDE
 10
-420.1258195780861
 20
179.4270726143911
 30
0
 11
-416.6258195780861
 21
179.4270726143911
 31
0
  0
LINE
  8
1
 62
3
  6
DIVIDE
 10
-420.1258195780861
 20
182.9270726143911
 30
0
 11
-420.1258195780861
 21
179.4270726143911
 31
0
  0
LINE
  8
1
 62
3
  6
DIVIDE
 10
-419.3258195780861
 20
183.7270726143911
 30
0
 11
-420.1258195780861
 21
182.9270726143911
 31
0
  0
LINE
  8
1
 62
3
  6
DIVIDE
 10
-387.8258195780862
 20
180.2270726143911
 30
0
 11
-415.8258195780861
 21
180.2270726143911
 31
0
  0
LINE
  8
1
 62
3
  6
DIVIDE
 10
-387.8258195780862
 20
180.2270726143911
 30
0
 11
-387.0258195780862
 21
179.4270726143911
 31
0
  0
LINE
  8
1
 62
3
  6
DIVIDE
 10
-387.0258195780862
 20
179.4270726143911
 30
0
 11
-383.5258195780862
 21
179.4270726143911
 31
0
  0
LINE
  8
1
 62
3
  6
DIVIDE
 10
-383.5258195780862
 20
179.4270726143911
 30
0
 11
-383.5258195780862
 21
182.9270726143911
 31
0
  0
LINE
  8
1
 62
3
  6
DIVIDE
 10
-383.5258195780862
 20
182.9270726143911
 30
0
 11
-384.3258195780861
 21
183.7270726143911
 31
0
  0
LINE
  8
1
 62
3
  6
DIVIDE
 10
-384.3258195780861
 20
200.7270726143911
 30
0
 11
-384.3258195780861
 21
181.852221327704
 31
0
  0
LINE
  8
1
 62
3
  6
DIVIDE
 10
-384.3258195780861
 20
200.7270726143911
 30
0
 11
-382.3258195780861
 21
202.7270726143911
 31
0
  0
LINE
  8
1
 62
3
  6
DIVIDE
 10
-371.8258195780861
 20
202.7270726143911
 30
0
 11
-382.3258195780861
 21
202.7270726143911
 31
0
  0
LINE
  8
1
 62
3
  6
DIVIDE
 10
-371.8258195780861
 20
202.7270726143911
 30
0
 11
-366.8258195780861
 21
197.7270726143911
 31
0
  0
LINE
  8
1
 62
3
  6
DIVIDE
 10
-366.8258195780861
 20
197.7270726143911
 30
0
 11
-366.8258195780861
 21
160.2270726143911
 31
0
  0
LINE
  8
1
 62
3
  6
DASHDOT
 10
-401.8258195780861
 20
208.010790265806
 30
0
 11
-401.8258195780861
 21
153.010790265806
 31
0
  0
LINE
  8
1
 62
3
  6
DASHDOT
 10
-436.8258195780861
 20
208.010790265806
 30
0
 11
-436.8258195780861
 21
153.010790265806
 31
0
  0
LINE
  8
1
 62
7
 10
-511.8258195780861
 20
115.2270726143911
 30
0
 11
-361.8258195780861
 21
115.2270726143911
 31
0
  0
LINE
  8
1
 62
7
 10
-621.825819578086
 20
-4.772927385608909
 30
0
 11
-661.825819578086
 21
-4.772927385608909
 31
0
  0
LINE
  8
1
 62
7
 10
-615.825819578086
 20
-64.77292738560891
 30
0
 11
-657.825819578086
 21
-64.77292738560891
 31
0
  0
LINE
  8
1
 62
7
 10
-471.8258195780861
 20
-87.2729273856089
 30
0
 11
-471.8258195780861
 21
-49.77292738560891
 31
0
  0
LINE
  8
1
 62
7
 10
-401.8258195780861
 20
-87.2729273856089
 30
0
 11
-401.8258195780861
 21
-49.77292738560891
 31
0
  0
LINE
  8
1
 62
7
 10
-466.8258195780861
 20
-92.2729273856089
 30
0
 11
-471.8258195780861
 21
-87.2729273856089
 31
0
  0
LINE
  8
1
 62
7
 10
-466.8258195780861
 20
-92.2729273856089
 30
0
 11
-456.3258195780861
 21
-92.2729273856089
 31
0
  0
LINE
  8
1
 62
7
 10
-422.0258195780862
 20
-68.97292738560888
 30
0
 11
-422.8258195780862
 21
-69.7729273856089
 31
0
  0
LINE
  8
1
 62
7
 10
-418.5258195780862
 20
-68.97292738560888
 30
0
 11
-422.0258195780862
 21
-68.97292738560888
 31
0
  0
LINE
  8
1
 62
7
 10
-454.3258195780861
 20
-90.2729273856089
 30
0
 11
-454.3258195780861
 21
-71.39807609892181
 31
0
  0
LINE
  8
1
 62
7
 10
-450.8258195780861
 20
-69.7729273856089
 30
0
 11
-451.6258195780861
 21
-68.97292738560888
 31
0
  0
LINE
  8
1
 62
7
 10
-451.6258195780861
 20
-68.97292738560888
 30
0
 11
-455.1258195780861
 21
-68.97292738560888
 31
0
  0
LINE
  8
1
 62
7
 10
-455.1258195780861
 20
-68.97292738560888
 30
0
 11
-455.1258195780861
 21
-72.47292738560888
 31
0
  0
LINE
  8
1
 62
7
 10
-455.1258195780861
 20
-72.47292738560888
 30
0
 11
-454.3258195780861
 21
-73.2729273856089
 31
0
  0
LINE
  8
1
 62
7
 10
-417.3258195780861
 20
-92.2729273856089
 30
0
 11
-419.3258195780861
 21
-90.2729273856089
 31
0
  0
LINE
  8
1
 62
7
 10
-454.3258195780861
 20
-90.2729273856089
 30
0
 11
-456.3258195780861
 21
-92.2729273856089
 31
0
  0
LINE
  8
1
 62
7
 10
-401.8258195780861
 20
-87.2729273856089
 30
0
 11
-406.8258195780861
 21
-92.2729273856089
 31
0
  0
LINE
  8
1
 62
7
 10
-450.8258195780861
 20
-69.7729273856089
 30
0
 11
-422.8258195780862
 21
-69.7729273856089
 31
0
  0
LINE
  8
1
 62
7
 10
-417.3258195780861
 20
-92.2729273856089
 30
0
 11
-406.8258195780861
 21
-92.2729273856089
 31
0
  0
LINE
  8
1
 62
7
 10
-422.8258195780862
 20
180.2270726143911
 30
0
 11
-422.0258195780862
 21
179.4270726143911
 31
0
  0
LINE
  8
1
 62
7
 10
-422.0258195780862
 20
179.4270726143911
 30
0
 11
-418.5258195780862
 21
179.4270726143911
 31
0
  0
LINE
  8
1
 62
7
 10
-418.5258195780862
 20
179.4270726143911
 30
0
 11
-418.5258195780862
 21
182.9270726143911
 31
0
  0
LINE
  8
1
 62
7
 10
-418.5258195780862
 20
182.9270726143911
 30
0
 11
-419.3258195780861
 21
183.7270726143911
 31
0
  0
LINE
  8
1
 62
7
 10
-454.3258195780861
 20
181.852221327704
 30
0
 11
-454.3258195780861
 21
200.7270726143911
 31
0
  0
LINE
  8
1
 62
7
 10
-451.6258195780861
 20
179.4270726143911
 30
0
 11
-450.8258195780861
 21
180.2270726143911
 31
0
  0
LINE
  8
1
 62
7
 10
-455.1258195780861
 20
179.4270726143911
 30
0
 11
-451.6258195780861
 21
179.4270726143911
 31
0
  0
LINE
  8
1
 62
7
 10
-455.1258195780861
 20
182.9270726143911
 30
0
 11
-455.1258195780861
 21
179.4270726143911
 31
0
  0
LINE
  8
1
 62
7
 10
-454.3258195780861
 20
183.7270726143911
 30
0
 11
-455.1258195780861
 21
182.9270726143911
 31
0
  0
LINE
  8
1
 62
7
 10
-471.8258195780861
 20
180.2270726143911
 30
0
 11
-451.8258195780861
 21
160.2270726143911
 31
0
  0
LINE
  8
1
 62
7
 10
-419.3258195780861
 20
200.7270726143911
 30
0
 11
-417.3258195780861
 21
202.7270726143911
 31
0
  0
LINE
  8
1
 62
7
 10
-456.3258195780861
 20
202.7270726143911
 30
0
 11
-454.3258195780861
 21
200.7270726143911
 31
0
  0
LINE
  8
1
 62
7
 10
-471.8258195780861
 20
197.7270726143911
 30
0
 11
-466.8258195780861
 21
202.7270726143911
 31
0
  0
LINE
  8
1
 62
7
 10
-406.8258195780861
 20
202.7270726143911
 30
0
 11
-401.8258195780861
 21
197.7270726143911
 31
0
  0
LINE
  8
1
 62
7
 10
-471.8258195780861
 20
197.7270726143911
 30
0
 11
-471.8258195780861
 21
160.2270726143911
 31
0
  0
LINE
  8
1
 62
7
 10
-456.3258195780861
 20
202.7270726143911
 30
0
 11
-466.8258195780861
 21
202.7270726143911
 31
0
  0
LINE
  8
1
 62
7
 10
-422.8258195780862
 20
180.2270726143911
 30
0
 11
-450.8258195780861
 21
180.2270726143911
 31
0
  0
LINE
  8
1
 62
3
  6
DIVIDE
 10
-419.3258195780861
 20
200.7270726143911
 30
0
 11
-419.3258195780861
 21
181.852221327704
 31
0
  0
LINE
  8
1
 62
7
 10
-406.8258195780861
 20
202.7270726143911
 30
0
 11
-417.3258195780861
 21
202.7270726143911
 31
0
  0
LINE
  8
1
 62
7
 10
-401.8258195780861
 20
197.7270726143911
 30
0
 11
-401.8258195780861
 21
160.2270726143911
 31
0
  0
LINE
  8
1
 62
7
 10
-505.5061126005037
 20
204.2270726143911
 30
0
 11
-505.5259613047916
 21
203.3140322171456
 31
0
  0
LINE
  8
1
 62
7
 10
-491.9063961208857
 20
204.2270726143911
 30
0
 11
-491.9256778513803
 21
203.3401130116367
 31
0
  0
LINE
  8
1
 62
7
 10
-493.3166192189679
 20
204.2270726143911
 30
0
 11
-493.4452243342683
 21
203.2488636271456
 31
0
  0
LINE
  8
1
 62
7
 10
-494.5269454030426
 20
204.2270726143911
 30
0
 11
-494.6349862504751
 21
203.4052816016366
 31
0
  0
LINE
  8
1
 62
7
 10
-496.9451906475393
 20
204.2270726143911
 30
0
 11
-497.0737957628397
 21
203.2488636271456
 31
0
  0
LINE
  8
1
 62
7
 10
-498.1555168316141
 20
204.2270726143911
 30
0
 11
-498.2635576790466
 21
203.4052816016366
 31
0
  0
LINE
  8
1
 62
7
 10
-500.5737620761108
 20
204.2270726143911
 30
0
 11
-500.7023671914112
 21
203.2488636271457
 31
0
  0
LINE
  8
1
 62
7
 10
-501.7840882601855
 20
204.2270726143911
 30
0
 11
-501.892129107618
 21
203.4052816016366
 31
0
  0
LINE
  8
1
 62
7
 10
-504.2023335046822
 20
204.2270726143911
 30
0
 11
-504.3309386199826
 21
203.2488636271456
 31
0
  0
LINE
  8
1
 62
7
 10
-505.4126596887569
 20
204.2270726143911
 30
0
 11
-505.5207005361895
 21
203.4052816016366
 31
0
  0
LINE
  8
1
 62
7
 10
-491.6256778513803
 20
217.1401130116366
 30
0
 11
-491.6455265556683
 21
216.2270726143911
 31
0
  0
LINE
  8
1
 62
7
 10
-491.6309386199826
 20
217.0488636271456
 30
0
 11
-491.7389794674151
 21
216.2270726143911
 31
0
  0
LINE
  8
1
 62
7
 10
-492.8207005361894
 20
217.2052816016366
 30
0
 11
-492.9493056514898
 21
216.2270726143911
 31
0
  0
LINE
  8
1
 62
7
 10
-495.259510048554
 20
217.0488636271456
 30
0
 11
-495.3675508959865
 21
216.2270726143911
 31
0
  0
LINE
  8
1
 62
7
 10
-496.4492719647609
 20
217.2052816016366
 30
0
 11
-496.5778770800613
 21
216.2270726143911
 31
0
  0
LINE
  8
1
 62
7
 10
-498.8880814771255
 20
217.0488636271456
 30
0
 11
-498.996122324558
 21
216.2270726143911
 31
0
  0
LINE
  8
1
 62
7
 10
-500.0778433933323
 20
217.2052816016366
 30
0
 11
-500.2064485086327
 21
216.2270726143911
 31
0
  0
LINE
  8
1
 62
7
 10
-502.5166529056969
 20
217.0488636271456
 30
0
 11
-502.6246937531294
 21
216.2270726143911
 31
0
  0
LINE
  8
1
 62
7
 10
-503.7064148219038
 20
217.2052816016366
 30
0
 11
-503.8350199372042
 21
216.2270726143911
 31
0
  0
LINE
  8
1
 62
7
 10
-505.2259613047916
 20
217.1140322171455
 30
0
 11
-505.2452430352862
 21
216.2270726143911
 31
0
  0
LINE
  8
1
 62
7
 10
-495.325819578086
 20
-97.30882577047113
 30
0
 11
-489.325819578086
 21
-100.7729273856089
 31
0
  0
LINE
  8
1
 62
7
 10
-501.325819578086
 20
-100.7729273856089
 30
0
 11
-495.325819578086
 21
-97.30882577047113
 31
0
  0
LINE
  8
1
 62
7
 10
-489.325819578086
 20
-100.7729273856089
 30
0
 11
-489.325819578086
 21
-118.7729273856089
 31
0
  0
LINE
  8
1
 62
7
 10
-501.325819578086
 20
-100.7729273856089
 30
0
 11
-489.325819578086
 21
-100.7729273856089
 31
0
  0
LINE
  8
1
 62
7
 10
-501.325819578086
 20
-118.7729273856089
 30
0
 11
-501.325819578086
 21
-100.7729273856089
 31
0
  0
LINE
  8
1
 62
7
 10
-487.325819578086
 20
229.2270726143911
 30
0
 11
-517.325819578086
 21
229.2270726143911
 31
0
  0
LINE
  8
1
 62
7
 10
-484.725819578086
 20
201.2270726143911
 30
0
 11
-487.325819578086
 21
201.2270726143911
 31
0
  0
LINE
  8
1
 62
7
 10
-484.725819578086
 20
243.2270726143911
 30
0
 11
-487.325819578086
 21
243.2270726143911
 31
0
  0
LINE
  8
1
 62
7
 10
-487.325819578086
 20
177.0138297819748
 30
0
 11
-487.325819578086
 21
243.2270726143911
 31
0
  0
LINE
  8
1
 62
7
 10
-484.725819578086
 20
201.2270726143911
 30
0
 11
-484.725819578086
 21
243.2270726143911
 31
0
  0
LINE
  8
1
 62
7
 10
-487.325819578086
 20
216.2270726143911
 30
0
 11
-505.825819578086
 21
216.2270726143911
 31
0
  0
LINE
  8
1
 62
7
 10
-516.825819578086
 20
201.2270726143911
 30
0
 11
-516.825819578086
 21
219.2270726143911
 31
0
  0
LINE
  8
1
 62
7
 10
-505.825819578086
 20
219.2270726143911
 30
0
 11
-505.825819578086
 21
201.2270726143911
 31
0
  0
LINE
  8
1
 62
7
 10
-491.325819578086
 20
219.2270726143911
 30
0
 11
-516.825819578086
 21
219.2270726143911
 31
0
  0
LINE
  8
1
 62
7
 10
-510.325819578086
 20
201.2270726143911
 30
0
 11
-510.325819578086
 21
164.2270726143911
 31
0
  0
LINE
  8
1
 62
7
 10
-487.325819578086
 20
-71.77292738560888
 30
0
 11
-487.325819578086
 21
-66.5596845531926
 31
0
  0
LINE
  8
1
 62
7
 10
-507.8258195780861
 20
-64.77292738560891
 30
0
 11
-507.8258195780861
 21
-68.77292738560888
 31
0
  0
LINE
  8
1
 62
3
 10
-471.8258195780861
 20
-66.5596845531926
 30
0
 11
-487.325819578086
 21
-66.5596845531926
 31
0
  0
LINE
  8
1
 62
3
 10
-510.325819578086
 20
-68.77292738560888
 30
0
 11
-507.8258195780861
 21
-68.77292738560888
 31
0
  0
LINE
  8
1
 62
7
 10
-485.325819578086
 20
-118.7729273856089
 30
0
 11
-480.325819578086
 21
-113.7729273856089
 31
0
  0
LINE
  8
1
 62
7
 10
-487.325819578086
 20
-71.77292738560888
 30
0
 11
-480.325819578086
 21
-71.77292738560888
 31
0
  0
LINE
  8
1
 62
7
 10
-480.325819578086
 20
-68.77292738560888
 30
0
 11
-480.325819578086
 21
-113.7729273856089
 31
0
  0
LINE
  8
1
 62
7
 10
-485.325819578086
 20
-118.7729273856089
 30
0
 11
-517.325819578086
 21
-118.7729273856089
 31
0
  0
LINE
  8
1
 62
7
 10
-487.325819578086
 20
-66.5596845531926
 30
0
 11
-510.325819578086
 21
-66.5596845531926
 31
0
  0
LINE
  8
1
 62
7
 10
-471.8258195780861
 20
-67.27292738560891
 30
0
 11
-472.6918449818704
 21
-68.77292738560888
 31
0
  0
LINE
  8
1
 62
7
 10
-472.6918449818704
 20
-68.77292738560888
 30
0
 11
-507.8258195780861
 21
-68.77292738560888
 31
0
  0
LINE
  8
1
 62
7
 10
-516.825819578086
 20
201.2270726143911
 30
0
 11
-491.325819578086
 21
201.2270726143911
 31
0
  0
LINE
  8
1
 62
7
 10
-491.325819578086
 20
204.2270726143911
 30
0
 11
-491.325819578086
 21
201.2270726143911
 31
0
  0
LINE
  8
1
 62
7
 10
-505.825819578086
 20
204.2270726143911
 30
0
 11
-487.325819578086
 21
204.2270726143911
 31
0
  0
LINE
  8
1
 62
7
 10
-491.325819578086
 20
219.2270726143911
 30
0
 11
-491.325819578086
 21
216.2270726143911
 31
0
  0
LINE
  8
1
 62
3
 10
-487.325819578086
 20
177.0138297819748
 30
0
 11
-471.8258195780861
 21
177.0138297819748
 31
0
  0
LINE
  8
1
 62
3
 10
-507.8258195780861
 20
179.2270726143911
 30
0
 11
-510.325819578086
 21
179.2270726143911
 31
0
  0
LINE
  8
1
 62
7
 10
-480.325819578086
 20
224.2270726143911
 30
0
 11
-484.725819578086
 21
228.6270726143911
 31
0
  0
LINE
  8
1
 62
7
 10
-480.325819578086
 20
182.2270726143911
 30
0
 11
-487.325819578086
 21
182.2270726143911
 31
0
  0
LINE
  8
1
 62
7
 10
-480.325819578086
 20
224.2270726143911
 30
0
 11
-480.325819578086
 21
179.2270726143911
 31
0
  0
LINE
  8
1
 62
7
 10
-626.825819578086
 20
-118.7729273856089
 30
0
 11
-611.825819578086
 21
-118.7729273856089
 31
0
  0
LINE
  8
1
 62
7
 10
-626.825819578086
 20
-118.7729273856089
 30
0
 11
-631.825819578086
 21
-113.7729273856089
 31
0
  0
LINE
  8
1
 62
7
 10
-631.825819578086
 20
-64.77292738560891
 30
0
 11
-631.825819578086
 21
-113.7729273856089
 31
0
  0
LINE
  8
1
 62
7
 10
-631.825819578086
 20
-82.77292738560887
 30
0
 11
-615.825819578086
 21
-66.77292738560887
 31
0
  0
LINE
  8
1
 62
7
 10
-510.325819578086
 20
-109.0229273856089
 30
0
 11
-517.325819578086
 21
-109.0229273856089
 31
0
  0
LINE
  8
1
 62
7
 10
-517.325819578086
 20
-90.52292738560887
 30
0
 11
-510.325819578086
 21
-90.52292738560887
 31
0
  0
LINE
  8
1
 62
7
 10
-510.325819578086
 20
-53.77292738560887
 30
0
 11
-510.325819578086
 21
-118.7729273856089
 31
0
  0
LINE
  8
1
 62
3
 10
-517.325819578086
 20
-131.7729273856089
 30
0
 11
-611.825819578086
 21
-53.77292738560887
 31
0
  0
LINE
  8
1
 62
3
 10
-517.325819578086
 20
-53.77292738560887
 30
0
 11
-611.825819578086
 21
-131.7729273856089
 31
0
  0
LINE
  8
1
 62
7
 10
-615.825819578086
 20
-53.77292738560887
 30
0
 11
-510.325819578086
 21
-53.77292738560887
 31
0
  0
LINE
  8
1
 62
7
 10
-517.325819578086
 20
-53.77292738560887
 30
0
 11
-517.325819578086
 21
-131.7729273856089
 31
0
  0
LINE
  8
1
 62
7
 10
-517.325819578086
 20
-131.7729273856089
 30
0
 11
-611.825819578086
 21
-131.7729273856089
 31
0
  0
LINE
  8
1
 62
7
 10
-611.825819578086
 20
-131.7729273856089
 30
0
 11
-611.825819578086
 21
-118.7729273856089
 31
0
  0
LINE
  8
1
 62
7
 10
-615.825819578086
 20
-66.77292738560887
 30
0
 11
-615.825819578086
 21
-53.77292738560887
 31
0
  0
LINE
  8
1
 62
7
 10
-611.825819578086
 20
-53.77292738560887
 30
0
 11
-611.825819578086
 21
-118.7729273856089
 31
0
  0
LINE
  8
1
 62
7
 10
-517.325819578086
 20
219.4770726143911
 30
0
 11
-510.325819578086
 21
219.4770726143911
 31
0
  0
LINE
  8
1
 62
7
 10
-510.325819578086
 20
200.9770726143911
 30
0
 11
-517.325819578086
 21
200.9770726143911
 31
0
  0
LINE
  8
1
 62
7
 10
-510.325819578086
 20
175.2270726143911
 30
0
 11
-507.8258195780861
 21
175.2270726143911
 31
0
  0
LINE
  8
1
 62
7
 10
-510.325819578086
 20
229.2270726143911
 30
0
 11
-510.325819578086
 21
219.2270726143911
 31
0
  0
LINE
  8
1
 62
3
 10
-611.825819578086
 20
164.2270726143911
 30
0
 11
-517.325819578086
 21
242.2270726143911
 31
0
  0
LINE
  8
1
 62
3
 10
-611.825819578086
 20
242.2270726143911
 30
0
 11
-517.325819578086
 21
164.2270726143911
 31
0
  0
LINE
  8
1
 62
7
 10
-510.325819578086
 20
164.2270726143911
 30
0
 11
-615.825819578086
 21
164.2270726143911
 31
0
  0
LINE
  8
1
 62
7
 10
-517.325819578086
 20
242.2270726143911
 30
0
 11
-517.325819578086
 21
164.2270726143911
 31
0
  0
LINE
  8
1
 62
7
 10
-611.825819578086
 20
242.2270726143911
 30
0
 11
-517.325819578086
 21
242.2270726143911
 31
0
  0
LINE
  8
1
 62
7
 10
-611.825819578086
 20
229.2270726143911
 30
0
 11
-611.825819578086
 21
242.2270726143911
 31
0
  0
LINE
  8
1
 62
7
 10
-615.825819578086
 20
177.2270726143911
 30
0
 11
-631.825819578086
 21
193.2270726143911
 31
0
  0
LINE
  8
1
 62
7
 10
-615.825819578086
 20
164.2270726143911
 30
0
 11
-615.825819578086
 21
177.2270726143911
 31
0
  0
LINE
  8
1
 62
7
 10
-631.825819578086
 20
224.2270726143911
 30
0
 11
-626.825819578086
 21
229.2270726143911
 31
0
  0
LINE
  8
1
 62
7
 10
-631.825819578086
 20
224.2270726143911
 30
0
 11
-631.825819578086
 21
175.2270726143911
 31
0
  0
LINE
  8
1
 62
7
 10
-611.825819578086
 20
229.2270726143911
 30
0
 11
-626.825819578086
 21
229.2270726143911
 31
0
  0
LINE
  8
1
 62
7
 10
-611.825819578086
 20
229.2270726143911
 30
0
 11
-611.825819578086
 21
164.2270726143911
 31
0
  0
LINE
  8
1
 62
3
  6
DASHDOT
 10
-975.2716521083096
 20
82.44786141782896
 30
0
 11
-1015.654606487372
 21
105.7629709992533
 31
0
  0
LINE
  8
1
 62
3
  6
DASHDOT
 10
-868.9760736489964
 20
89.37606464810449
 30
0
 11
-828.5931192699335
 21
112.6911742295288
 31
0
  0
LINE
  8
1
 62
7
 10
-474.9249288570442
 20
149.3363295782463
 30
0
 11
-607.8701511803394
 21
157.8083290400249
 31
0
  0
LINE
  8
1
 62
7
 10
-441.8258195780859
 20
137.2270726143911
 30
0
 11
-645.825819578086
 21
137.2270726143911
 31
0
  0
LINE
  8
1
 62
7
 10
-649.7063015193195
 20
206.6889346090487
 30
0
 11
-658.65318238209
 21
152.3386510511187
 31
0
  0
LINE
  8
1
 62
7
 10
-935.123862878653
 20
-63.83173638351551
 30
0
 11
-935.123862878653
 21
-52.77292738560891
 31
0
  0
LINE
  8
1
 62
7
 10
-1015.731816015159
 20
127.746858170111
 30
0
 11
-1006.154606487372
 21
122.2174536711577
 31
0
  0
LINE
  8
1
 62
7
 10
-934.8738628786532
 20
-53.77292738560903
 30
0
 11
-934.8738628786532
 21
-64.36677129071968
 31
0
  0
LINE
  8
1
 62
7
 10
-1007.145631891157
 20
122.5009473202116
 30
0
 11
-1016.32016983671
 21
127.7978692727669
 31
0
  0
LINE
  8
1
 62
7
 10
-905.3738628786532
 20
-53.77292738560891
 30
0
 11
-934.8738628786532
 21
-53.77292738560903
 31
0
  0
LINE
  8
1
 62
7
 10
-1021.895631891157
 20
96.9531979085707
 30
0
 11
-1007.145631891157
 21
122.5009473202116
 31
0
  0
LINE
  8
1
 62
7
 10
-905.3738628786532
 20
-53.77292738560891
 30
0
 11
-905.3738628786532
 21
-64.36677129071978
 31
0
  0
LINE
  8
1
 62
7
 10
-1021.895631891157
 20
96.9531979085707
 30
0
 11
-1031.07016983671
 21
102.250119861126
 31
0
  0
LINE
  8
1
 62
7
 10
-818.3520938661492
 20
96.95319790857064
 30
0
 11
-809.1775559205962
 21
102.2501198611261
 31
0
  0
LINE
  8
1
 62
7
 10
-833.1020938661492
 20
122.5009473202116
 30
0
 11
-823.9275559205962
 21
127.797869272767
 31
0
  0
LINE
  8
1
 62
7
 10
-809.5159097421466
 20
101.7660960565779
 30
0
 11
-819.0931192699337
 21
96.23669155762457
 31
0
  0
LINE
  8
1
 62
7
 10
-833.1020938661492
 20
122.5009473202116
 30
0
 11
-818.3520938661492
 21
96.95319790857064
 31
0
  0
LINE
  8
1
 62
3
  6
DIVIDE
 10
-367.8258195780861
 20
170.2270726143911
 30
0
 11
-467.8258195780861
 21
170.2270726143911
 31
0
  0
LINE
  8
1
 62
7
 10
-511.8258195780861
 20
116.7270726143911
 30
0
 11
-621.825819578086
 21
116.7270726143911
 31
0
  0
LINE
  8
1
 62
7
 10
-621.825819578086
 20
116.7270726143911
 30
0
 11
-621.825819578086
 21
55.22707261439111
 31
0
  0
LINE
  8
1
 62
7
 10
-511.8258195780861
 20
55.22707261439111
 30
0
 11
-511.8258195780861
 21
116.7270726143911
 31
0
  0
LINE
  8
1
 62
7
 10
-661.825819578086
 20
115.2270726143911
 30
0
 11
-621.825819578086
 21
115.2270726143911
 31
0
  0
LINE
  8
1
 62
3
  6
DIVIDE
 10
-467.8258195780861
 20
150.2270726143911
 30
0
 11
-467.8258195780861
 21
170.2270726143911
 31
0
  0
LINE
  8
1
 62
3
  6
DIVIDE
 10
-367.8258195780861
 20
150.2270726143911
 30
0
 11
-467.8258195780861
 21
150.2270726143911
 31
0
  0
LINE
  8
1
 62
3
  6
DIVIDE
 10
-367.8258195780861
 20
170.2270726143911
 30
0
 11
-367.8258195780861
 21
150.2270726143911
 31
0
  0
LINE
  8
1
 62
7
 10
-511.8258195780861
 20
-6.272927385608895
 30
0
 11
-511.8258195780861
 21
55.22707261439111
 31
0
  0
LINE
  8
1
 62
7
 10
-621.825819578086
 20
-6.272927385608893
 30
0
 11
-511.8258195780861
 21
-6.272927385608895
 31
0
  0
LINE
  8
1
 62
7
 10
-621.825819578086
 20
55.22707261439111
 30
0
 11
-621.825819578086
 21
-6.272927385608893
 31
0
  0
LINE
  8
1
 62
7
 10
-401.8258195780861
 20
133.2270726143911
 30
0
 11
-661.825819578086
 21
133.2270726143911
 31
0
  0
LINE
  8
1
 62
7
 10
-401.8258195780861
 20
160.2270726143911
 30
0
 11
-401.8258195780861
 21
133.2270726143911
 31
0
  0
LINE
  8
1
 62
7
 10
-659.825819578086
 20
-52.77292738560891
 30
0
 11
-471.8258195780861
 21
-52.77292738560891
 31
0
  0
LINE
  8
1
 62
7
 10
-1021.154606487372
 20
96.23669155762457
 30
0
 11
-1030.731816015159
 21
101.7660960565779
 31
0
  0
LINE
  8
1
 62
7
 10
-834.0931192699337
 20
122.2174536711577
 30
0
 11
-824.5159097421465
 21
127.746858170111
 31
0
  0
LINE
  8
1
 62
7
 10
-1006.154606487372
 20
122.2174536711577
 30
0
 11
-1021.154606487372
 21
96.23669155762457
 31
0
  0
LINE
  8
1
 62
7
 10
-819.0931192699337
 20
96.23669155762457
 30
0
 11
-834.0931192699337
 21
122.2174536711577
 31
0
  0
LINE
  8
1
 62
7
 10
-845.0738813834669
 20
29.21745367115761
 30
0
 11
-860.0738813834669
 21
3.236691557624497
 31
0
  0
LINE
  8
1
 62
7
 10
-980.1738443738391
 20
3.236691557624596
 30
0
 11
-995.173844373839
 21
29.21745367115772
 31
0
  0
LINE
  8
1
 62
7
 10
-905.123862878653
 20
-52.77292738560891
 30
0
 11
-905.123862878653
 21
-63.83173638351551
 31
0
  0
LINE
  8
1
 62
7
 10
-935.123862878653
 20
-52.77292738560891
 30
0
 11
-905.123862878653
 21
-52.77292738560891
 31
0
  0
LINE
  8
1
 62
7
 10
-935.123862878653
 20
133.2270726143911
 30
0
 11
-905.123862878653
 21
133.2270726143911
 31
0
  0
LINE
  8
1
 62
7
 10
-510.325819578086
 20
177.0138297819748
 30
0
 11
-487.325819578086
 21
177.0138297819748
 31
0
  0
LINE
  8
1
 62
7
 10
-661.825819578086
 20
-14.77292738560891
 30
0
 11
-361.8258195780861
 21
-14.77292738560891
 31
0
  0
LINE
  8
1
 62
7
 10
-361.8258195780861
 20
-4.772927385608909
 30
0
 11
-511.8258195780861
 21
-4.772927385608909
 31
0
  0
LINE
  8
1
 62
7
 10
-659.825819578086
 20
-62.77292738560891
 30
0
 11
-657.825819578086
 21
-64.77292738560891
 31
0
  0
LINE
  8
1
 62
7
 10
-365.8258195780861
 20
-49.77292738560891
 30
0
 11
-363.8258195780861
 21
-47.77292738560891
 31
0
  0
LINE
  8
1
 62
7
 10
-361.8258195780861
 20
55.22707261439111
 30
0
 11
-361.8258195780861
 21
-24.77292738560891
 31
0
  0
LINE
  8
1
 62
7
 10
-361.8258195780861
 20
-24.77292738560891
 30
0
 11
-363.8258195780861
 21
-26.77292738560891
 31
0
  0
LINE
  8
1
 62
7
 10
-363.8258195780861
 20
-26.77292738560891
 30
0
 11
-363.8258195780861
 21
-47.77292738560891
 31
0
  0
LINE
  8
1
 62
7
 10
-365.8258195780861
 20
-49.77292738560891
 30
0
 11
-471.8258195780861
 21
-49.77292738560891
 31
0
  0
LINE
  8
1
 62
7
 10
-507.8258195780861
 20
-64.77292738560891
 30
0
 11
-510.325819578086
 21
-64.77292738560891
 31
0
  0
LINE
  8
1
 62
7
 10
-659.825819578086
 20
-62.77292738560891
 30
0
 11
-659.825819578086
 21
-26.77292738560891
 31
0
  0
LINE
  8
1
 62
7
 10
-659.825819578086
 20
-26.77292738560891
 30
0
 11
-661.825819578086
 21
-24.77292738560891
 31
0
  0
LINE
  8
1
 62
7
 10
-661.825819578086
 20
-24.77292738560891
 30
0
 11
-661.825819578086
 21
55.22707261439111
 31
0
  0
LINE
  8
1
 62
7
 10
-657.825819578086
 20
175.2270726143911
 30
0
 11
-659.825819578086
 21
173.2270726143911
 31
0
  0
LINE
  8
1
 62
7
 10
-363.8258195780861
 20
158.2270726143911
 30
0
 11
-365.8258195780861
 21
160.2270726143911
 31
0
  0
LINE
  8
1
 62
7
 10
-361.8258195780861
 20
135.2270726143911
 30
0
 11
-361.8258195780861
 21
55.22707261439111
 31
0
  0
LINE
  8
1
 62
7
 10
-363.8258195780861
 20
137.2270726143911
 30
0
 11
-361.8258195780861
 21
135.2270726143911
 31
0
  0
LINE
  8
1
 62
7
 10
-363.8258195780861
 20
158.2270726143911
 30
0
 11
-363.8258195780861
 21
137.2270726143911
 31
0
  0
LINE
  8
1
 62
7
 10
-471.8258195780861
 20
160.2270726143911
 30
0
 11
-365.8258195780861
 21
160.2270726143911
 31
0
  0
LINE
  8
1
 62
7
 10
-472.6918449818704
 20
179.2270726143911
 30
0
 11
-471.8258195780861
 21
177.7270726143911
 31
0
  0
LINE
  8
1
 62
7
 10
-507.8258195780861
 20
179.2270726143911
 30
0
 11
-472.6918449818704
 21
179.2270726143911
 31
0
  0
LINE
  8
1
 62
7
 10
-507.8258195780861
 20
175.2270726143911
 30
0
 11
-507.8258195780861
 21
179.2270726143911
 31
0
  0
LINE
  8
1
 62
7
 10
-657.825819578086
 20
175.2270726143911
 30
0
 11
-654.8854011037238
 21
175.2270726143911
 31
0
  0
LINE
  8
1
 62
7
 10
-659.825819578086
 20
137.2270726143911
 30
0
 11
-659.825819578086
 21
173.2270726143911
 31
0
  0
LINE
  8
1
 62
7
 10
-661.825819578086
 20
135.2270726143911
 30
0
 11
-659.825819578086
 21
137.2270726143911
 31
0
  0
LINE
  8
1
 62
7
 10
-661.825819578086
 20
55.22707261439111
 30
0
 11
-661.825819578086
 21
135.2270726143911
 31
0
  0
LINE
  8
1
 62
7
 10
-936.123862878653
 20
-2.600256564812809
 30
0
 11
-936.123862878653
 21
-14.77292738560891
 31
0
  0
LINE
  8
1
 62
7
 10
-936.123862878653
 20
-14.77292738560891
 30
0
 11
-904.123862878653
 21
-14.77292738560891
 31
0
  0
LINE
  8
1
 62
7
 10
-904.123862878653
 20
-14.77292738560891
 30
0
 11
-904.123862878653
 21
-2.600256564812809
 31
0
  0
LINE
  8
1
 62
3
  6
DIVIDE
 10
-595.825819578086
 20
-52.77292738560891
 30
0
 11
-595.825819578086
 21
-6.272927385608893
 31
0
  0
LINE
  8
1
 62
3
  6
DIVIDE
 10
-587.825819578086
 20
-6.272927385608895
 30
0
 11
-587.825819578086
 21
-52.77292738560891
 31
0
  0
LINE
  8
1
 62
3
  6
DIVIDE
 10
-555.825819578086
 20
-52.77292738560891
 30
0
 11
-555.825819578086
 21
-6.272927385608893
 31
0
  0
LINE
  8
1
 62
3
  6
DIVIDE
 10
-547.825819578086
 20
-6.272927385608895
 30
0
 11
-547.825819578086
 21
-52.77292738560891
 31
0
  0
LINE
  8
1
 62
3
  6
DASHDOT
 10
-924.123862878653
 20
-52.77292738560891
 30
0
 11
-924.123862878653
 21
-14.77292738560891
 31
0
  0
LINE
  8
1
 62
3
  6
DASHDOT
 10
-916.123862878653
 20
-14.77292738560891
 30
0
 11
-916.123862878653
 21
-52.77292738560891
 31
0
  0
LINE
  8
1
 62
3
  6
DASHDOT
 10
-824.5931192699335
 20
105.7629709992533
 30
0
 11
-864.9760736489964
 21
82.447861417829
 31
0
  0
LINE
  8
1
 62
3
  6
DASHDOT
 10
-1011.654606487372
 20
112.6911742295288
 30
0
 11
-971.2716521083096
 21
89.37606464810446
 31
0
  0
LINE
  8
1
 62
7
 10
-633.2246187539103
 20
175.2270726143911
 30
0
 11
-615.825819578086
 21
175.2270726143911
 31
0
  0
LINE
  8
1
 62
7
 10
-905.123862878653
 20
133.2270726143911
 30
0
 11
-905.123862878653
 21
214.227072614391
 31
0
  0
LINE
  8
1
 62
7
 10
-935.123862878653
 20
133.2270726143911
 30
0
 11
-935.123862878653
 21
214.227072614391
 31
0
  0
LINE
  8
1
 62
7
 10
-905.123862878653
 20
214.227072614391
 30
0
 11
-935.123862878653
 21
214.227072614391
 31
0
  0
LINE
  8
1
 62
7
 10
-905.123862878653
 20
137.2270726143911
 30
0
 11
-935.123862878653
 21
137.2270726143911
 31
0
  0
LINE
  8
1
 62
7
 10
-980.1738443738391
 20
3.236691557624596
 30
0
 11
-1050.321902080379
 21
-37.26330844237532
 31
0
  0
LINE
  8
1
 62
7
 10
-845.0738813834669
 20
29.21745367115761
 30
0
 11
-774.9258236769275
 21
-11.28254632884239
 31
0
  0
LINE
  8
1
 62
7
 10
-1065.321902080379
 20
-11.28254632884216
 30
0
 11
-1050.321902080379
 21
-37.26330844237532
 31
0
  0
LINE
  8
1
 62
7
 10
-789.9258236769275
 20
-37.26330844237555
 30
0
 11
-774.9258236769275
 21
-11.28254632884239
 31
0
  0
LINE
  8
1
 62
7
 10
-995.173844373839
 20
29.21745367115772
 30
0
 11
-1065.321902080379
 21
-11.28254632884216
 31
0
  0
LINE
  8
1
 62
7
 10
-860.0738813834669
 20
3.236691557624497
 30
0
 11
-789.9258236769275
 21
-37.26330844237555
 31
0
  0
LINE
  8
1
 62
7
 10
-998.637945988977
 20
27.21745367115784
 30
0
 11
-983.6379459889772
 21
1.236691557624681
 31
0
  0
LINE
  8
1
 62
7
 10
-856.6097797683292
 20
1.236691557624226
 30
0
 11
-841.6097797683292
 21
27.2174536711575
 31
0
  0
LINE
  8
1
 62
7
 10
-875.123862878653
 20
148.4270726143911
 30
0
 11
-873.565017151841
 21
149.3270726143911
 31
0
  0
LINE
  8
1
 62
7
 10
-873.565017151841
 20
149.3270726143911
 30
0
 11
-873.565017151841
 21
151.1270726143911
 31
0
  0
LINE
  8
1
 62
7
 10
-873.565017151841
 20
151.1270726143911
 30
0
 11
-875.123862878653
 21
152.0270726143911
 31
0
  0
LINE
  8
1
 62
7
 10
-875.123862878653
 20
152.0270726143911
 30
0
 11
-876.682708605465
 21
151.1270726143911
 31
0
  0
LINE
  8
1
 62
7
 10
-876.682708605465
 20
151.1270726143911
 30
0
 11
-876.682708605465
 21
149.3270726143911
 31
0
  0
LINE
  8
1
 62
7
 10
-876.682708605465
 20
149.3270726143911
 30
0
 11
-875.123862878653
 21
148.4270726143911
 31
0
  0
LINE
  8
1
 62
7
 10
-1023.337430511363
 20
47.59821578469087
 30
0
 11
-1024.896276238175
 21
48.49821578469087
 31
0
  0
LINE
  8
1
 62
7
 10
-1024.896276238175
 20
48.49821578469087
 30
0
 11
-1026.455121964987
 21
47.59821578469087
 31
0
  0
LINE
  8
1
 62
7
 10
-1026.455121964987
 20
47.59821578469087
 30
0
 11
-1026.455121964987
 21
45.79821578469088
 31
0
  0
LINE
  8
1
 62
7
 10
-1026.455121964987
 20
45.79821578469088
 30
0
 11
-1024.896276238175
 21
44.89821578469088
 31
0
  0
LINE
  8
1
 62
7
 10
-1024.896276238175
 20
44.89821578469088
 30
0
 11
-1023.337430511363
 21
45.79821578469088
 31
0
  0
LINE
  8
1
 62
7
 10
-1023.337430511363
 20
45.79821578469088
 30
0
 11
-1023.337430511363
 21
47.59821578469087
 31
0
  0
LINE
  8
1
 62
7
 10
-858.7926037923193
 20
-32.14407055590857
 30
0
 11
-858.7926037923194
 21
-30.34407055590857
 31
0
  0
LINE
  8
1
 62
7
 10
-858.7926037923194
 20
-30.34407055590857
 30
0
 11
-860.3514495191313
 21
-29.44407055590861
 31
0
  0
LINE
  8
1
 62
7
 10
-860.3514495191313
 20
-29.44407055590861
 30
0
 11
-861.9102952459433
 21
-30.34407055590865
 31
0
  0
LINE
  8
1
 62
7
 10
-861.9102952459433
 20
-30.34407055590865
 30
0
 11
-861.9102952459432
 21
-32.14407055590865
 31
0
  0
LINE
  8
1
 62
7
 10
-861.9102952459432
 20
-32.14407055590865
 30
0
 11
-860.3514495191313
 21
-33.0440705559086
 31
0
  0
LINE
  8
1
 62
7
 10
-860.3514495191313
 20
-33.0440705559086
 30
0
 11
-858.7926037923193
 21
-32.14407055590857
 31
0
  0
LINE
  8
1
 62
3
  6
DASHDOT
 10
-359.3258195780861
 20
55.22707261439112
 30
0
 11
-361.8258195780861
 21
55.22707261439111
 31
0
  0
LINE
  8
1
 62
3
  6
DASHDOT
 10
-661.825819578086
 20
55.22707261439111
 30
0
 11
-664.325819578086
 21
55.22707261439111
 31
0
  0
LINE
  8
1
 62
3
  6
DASHDOT
 10
-917.623862878653
 20
55.22707261439111
 30
0
 11
-920.123862878653
 21
55.22707261439111
 31
0
  0
LINE
  8
1
 62
3
  6
DASHDOT
 10
-920.123862878653
 20
52.72707261439111
 30
0
 11
-920.123862878653
 21
55.22707261439111
 31
0
  0
LINE
  8
1
 62
3
  6
DASHDOT
 10
-922.623862878653
 20
55.22707261439111
 30
0
 11
-920.123862878653
 21
55.22707261439111
 31
0
  0
LINE
  8
1
 62
3
  6
DASHDOT
 10
-920.123862878653
 20
57.72707261439111
 30
0
 11
-920.123862878653
 21
55.22707261439111
 31
0
  0
ARC
  8
1
 62
7
 10
-491.325819578086
 20
203.3270726143911
 30
0
 40
0.5999999999999943
 50
90
 51
270
  0
ARC
  8
1
 62
7
 10
-491.025819578086
 20
217.1270726143911
 30
0
 40
0.5999999999999662
 50
120.0000000000031
 51
239.9999999999956
  0
ARC
  8
1
 62
7
 10
-506.1258195780861
 20
203.3270726143911
 30
0
 40
0.600000000000097
 50
300.0000000000084
 51
59.9999999999902
  0
ARC
  8
1
 62
7
 10
-505.825819578086
 20
217.1270726143911
 30
0
 40
0.5999999999999943
 50
270
 51
90
  0
ARC
  8
1
 62
7
 10
-441.8258195780859
 20
147.2270726143911
 30
0
 40
12.5
 50
233.130102354156
 51
153.0339787609083
  0
ARC
  8
1
 62
7
 10
-605.9622564706434
 20
187.7475998691001
 30
0
 40
30
 50
153.3722814803159
 51
266.3537287912432
  0
ARC
  8
1
 62
7
 10
-441.8258195780859
 20
147.2270726143911
 30
0
 40
10
 50
270
 51
119.911038553164
  0
ARC
  8
1
 62
7
 10
-645.825819578086
 20
150.2270726143911
 30
0
 40
12.99999999999993
 50
170.6520812989436
 51
270
  0
ARC
  8
1
 62
7
 10
-640.825819578086
 20
205.2270726143911
 30
0
 40
9.000000000000025
 50
333.3722814803165
 51
170.6520812989433
  0
ARC
  8
1
 62
7
 10
-920.123862878653
 20
55.22707261439111
 30
0
 40
122
 50
180
 51
202.9375664462434
  0
ARC
  8
1
 62
7
 10
-920.123862878653
 20
55.22707261439111
 30
0
 40
120.5000000000003
 50
157.0310169907777
 51
202.8491958879527
  0
ARC
  8
1
 62
7
 10
-920.123862878653
 20
55.22707261439111
 30
0
 40
121.9999999999998
 50
217.0624335537568
 51
322.9375664462432
  0
ARC
  8
1
 62
7
 10
-920.123862878653
 20
55.22707261439111
 30
0
 40
120.5000000000001
 50
277.0310169907775
 51
322.8491958879525
  0
ARC
  8
1
 62
7
 10
-920.123862878653
 20
55.22707261439111
 30
0
 40
122.0000000000001
 50
337.0624335537567
 51
82.93756644624327
  0
ARC
  8
1
 62
7
 10
-920.123862878653
 20
55.22707261439111
 30
0
 40
122.0000000000002
 50
97.06243355375672
 51
180
  0
ARC
  8
1
 62
7
 10
-920.123862878653
 20
55.22707261439111
 30
0
 40
120.5000000000001
 50
37.03101699077757
 51
82.84919588795265
  0
ARC
  8
1
 62
7
 10
-920.123862878653
 20
55.22707261439111
 30
0
 40
120.4999999999998
 50
217.1508041120474
 51
262.9689830092223
  0
ARC
  8
1
 62
7
 10
-920.123862878653
 20
55.22707261439111
 30
0
 40
120.5
 50
337.1508041120473
 51
22.96898300922243
  0
ARC
  8
1
 62
7
 10
-920.123862878653
 20
55.22707261439111
 30
0
 40
120.5
 50
97.15080411204737
 51
142.9689830092225
  0
ARC
  8
1
 62
7
 10
-920.123862878653
 20
55.22707261439111
 30
0
 40
138
 50
96.24013109825775
 51
203.7598689017422
  0
ARC
  8
1
 62
7
 10
-920.123862878653
 20
55.22707261439111
 30
0
 40
138.0000000000001
 50
216.2401310982577
 51
323.7598689017422
  0
ARC
  8
1
 62
7
 10
-920.123862878653
 20
55.22707261439111
 30
0
 40
138
 50
336.2401310982577
 51
83.75986890174224
  0
ARC
  8
1
 62
7
 10
-920.123862878653
 20
55.22707261439111
 30
0
 40
118
 50
97.30312131497369
 51
142.6968786850263
  0
ARC
  8
1
 62
7
 10
-920.123862878653
 20
55.22707261439111
 30
0
 40
118.0000000000003
 50
157.3031213149737
 51
202.6968786850263
  0
ARC
  8
1
 62
7
 10
-920.123862878653
 20
55.22707261439111
 30
0
 40
118.0000000000002
 50
217.3031213149736
 51
262.6968786850263
  0
ARC
  8
1
 62
7
 10
-920.123862878653
 20
55.22707261439111
 30
0
 40
118
 50
277.3031213149737
 51
322.6968786850263
  0
ARC
  8
1
 62
7
 10
-920.123862878653
 20
55.22707261439111
 30
0
 40
118
 50
337.3031213149737
 51
22.69687868502632
  0
ARC
  8
1
 62
7
 10
-920.123862878653
 20
55.22707261439111
 30
0
 40
118
 50
37.30312131497372
 51
82.69687868502631
  0
ARC
  8
1
 62
7
 10
-920.123862878653
 20
55.22707261439111
 30
0
 40
82
 50
220.5402859652094
 51
234.7187434894642
  0
ARC
  8
1
 62
7
 10
-920.123862878653
 20
55.22707261439111
 30
0
 40
82.00000000000004
 50
340.5402859652093
 51
54.71874348946422
  0
ARC
  8
1
 62
7
 10
-920.123862878653
 20
55.22707261439111
 30
0
 40
81.99999999999999
 50
245.2812565105358
 51
319.4597140347906
  0
ARC
  8
1
 62
7
 10
-920.123862878653
 20
55.22707261439111
 30
0
 40
81.99999999999993
 50
100.5402859652094
 51
199.4597140347906
  0
ARC
  8
1
 62
7
 10
-920.123862878653
 20
55.22707261439111
 30
0
 40
81.99999999999993
 50
65.2812565105358
 51
79.45971403479061
  0
ARC
  8
1
 62
7
 10
-920.123862878653
 20
55.22707261439111
 30
0
 40
60.00000000000008
 50
285.4660099534206
 51
254.5339900465795
  0
ARC
  8
1
 62
7
 10
-920.123862878653
 20
55.22707261439111
 30
0
 40
79.99999999999992
 50
220.8069228748604
 51
234.277116350878
  0
ARC
  8
1
 62
7
 10
-920.123862878653
 20
55.22707261439111
 30
0
 40
79.99999999999997
 50
340.8069228748602
 51
54.27711635087802
  0
ARC
  8
1
 62
7
 10
-920.123862878653
 20
55.22707261439111
 30
0
 40
79.9999999999999
 50
100.8069228748604
 51
199.1930771251396
  0
ARC
  8
1
 62
7
 10
-920.123862878653
 20
55.22707261439111
 30
0
 40
119.9999999999997
 50
157.1807557814582
 51
202.8192442185417
  0
ARC
  8
1
 62
7
 10
-920.123862878653
 20
55.22707261439111
 30
0
 40
120
 50
97.18075578145829
 51
142.8192442185416
  0
ARC
  8
1
 62
7
 10
-920.123862878653
 20
55.22707261439111
 30
0
 40
120
 50
337.1807557814582
 51
22.81924421854176
  0
ARC
  8
1
 62
7
 10
-920.123862878653
 20
55.22707261439111
 30
0
 40
80
 50
245.722883649122
 51
319.1930771251395
  0
ARC
  8
1
 62
7
 10
-920.123862878653
 20
55.22707261439111
 30
0
 40
120.0000000000001
 50
277.1807557814583
 51
322.8192442185417
  0
ARC
  8
1
 62
7
 10
-920.123862878653
 20
55.22707261439111
 30
0
 40
119.9999999999996
 50
217.1807557814583
 51
262.8192442185417
  0
ARC
  8
1
 62
7
 10
-920.123862878653
 20
55.22707261439111
 30
0
 40
79.99999999999993
 50
65.722883649122
 51
79.19307712513965
  0
ARC
  8
1
 62
7
 10
-920.123862878653
 20
55.22707261439111
 30
0
 40
120.0000000000001
 50
37.18075578145827
 51
82.81924421854171
  0
CIRCLE
  8
1
 62
7
 10
-494.0401052923717
 20
203.3270726143911
 30
0
 40
0.5999999999999659
  0
CIRCLE
  8
1
 62
7
 10
-492.225819578086
 20
217.1270726143911
 30
0
 40
0.6000000000000227
  0
CIRCLE
  8
1
 62
7
 10
-497.6686767209432
 20
203.3270726143911
 30
0
 40
0.5999999999999659
  0
CIRCLE
  8
1
 62
7
 10
-495.8543910066574
 20
217.1270726143911
 30
0
 40
0.5999999999999659
  0
CIRCLE
  8
1
 62
7
 10
-501.2972481495146
 20
203.3270726143911
 30
0
 40
0.6000000000000227
  0
CIRCLE
  8
1
 62
7
 10
-499.4829624352288
 20
217.1270726143911
 30
0
 40
0.6000000000001364
  0
CIRCLE
  8
1
 62
7
 10
-504.925819578086
 20
203.3270726143911
 30
0
 40
0.5999999999999659
  0
CIRCLE
  8
1
 62
7
 10
-503.1115338638003
 20
217.1270726143911
 30
0
 40
0.5999999999999091
  0
CIRCLE
  8
1
 62
7
 10
-441.8258195780859
 20
147.2270726143911
 30
0
 40
5
  0
CIRCLE
  8
1
 62
7
 10
-920.123862878653
 20
55.22707261439111
 30
0
 40
169
  0
CIRCLE
  8
1
 62
7
 10
-920.123862878653
 20
55.22707261439111
 30
0
 40
174
  0
CIRCLE
  8
1
 62
3
 10
-920.123862878653
 20
55.22707261439111
 30
0
 40
177.5
  0
CIRCLE
  8
1
 62
7
 10
-920.123862878653
 20
55.22707261439111
 30
0
 40
187
  0
CIRCLE
  8
1
 62
7
 10
-959.623862878653
 20
-13.18893428457949
 30
0
 40
6.400000000000091
  0
CIRCLE
  8
1
 62
3
 10
-880.623862878653
 20
123.6430795133618
 30
0
 40
8
  0
CIRCLE
  8
1
 62
7
 10
-880.623862878653
 20
123.6430795133618
 30
0
 40
6.399999999999977
  0
CIRCLE
  8
1
 62
7
 10
-645.825819578086
 20
150.2270726143911
 30
0
 40
6
  0
CIRCLE
  8
1
 62
7
 10
-875.123862878653
 20
150.2270726143911
 30
0
 40
3
  0
CIRCLE
  8
1
 62
3
 10
-875.123862878653
 20
150.2270726143911
 30
0
 40
2.399999999999977
  0
CIRCLE
  8
1
 62
7
 10
-1024.896276238175
 20
46.69821578469087
 30
0
 40
3
  0
CIRCLE
  8
1
 62
3
 10
-1024.896276238175
 20
46.69821578469087
 30
0
 40
2.400000000000091
  0
CIRCLE
  8
1
 62
7
 10
-860.3514495191313
 20
-31.24407055590861
 30
0
 40
3
  0
CIRCLE
  8
1
 62
3
 10
-860.3514495191313
 20
-31.24407055590861
 30
0
 40
2.399999999999977
  0
POLYLINE
  8
1
 62
7
 66
1
  0
VERTEX
  8
1
 10
-484.725819578086
 20
214.2270726143911
 30
0
 42
-0.03197573370372011
  0
VERTEX
  8
1
 10
-483.687757294349
 20
213.2858961438028
 30
0
 42
-0.04284194860008665
  0
VERTEX
  8
1
 10
-482.9265116196084
 20
212.3447196732146
 30
0
 42
-0.05629168526473374
  0
VERTEX
  8
1
 10
-482.4420825538645
 20
211.4035432026264
 30
0
 42
-0.06877688111857969
  0
VERTEX
  8
1
 10
-482.2344700971171
 20
210.4623667320382
 30
0
 42
-0.07320041890164954
  0
VERTEX
  8
1
 10
-482.3036742493662
 20
209.5211902614499
 30
0
 42
-0.06611232422778521
  0
VERTEX
  8
1
 10
-482.6496950106119
 20
208.5800137908617
 30
0
 42
-0.05280342124444769
  0
VERTEX
  8
1
 10
-483.2725323808542
 20
207.6388373202735
 30
0
 42
-0.03983460099634506
  0
VERTEX
  8
1
 10
-484.1721863600928
 20
206.6976608496852
 30
0
  0
VERTEX
  8
1
 10
-484.725819578086
 20
206.2270726143911
 30
0
  0
SEQEND
  8
1
  0
ARC
  8
1
 62
7
 10
-471.7451043408842
 20
199.2351142933716
 30
0
 40
49.99999999999994
 50
266.3537287912431
 51
299.9110385531638
  0
TEXT
  8
1
 62
7
 10
-992.380541797633
 20
316.3408172594181
 30
0
 40
14
  1
OS 1409MG
 41
0.9
  7
SIMPLEX
 72
1
 11
-935.6805417976329
 21
316.3408172594181
 31
0
  0
ENDSEC
  0
EOF
