  0
SECTION
  2
HEADER
  9
$ACADVER
  1
AC1009
  9
$INSBASE
 10
0
 20
0
  9
$EXTMIN
 10
-43.51390412270069
 20
13.84838316634526
  9
$EXTMAX
 10
151.2873780618863
 20
103.972453934565
  9
$LIMMIN
 10
-43.51390412270069
 20
13.84838316634526
  9
$LIMMAX
 10
151.2873780618863
 20
103.972453934565
  9
$VIEWCTR
 10
10
 20
10
  9
$VIEWSIZE
 40
10
  9
$SNAPMODE
 70
0
  9
$SNAPUNIT
 10
1
 20
1
  9
$SNAPBASE
 10
0
 20
0
  9
$SNAPANG
 50
0
  9
$SNAPSTYLE
 70
0
  9
$SNAPISOPAIR
 70
0
  9
$GRIDMODE
 70
0
  9
$GRIDUNIT
 10
0
 20
0
  9
$ORTHOMODE
 70
0
  9
$REGENMODE
 70
1
  9
$FILLMODE
 70
1
  9
$QTEXTMODE
 70
0
  9
$DRAGMODE
 70
2
  9
$LTSCALE
 40
1
  9
$OSMODE
 70
0
  9
$ATTMODE
 70
1
  9
$TEXTSIZE
 40
3.5
  9
$TRACEWID
 40
0.5
  9
$TEXTSTYLE
  7
STANDARD
  9
$CLAYER
  8
0
  9
$CELTYPE
  6
BYLAYER
  9
$CECOLOR
 62
256
  9
$DIMSCALE
 40
1
  9
$DIMASZ
 40
0.18
  9
$DIMEXO
 40
0.0625
  9
$DIMDLI
 40
0.38
  9
$DIMRND
 40
0
  9
$DIMDLE
 40
0
  9
$DIMEXE
 40
0.18
  9
$DIMTP
 40
0
  9
$DIMTM
 40
0
  9
$DIMTXT
 40
0.18
  9
$DIMCEN
 40
0.09
  9
$DIMTSZ
 40
0
  9
$DIMTOL
 70
0
  9
$DIMLIM
 70
0
  9
$DIMTIH
 70
1
  9
$DIMTOH
 70
1
  9
$DIMSE1
 70
0
  9
$DIMSE2
 70
0
  9
$DIMTAD
 70
0
  9
$DIMZIN
 70
0
  9
$DIMBLK
  1

  9
$DIMASO
 70
1
  9
$DIMSHO
 70
1
  9
$DIMPOST
  1

  9
$DIMAPOST
  1

  9
$DIMALT
 70
0
  9
$DIMALTD
 70
2
  9
$DIMALTF
 40
25.4
  9
$DIMLFAC
 40
1
  9
$DIMTOFL
 70
0
  9
$DIMTVP
 40
0
  9
$DIMTIX
 70
0
  9
$DIMSOXD
 70
0
  9
$DIMSAH
 70
0
  9
$DIMBLK1
  1

  9
$DIMBLK2
  1

  9
$DIMSTYLE
  2
*UNNAMED
  9
$DIMCLRD
 70
0
  9
$DIMCLRE
 70
0
  9
$DIMCLRT
 70
0
  9
$DIMTFAC
 40
1
  9
$DIMGAP
 40
0.09
  9
$LUNITS
 70
2
  9
$LUPREC
 70
4
  9
$AXISMODE
 70
0
  9
$AXISUNIT
 10
0
 20
0
  9
$SKETCHINC
 40
0.1
  9
$FILLETRAD
 40
2
  9
$AUNITS
 70
0
  9
$AUPREC
 70
0
  9
$MENU
  1
ACAD
  9
$ELEVATION
 40
0
  9
$THICKNESS
 40
0
  9
$VIEWDIR
 10
0
 20
0
 30
1
  9
$LIMCHECK
 70
0
  9
$BLIPMODE
 70
1
  9
$CHAMFERA
 40
0
  9
$CHAMFERB
 40
0
  9
$FASTZOOM
 70
1
  9
$SKPOLY
 70
0
  9
$ANGBASE
 50
0
  9
$ANGDIR
 70
0
  9
$PDMODE
 70
0
  9
$PDSIZE
 40
0
  9
$PLINEWID
 40
0
  9
$COORDS
 70
2
  0
ENDSEC
  0
SECTION
  2
TABLES
  0
TABLE
  2
DIMSTYLE
 70
0
  0
ENDTAB
  0
TABLE
  2
LTYPE
 70
9
  0
LTYPE
  2
CONTINUOUS
 70
64
  3
Solid line
 72
65
 73
0
 40
0
  0
LTYPE
  2
BORDER
 70
64
  3
__ __ . __ __ .
 72
65
 73
6
 40
8.971111679553349
 49
2.563174765586671
 49
-1.281587382793336
 49
2.563174765586671
 49
-1.281587382793336
 49
0
 49
-1.281587382793336
  0
LTYPE
  2
CENTER
 70
64
  3
____ _ ____ _
 72
65
 73
4
 40
10.25269906234668
 49
6.407936913966678
 49
-1.281587382793336
 49
1.281587382793336
 49
-1.281587382793336
  0
LTYPE
  2
DASHDOT
 70
64
  3
__ . __ . __ .
 72
65
 73
4
 40
5.126349531173342
 49
2.563174765586671
 49
-1.281587382793336
 49
0
 49
-1.281587382793336
  0
LTYPE
  2
DASHED
 70
64
  3
__ __ __ __ __
 72
65
 73
2
 40
3.844762148380006
 49
2.563174765586671
 49
-1.281587382793336
  0
LTYPE
  2
DIVIDE
 70
64
  3
__ . . __ . . 
 72
65
 73
6
 40
6.407936913966678
 49
2.563174765586671
 49
-1.281587382793336
 49
0
 49
-1.281587382793336
 49
0
 49
-1.281587382793336
  0
LTYPE
  2
DOT
 70
64
  3
..............
 72
65
 73
4
 40
2.563174765586671
 49
0
 49
-1.281587382793336
 49
0
 49
-1.281587382793336
  0
LTYPE
  2
HIDDEN
 70
64
  3
_ _ _ _ _ _ _
 72
65
 73
2
 40
1.922381074190003
 49
1.281587382793336
 49
-0.6407936913966678
  0
LTYPE
  2
PHANTOM
 70
64
  3
_____ _ _ _____ _ _ 
 72
65
 73
6
 40
12.81587382793336
 49
6.407936913966678
 49
-1.281587382793336
 49
1.281587382793336
 49
-1.281587382793336
 49
1.281587382793336
 49
-1.281587382793336
  0
ENDTAB
  0
TABLE
  2
LAYER
 70
3
  0
LAYER
  2
1
 70
0
 62
7
  6
CONTINUOUS
  0
LAYER
  2
0
 70
0
 62
7
  6
CONTINUOUS
  0
ENDTAB
  0
TABLE
  2
STYLE
 70
4
  0
STYLE
  2
STANDARD
 70
0
 40
0
 41
1
 50
0
 71
0
 42
3.5
  3
txt
  4

  0
STYLE
  2
SIMPLEX
 70
0
 40
0
 41
1
 50
0
 71
0
 42
3.5
  3
simplex
  4

  0
STYLE
  2
COMPLEX
 70
0
 40
0
 41
1
 50
0
 71
0
 42
3.5
  3
complex
  4

  0
STYLE
  2
ITALIC
 70
0
 40
0
 41
1
 50
0
 71
0
 42
3.5
  3
italic
  4

  0
ENDTAB
  0
TABLE
  2
VIEW
 70
0
  0
ENDTAB
  0
ENDSEC
  0
SECTION
  2
BLOCKS
  0
ENDSEC
  0
SECTION
  2
ENTITIES
  0
POLYLINE
  8
1
 62
7
 66
1
  0
VERTEX
  8
1
 10
112.9873780618864
 20
85.84838316634527
 30
0
 42
-0.04495552442227706
  0
VERTEX
  8
1
 10
113.0754039395147
 20
85.84042288917905
 30
0
 42
-0.08144996476116358
  0
VERTEX
  8
1
 10
113.2483803236916
 20
85.77901560097698
 30
0
 42
-0.06449854359134874
  0
VERTEX
  8
1
 10
113.4125499621173
 20
85.65866471148439
 30
0
 42
-0.04929519791635244
  0
VERTEX
  8
1
 10
113.5631785855851
 20
85.48364940804031
 30
0
 42
-0.03846121996636907
  0
VERTEX
  8
1
 10
113.6961221373848
 20
85.25940586415288
 30
0
 42
-0.03124869200546801
  0
VERTEX
  8
1
 10
113.8075731326253
 20
84.99264218204093
 30
0
 42
-0.02659601776277538
  0
VERTEX
  8
1
 10
113.8942379763046
 20
84.69134454189745
 30
0
 42
-0.02372723851272662
  0
VERTEX
  8
1
 10
113.9535142136878
 20
84.36457642509865
 30
0
 42
-0.02216973644534332
  0
VERTEX
  8
1
 10
113.9836088762501
 20
84.02220008355849
 30
0
 42
-0.02167631093159342
  0
VERTEX
  8
1
 10
113.98360887625
 20
83.67456624913204
 30
0
 42
-0.02217073623675347
  0
VERTEX
  8
1
 10
113.9535142136878
 20
83.3321899075919
 30
0
 42
-0.02372970940452449
  0
VERTEX
  8
1
 10
113.8942379763046
 20
83.00542179079307
 30
0
 42
-0.02660129272431571
  0
VERTEX
  8
1
 10
113.8075731326253
 20
82.70412415064962
 30
0
 42
-0.03126019786238654
  0
VERTEX
  8
1
 10
113.6961221373848
 20
82.43736046853766
 30
0
 42
-0.03848783961150414
  0
VERTEX
  8
1
 10
113.5631785855851
 20
82.21311692465022
 30
0
 42
-0.04935930906551434
  0
VERTEX
  8
1
 10
113.4125499621173
 20
82.03810162120617
 30
0
 42
-0.06463874804278591
  0
VERTEX
  8
1
 10
113.2483803236917
 20
81.91775073171357
 30
0
 42
-0.08162025632267642
  0
VERTEX
  8
1
 10
113.0754039395147
 20
81.85634344351151
 30
0
  0
VERTEX
  8
1
 10
113.0313910006983
 20
81.85037323563643
 30
0
  0
VERTEX
  8
1
 10
112.9873780618864
 20
81.84838316634527
 30
0
  0
SEQEND
  8
1
  0
LINE
  8
1
 62
3
  6
DIVIDE
 10
145.7873780618863
 20
25.34838316634527
 30
0
 11
146.2873780618863
 21
25.34838316634529
 31
0
  0
LINE
  8
1
 62
3
  6
DIVIDE
 10
146.2873780618863
 20
25.34838316634529
 30
0
 11
146.2873780618863
 21
15.34838316634527
 31
0
  0
LINE
  8
1
 62
3
  6
DIVIDE
 10
143.2873780618863
 20
13.84838316634527
 30
0
 11
142.2873780618863
 21
14.84838316634527
 31
0
  0
LINE
  8
1
 62
3
  6
DIVIDE
 10
144.7873780618863
 20
13.84838316634527
 30
0
 11
143.2873780618863
 21
13.84838316634527
 31
0
  0
LINE
  8
1
 62
3
  6
DIVIDE
 10
142.2873780618863
 20
20.84838316634527
 30
0
 11
142.2873780618863
 21
14.84838316634527
 31
0
  0
LINE
  8
1
 62
3
  6
DIVIDE
 10
142.2873780618863
 20
20.84838316634527
 30
0
 11
130.2873780618864
 21
20.84838316634527
 31
0
  0
LINE
  8
1
 62
3
  6
DIVIDE
 10
130.2873780618864
 20
14.84838316634527
 30
0
 11
130.2873780618864
 21
20.84838316634527
 31
0
  0
LINE
  8
1
 62
3
  6
DIVIDE
 10
127.7873780618863
 20
13.84838316634527
 30
0
 11
126.2873780618863
 21
15.34838316634527
 31
0
  0
LINE
  8
1
 62
3
  6
DIVIDE
 10
130.2873780618864
 20
14.84838316634527
 30
0
 11
129.2873780618863
 21
13.84838316634527
 31
0
  0
LINE
  8
1
 62
3
  6
DIVIDE
 10
129.2873780618863
 20
13.84838316634527
 30
0
 11
127.7873780618863
 21
13.84838316634527
 31
0
  0
LINE
  8
1
 62
3
  6
DIVIDE
 10
126.2873780618863
 20
15.34838316634527
 30
0
 11
126.2873780618863
 21
25.34838316634529
 31
0
  0
LINE
  8
1
 62
3
  6
DASHDOT
 10
136.2873780618863
 20
17.84838316634526
 30
0
 11
136.2873780618863
 21
28.34838316634529
 31
0
  0
LINE
  8
1
 62
3
  6
DASHDOT
 10
125.7873780618863
 20
17.84838316634526
 30
0
 11
125.7873780618863
 21
28.34838316634529
 31
0
  0
LINE
  8
1
 62
3
  6
DIVIDE
 10
146.2873780618863
 20
80.34838316634526
 30
0
 11
145.7873780618863
 21
80.34838316634526
 31
0
  0
LINE
  8
1
 62
3
  6
DIVIDE
 10
130.2873780618864
 20
84.84838316634527
 30
0
 11
130.2873780618864
 21
90.84838316634527
 31
0
  0
LINE
  8
1
 62
3
  6
DIVIDE
 10
126.2873780618863
 20
80.34838316634526
 30
0
 11
126.2873780618863
 21
90.34838316634527
 31
0
  0
LINE
  8
1
 62
3
  6
DIVIDE
 10
126.2873780618863
 20
90.34838316634527
 30
0
 11
127.7873780618863
 21
91.84838316634527
 31
0
  0
LINE
  8
1
 62
3
  6
DIVIDE
 10
129.2873780618863
 20
91.84838316634527
 30
0
 11
130.2873780618864
 21
90.84838316634527
 31
0
  0
LINE
  8
1
 62
3
  6
DIVIDE
 10
127.7873780618863
 20
91.84838316634527
 30
0
 11
129.2873780618863
 21
91.84838316634527
 31
0
  0
LINE
  8
1
 62
3
  6
DIVIDE
 10
130.2873780618864
 20
84.84838316634527
 30
0
 11
142.2873780618863
 21
84.84838316634527
 31
0
  0
LINE
  8
1
 62
3
  6
DIVIDE
 10
142.2873780618863
 20
90.84838316634527
 30
0
 11
142.2873780618863
 21
84.84838316634527
 31
0
  0
LINE
  8
1
 62
3
  6
DIVIDE
 10
142.2873780618863
 20
90.84838316634527
 30
0
 11
143.2873780618863
 21
91.84838316634527
 31
0
  0
LINE
  8
1
 62
3
  6
DIVIDE
 10
143.2873780618863
 20
91.84838316634527
 30
0
 11
144.7873780618863
 21
91.84838316634527
 31
0
  0
LINE
  8
1
 62
3
  6
DIVIDE
 10
146.2873780618863
 20
90.34838316634527
 30
0
 11
146.2873780618863
 21
80.34838316634526
 31
0
  0
LINE
  8
1
 62
7
 10
105.2028765634663
 20
81.34838316634527
 30
0
 11
104.9873780618864
 21
82.57053590051005
 31
0
  0
LINE
  8
1
 62
3
  6
DASHDOT
 10
146.2873780618863
 20
52.84838316634527
 30
0
 11
151.2873780618863
 21
52.84838316634527
 31
0
  0
LINE
  8
1
 62
3
  6
DASHDOT
 10
136.2873780618863
 20
77.34838316634526
 30
0
 11
136.2873780618863
 21
87.84838316634529
 31
0
  0
LINE
  8
1
 62
3
  6
DIVIDE
 10
-8.479439567996188
 20
30.84838316634526
 30
0
 11
-8.479439567996188
 21
37.34838316634527
 31
0
  0
LINE
  8
1
 62
3
  6
DIVIDE
 10
-5.479439567996188
 20
30.84838316634526
 30
0
 11
-5.479439567996181
 21
37.34838316634527
 31
0
  0
LINE
  8
1
 62
3
  6
DIVIDE
 10
-26.78199845125384
 20
62.54934506066862
 30
0
 11
-18.91257419116871
 21
58.00593084574109
 31
0
  0
LINE
  8
1
 62
3
  6
DIVIDE
 10
-25.28199845125385
 20
65.14742127202193
 30
0
 11
-17.41257419116871
 21
60.6040070570944
 31
0
  0
LINE
  8
1
 62
3
  6
DIVIDE
 10
4.953695055176334
 20
58.00593084574109
 30
0
 11
12.82311931526148
 21
62.54934506066862
 31
0
  0
LINE
  8
1
 62
3
  6
DIVIDE
 10
3.453695055176334
 20
60.6040070570944
 30
0
 11
11.32311931526148
 21
65.14742127202193
 31
0
  0
LINE
  8
1
 62
7
 10
-28.34491496371372
 20
61.14229425309974
 30
0
 11
-24.84491496371372
 21
67.2044720795908
 31
0
  0
LINE
  8
1
 62
7
 10
-27.78199845125383
 20
60.81729425309974
 30
0
 11
-30.38548664496754
 21
62.32041886257235
 31
0
  0
LINE
  8
1
 62
7
 10
-24.28199845125383
 20
66.87947207959081
 30
0
 11
-27.78199845125383
 21
60.81729425309974
 31
0
  0
LINE
  8
1
 62
7
 10
-26.88548664496751
 20
68.38259668906346
 30
0
 11
-24.28199845125383
 21
66.87947207959081
 31
0
  0
LINE
  8
1
 62
7
 10
10.88603582772135
 20
67.2044720795908
 30
0
 11
14.38603582772135
 21
61.14229425309973
 31
0
  0
LINE
  8
1
 62
7
 10
10.32311931526148
 20
66.8794720795908
 30
0
 11
12.92660750897517
 21
68.38259668906342
 31
0
  0
LINE
  8
1
 62
7
 10
13.82311931526148
 20
60.81729425309973
 30
0
 11
10.32311931526148
 21
66.8794720795908
 31
0
  0
LINE
  8
1
 62
7
 10
16.42660750897518
 20
62.32041886257235
 30
0
 11
13.82311931526148
 21
60.81729425309973
 31
0
  0
LINE
  8
1
 62
7
 10
-3.479439567996181
 20
30.19838316634527
 30
0
 11
-10.47943956799618
 21
30.19838316634527
 31
0
  0
LINE
  8
1
 62
7
 10
-3.479439567996181
 20
30.84838316634526
 30
0
 11
-3.479439567996189
 21
27.84213394740002
 31
0
  0
LINE
  8
1
 62
7
 10
-10.47943956799618
 20
30.84838316634526
 30
0
 11
-3.479439567996181
 21
30.84838316634526
 31
0
  0
LINE
  8
1
 62
7
 10
-10.4794395679962
 20
27.84213394740001
 30
0
 11
-10.47943956799618
 21
30.84838316634526
 31
0
  0
LINE
  8
1
 62
7
 10
-3.479439567996181
 20
37.34838316634527
 30
0
 11
-3.479439567996186
 21
40.84838316634527
 31
0
  0
LINE
  8
1
 62
7
 10
-10.4794395679962
 20
37.34838316634527
 30
0
 11
-3.479439567996181
 21
37.34838316634527
 31
0
  0
LINE
  8
1
 62
7
 10
-10.47943956799619
 20
40.84838316634527
 30
0
 11
-10.4794395679962
 21
37.34838316634527
 31
0
  0
LINE
  8
1
 62
7
 10
18.70403003041167
 20
76.62567042514878
 30
0
 11
21.80502498670834
 21
78.41603069792234
 31
0
  0
LINE
  8
1
 62
7
 10
26.45403003041165
 20
63.20227666648998
 30
0
 11
29.55502498670833
 21
64.99263693926353
 31
0
  0
LINE
  8
1
 62
7
 10
26.45403003041165
 20
42.49448966620053
 30
0
 11
29.55502498670833
 21
40.70412939342697
 31
0
  0
LINE
  8
1
 62
7
 10
18.70403003041163
 20
29.07109590754173
 30
0
 11
21.80502498670832
 21
27.28073563476817
 31
0
  0
LINE
  8
1
 62
7
 10
0.7705604320038137
 20
18.717202407397
 30
0
 11
0.7705604320038137
 21
15.13648186184989
 31
0
  0
LINE
  8
1
 62
7
 10
-14.72943956799619
 20
18.717202407397
 30
0
 11
-14.72943956799619
 21
15.13648186184989
 31
0
  0
LINE
  8
1
 62
7
 10
-32.66290916640403
 20
29.07109590754174
 30
0
 11
-35.76390412270069
 21
27.28073563476819
 31
0
  0
LINE
  8
1
 62
7
 10
-40.41290916640403
 20
42.49448966620054
 30
0
 11
-43.51390412270069
 21
40.70412939342698
 31
0
  0
LINE
  8
1
 62
7
 10
-40.41290916640403
 20
63.20227666649
 30
0
 11
-43.51390412270069
 21
64.99263693926356
 31
0
  0
LINE
  8
1
 62
7
 10
-32.66290916640403
 20
76.6256704251488
 30
0
 11
-35.76390412270069
 21
78.41603069792235
 31
0
  0
LINE
  8
1
 62
7
 10
-14.72943956799619
 20
86.97956392529353
 30
0
 11
-14.72943956799619
 21
90.56028447084064
 31
0
  0
LINE
  8
1
 62
7
 10
0.7705604320038137
 20
86.97956392529353
 30
0
 11
0.7705604320038137
 21
90.56028447084064
 31
0
  0
LINE
  8
1
 62
3
  6
DASHDOT
 10
-6.979439567996187
 20
47.84838316634527
 30
0
 11
-6.979439567996187
 21
57.84838316634527
 31
0
  0
LINE
  8
1
 62
3
  6
DASHDOT
 10
125.7873780618863
 20
77.34838316634526
 30
0
 11
125.7873780618863
 21
87.84838316634529
 31
0
  0
LINE
  8
1
 62
3
  6
DIVIDE
 10
143.2873780618863
 20
77.34838316634526
 30
0
 11
143.2873780618863
 21
82.84838316634526
 31
0
  0
LINE
  8
1
 62
3
  6
DIVIDE
 10
116.2873780618863
 20
77.34838316634526
 30
0
 11
143.2873780618863
 21
77.34838316634526
 31
0
  0
LINE
  8
1
 62
3
  6
DIVIDE
 10
116.2873780618863
 20
82.84838316634526
 30
0
 11
116.2873780618863
 21
77.34838316634526
 31
0
  0
LINE
  8
1
 62
7
 10
117.2873780618863
 20
13.84838316634526
 30
0
 11
115.7873780618863
 21
15.34838316634526
 31
0
  0
LINE
  8
1
 62
7
 10
119.7873780618863
 20
14.84838316634526
 30
0
 11
118.7873780618863
 21
13.84838316634526
 31
0
  0
LINE
  8
1
 62
7
 10
115.7873780618863
 20
15.34838316634526
 30
0
 11
115.7873780618863
 21
25.34838316634527
 31
0
  0
LINE
  8
1
 62
7
 10
119.7873780618863
 20
14.84838316634526
 30
0
 11
119.7873780618863
 21
20.84838316634526
 31
0
  0
LINE
  8
1
 62
7
 10
118.7873780618863
 20
13.84838316634526
 30
0
 11
117.2873780618863
 21
13.84838316634526
 31
0
  0
LINE
  8
1
 62
7
 10
132.7873780618863
 20
13.84838316634526
 30
0
 11
131.7873780618863
 21
14.84838316634526
 31
0
  0
LINE
  8
1
 62
7
 10
135.7873780618863
 20
25.34838316634527
 30
0
 11
135.7873780618863
 21
15.34838316634526
 31
0
  0
LINE
  8
1
 62
7
 10
131.7873780618863
 20
20.84838316634526
 30
0
 11
131.7873780618863
 21
14.84838316634526
 31
0
  0
LINE
  8
1
 62
7
 10
131.7873780618863
 20
20.84838316634526
 30
0
 11
119.7873780618863
 21
20.84838316634526
 31
0
  0
LINE
  8
1
 62
7
 10
134.2873780618863
 20
13.84838316634526
 30
0
 11
132.7873780618863
 21
13.84838316634526
 31
0
  0
LINE
  8
1
 62
7
 10
115.7873780618863
 20
90.34838316634527
 30
0
 11
117.2873780618863
 21
91.84838316634527
 31
0
  0
LINE
  8
1
 62
7
 10
118.7873780618863
 20
91.84838316634527
 30
0
 11
119.7873780618864
 21
90.84838316634527
 31
0
  0
LINE
  8
1
 62
7
 10
115.7873780618863
 20
80.34838316634526
 30
0
 11
115.7873780618863
 21
90.34838316634527
 31
0
  0
LINE
  8
1
 62
7
 10
119.7873780618864
 20
84.84838316634527
 30
0
 11
119.7873780618864
 21
90.84838316634527
 31
0
  0
LINE
  8
1
 62
7
 10
117.2873780618863
 20
91.84838316634527
 30
0
 11
118.7873780618863
 21
91.84838316634527
 31
0
  0
LINE
  8
1
 62
7
 10
131.7873780618863
 20
90.84838316634527
 30
0
 11
132.7873780618863
 21
91.84838316634527
 31
0
  0
LINE
  8
1
 62
7
 10
135.7873780618863
 20
90.34838316634527
 30
0
 11
135.7873780618863
 21
80.34838316634526
 31
0
  0
LINE
  8
1
 62
7
 10
131.7873780618863
 20
90.84838316634527
 30
0
 11
131.7873780618863
 21
84.84838316634527
 31
0
  0
LINE
  8
1
 62
7
 10
119.7873780618864
 20
84.84838316634527
 30
0
 11
131.7873780618863
 21
84.84838316634527
 31
0
  0
LINE
  8
1
 62
7
 10
132.7873780618863
 20
91.84838316634527
 30
0
 11
134.2873780618863
 21
91.84838316634527
 31
0
  0
LINE
  8
1
 62
7
 10
146.2873780618863
 20
37.34838316634527
 30
0
 11
71.28737806188639
 21
37.34838316634527
 31
0
  0
LINE
  8
1
 62
7
 10
111.7873780618864
 20
82.84838316634527
 30
0
 11
112.9873780618864
 21
82.84838316634527
 31
0
  0
LINE
  8
1
 62
7
 10
112.9873780618864
 20
84.84838316634527
 30
0
 11
111.7873780618864
 21
84.84838316634527
 31
0
  0
LINE
  8
1
 62
7
 10
111.7873780618864
 20
87.34838316634527
 30
0
 11
98.2873780618864
 21
87.34838316634527
 31
0
  0
LINE
  8
1
 62
7
 10
112.9873780618864
 20
81.34838316634527
 30
0
 11
111.7873780618864
 21
81.34838316634527
 31
0
  0
LINE
  8
1
 62
7
 10
112.9873780618864
 20
90.84838316634527
 30
0
 11
111.7873780618864
 21
90.84838316634527
 31
0
  0
LINE
  8
1
 62
7
 10
112.9873780618864
 20
90.84838316634527
 30
0
 11
112.9873780618864
 21
81.34838316634527
 31
0
  0
LINE
  8
1
 62
7
 10
101.2873780618864
 20
87.34838316634527
 30
0
 11
101.2873780618864
 21
78.09838316634526
 31
0
  0
LINE
  8
1
 62
7
 10
104.9873780618864
 20
86.34838316634527
 30
0
 11
104.9873780618864
 21
81.34838316634527
 31
0
  0
LINE
  8
1
 62
7
 10
109.7873780618864
 20
82.34838316634527
 30
0
 11
109.7873780618864
 21
81.34838316634527
 31
0
  0
LINE
  8
1
 62
7
 10
107.7873780618864
 20
24.79175883931932
 30
0
 11
110.2873780618864
 21
23.34838316634526
 31
0
  0
LINE
  8
1
 62
7
 10
105.2873780618864
 20
23.34838316634526
 30
0
 11
107.7873780618864
 21
24.79175883931932
 31
0
  0
LINE
  8
1
 62
7
 10
110.2873780618864
 20
23.34838316634526
 30
0
 11
110.2873780618864
 21
18.34838316634526
 31
0
  0
LINE
  8
1
 62
7
 10
105.2873780618864
 20
23.34838316634526
 30
0
 11
110.2873780618864
 21
23.34838316634526
 31
0
  0
LINE
  8
1
 62
7
 10
105.2873780618864
 20
18.34838316634526
 30
0
 11
105.2873780618864
 21
23.34838316634526
 31
0
  0
LINE
  8
1
 62
7
 10
111.7873780618864
 20
26.92156504524616
 30
0
 11
101.2873780618864
 21
26.92156504524616
 31
0
  0
LINE
  8
1
 62
3
 10
103.2554894554849
 20
25.92156504524616
 30
0
 11
101.2873780618864
 21
25.92156504524616
 31
0
  0
LINE
  8
1
 62
7
 10
111.7873780618864
 20
24.84838316634526
 30
0
 11
111.7873780618864
 21
26.92156504524616
 31
0
  0
LINE
  8
1
 62
7
 10
111.7873780618864
 20
24.84838316634526
 30
0
 11
114.2873780618864
 21
24.84838316634526
 31
0
  0
LINE
  8
1
 62
7
 10
112.7873780618864
 20
18.34838316634526
 30
0
 11
114.2873780618864
 21
19.84838316634526
 31
0
  0
LINE
  8
1
 62
7
 10
114.2873780618864
 20
25.34838316634527
 30
0
 11
114.2873780618864
 21
19.84838316634526
 31
0
  0
LINE
  8
1
 62
7
 10
98.2873780618864
 20
18.34838316634526
 30
0
 11
112.7873780618864
 21
18.34838316634526
 31
0
  0
LINE
  8
1
 62
7
 10
104.9873780618864
 20
82.34838316634527
 30
0
 11
111.7873780618864
 21
82.34838316634527
 31
0
  0
LINE
  8
1
 62
7
 10
104.9873780618864
 20
85.34838316634527
 30
0
 11
111.7873780618864
 21
85.34838316634527
 31
0
  0
LINE
  8
1
 62
7
 10
109.7873780618864
 20
81.34838316634527
 30
0
 11
101.2873780618864
 21
81.34838316634527
 31
0
  0
LINE
  8
1
 62
7
 10
109.7873780618864
 20
86.34838316634527
 30
0
 11
109.7873780618864
 21
85.34838316634527
 31
0
  0
LINE
  8
1
 62
7
 10
101.2873780618864
 20
86.34838316634527
 30
0
 11
109.7873780618864
 21
86.34838316634527
 31
0
  0
LINE
  8
1
 62
3
 10
103.2554894554849
 20
79.77520128744438
 30
0
 11
101.2873780618864
 21
79.77520128744438
 31
0
  0
LINE
  8
1
 62
7
 10
114.2873780618864
 20
85.84838316634527
 30
0
 11
112.9873780618864
 21
87.14838316634527
 31
0
  0
LINE
  8
1
 62
7
 10
114.2873780618864
 20
85.84838316634527
 30
0
 11
114.2873780618864
 21
80.34838316634526
 31
0
  0
LINE
  8
1
 62
3
 10
111.7873780618864
 20
78.77520128744438
 30
0
 11
112.7100277926967
 21
78.77520128744438
 31
0
  0
LINE
  8
1
 62
7
 10
111.7873780618864
 20
90.84838316634527
 30
0
 11
111.7873780618864
 21
78.77520128744438
 31
0
  0
LINE
  8
1
 62
7
 10
114.2873780618864
 20
80.84838316634527
 30
0
 11
111.7873780618864
 21
80.84838316634527
 31
0
  0
LINE
  8
1
 62
7
 10
79.1802544357592
 20
78.09838316634526
 30
0
 11
102.2873780618863
 21
78.09838316634526
 31
0
  0
LINE
  8
1
 62
7
 10
115.0126607264883
 20
73.60390553119957
 30
0
 11
83.56651418285171
 21
75.03206715238056
 31
0
  0
LINE
  8
1
 62
7
 10
77.0295647117773
 20
67.85425204806107
 30
0
 11
126.9708758946193
 21
70.27611854697062
 31
0
  0
LINE
  8
1
 62
7
 10
71.84571155256762
 20
73.60991590410336
 30
0
 11
73.33800485651322
 21
83.29356504556851
 31
0
  0
LINE
  8
1
 62
7
 10
101.2873780618864
 20
19.59838316634527
 30
0
 11
98.2873780618864
 21
19.59838316634527
 31
0
  0
LINE
  8
1
 62
7
 10
98.2873780618864
 20
24.09838316634527
 30
0
 11
101.2873780618864
 21
24.09838316634527
 31
0
  0
LINE
  8
1
 62
7
 10
101.2873780618864
 20
81.59838316634527
 30
0
 11
98.2873780618864
 21
81.59838316634527
 31
0
  0
LINE
  8
1
 62
7
 10
98.2873780618864
 20
86.09838316634527
 30
0
 11
101.2873780618864
 21
86.09838316634527
 31
0
  0
LINE
  8
1
 62
7
 10
101.2873780618864
 20
18.34838316634527
 30
0
 11
101.2873780618864
 21
30.19838316634527
 31
0
  0
LINE
  8
1
 62
3
 10
83.2873780618864
 20
14.34838316634527
 30
0
 11
98.2873780618864
 21
30.19838316634527
 31
0
  0
LINE
  8
1
 62
3
 10
83.2873780618864
 20
30.19838316634527
 30
0
 11
98.2873780618864
 21
14.34838316634527
 31
0
  0
LINE
  8
1
 62
7
 10
101.2873780618864
 20
30.19838316634527
 30
0
 11
81.2873780618864
 21
30.19838316634527
 31
0
  0
LINE
  8
1
 62
7
 10
98.2873780618864
 20
14.34838316634527
 30
0
 11
98.2873780618864
 21
30.19838316634527
 31
0
  0
LINE
  8
1
 62
7
 10
83.2873780618864
 20
14.34838316634527
 30
0
 11
98.2873780618864
 21
14.34838316634527
 31
0
  0
LINE
  8
1
 62
3
 10
98.2873780618864
 20
91.34838316634527
 30
0
 11
83.2873780618864
 21
78.09838316634526
 31
0
  0
LINE
  8
1
 62
3
 10
83.2873780618864
 20
91.34838316634527
 30
0
 11
98.2873780618864
 21
78.09838316634526
 31
0
  0
LINE
  8
1
 62
7
 10
98.2873780618864
 20
91.34838316634527
 30
0
 11
98.2873780618864
 21
78.09838316634526
 31
0
  0
LINE
  8
1
 62
7
 10
83.2873780618864
 20
78.09838316634526
 30
0
 11
83.2873780618864
 21
91.34838316634527
 31
0
  0
LINE
  8
1
 62
7
 10
98.2873780618864
 20
91.34838316634527
 30
0
 11
83.2873780618864
 21
91.34838316634527
 31
0
  0
LINE
  8
1
 62
7
 10
81.2873780618864
 20
27.59838316634526
 30
0
 11
71.78737806188639
 21
27.59838316634526
 31
0
  0
LINE
  8
1
 62
7
 10
80.7873780618864
 20
18.34838316634525
 30
0
 11
79.2873780618864
 21
19.84838316634525
 31
0
  0
LINE
  8
1
 62
7
 10
81.2873780618864
 20
26.34838316634525
 30
0
 11
79.2873780618864
 21
24.34838316634525
 31
0
  0
LINE
  8
1
 62
7
 10
79.2873780618864
 20
27.59838316634526
 30
0
 11
79.2873780618864
 21
19.84838316634525
 31
0
  0
LINE
  8
1
 62
7
 10
81.2873780618864
 20
30.19838316634527
 30
0
 11
81.2873780618864
 21
26.34838316634525
 31
0
  0
LINE
  8
1
 62
7
 10
80.7873780618864
 20
18.34838316634525
 30
0
 11
83.2873780618864
 21
18.34838316634525
 31
0
  0
LINE
  8
1
 62
7
 10
83.2873780618864
 20
30.19838316634527
 30
0
 11
83.2873780618864
 21
14.34838316634527
 31
0
  0
LINE
  8
1
 62
7
 10
79.2873780618864
 20
85.84838316634527
 30
0
 11
80.7873780618864
 21
87.34838316634527
 31
0
  0
LINE
  8
1
 62
7
 10
79.2873780618864
 20
81.34838316634527
 30
0
 11
81.2873780618864
 21
79.34838316634527
 31
0
  0
LINE
  8
1
 62
7
 10
79.2873780618864
 20
85.84838316634527
 30
0
 11
79.2873780618864
 21
78.09838316634526
 31
0
  0
LINE
  8
1
 62
7
 10
81.2873780618864
 20
79.34838316634527
 30
0
 11
81.2873780618864
 21
78.09838316634526
 31
0
  0
LINE
  8
1
 62
7
 10
83.2873780618864
 20
87.34838316634527
 30
0
 11
80.7873780618864
 21
87.34838316634527
 31
0
  0
LINE
  8
1
 62
3
  6
DIVIDE
 10
81.2873780618864
 20
65.84838316634527
 30
0
 11
100.2873780618863
 21
65.84838316634527
 31
0
  0
LINE
  8
1
 62
3
 10
113.2873780618863
 20
79.77520128744438
 30
0
 11
112.7100277926967
 21
78.77520128744438
 31
0
  0
LINE
  8
1
 62
7
 10
146.2873780618863
 20
71.84838316634527
 30
0
 11
146.2873780618863
 21
33.84838316634526
 31
0
  0
LINE
  8
1
 62
7
 10
146.2873780618863
 20
33.84838316634526
 30
0
 11
145.7873780618863
 21
33.34838316634526
 31
0
  0
LINE
  8
1
 62
7
 10
145.7873780618863
 20
33.34838316634526
 30
0
 11
145.7873780618863
 21
25.34838316634527
 31
0
  0
LINE
  8
1
 62
7
 10
145.7873780618863
 20
25.34838316634527
 30
0
 11
113.6183047739643
 21
25.34838316634527
 31
0
  0
LINE
  8
1
 62
7
 10
102.2873780618863
 20
27.59838316634526
 30
0
 11
101.2873780618864
 21
27.59838316634526
 31
0
  0
LINE
  8
1
 62
7
 10
71.78737806188639
 20
27.59838316634526
 30
0
 11
71.78737806188639
 21
33.34838316634526
 31
0
  0
LINE
  8
1
 62
7
 10
71.78737806188639
 20
33.34838316634526
 30
0
 11
71.28737806188639
 21
33.84838316634526
 31
0
  0
LINE
  8
1
 62
7
 10
71.28737806188639
 20
33.84838316634526
 30
0
 11
71.28737806188639
 21
71.84838316634527
 31
0
  0
LINE
  8
1
 62
7
 10
113.6183047739643
 20
25.34838316634527
 30
0
 11
113.2873780618863
 21
25.92156504524616
 31
0
  0
LINE
  8
1
 62
7
 10
113.2873780618863
 20
25.92156504524616
 30
0
 11
103.2554894554849
 21
25.92156504524616
 31
0
  0
LINE
  8
1
 62
7
 10
103.2554894554849
 20
25.92156504524616
 30
0
 11
102.2873780618863
 21
27.59838316634526
 31
0
  0
LINE
  8
1
 62
3
 10
113.2873780618863
 20
25.92156504524616
 30
0
 11
112.7100277926967
 21
26.92156504524616
 31
0
  0
LINE
  8
1
 62
3
 10
112.7100277926967
 20
26.92156504524616
 30
0
 11
111.7873780618864
 21
26.92156504524616
 31
0
  0
LINE
  8
1
 62
7
 10
146.2873780618863
 20
40.34838316634526
 30
0
 11
71.28737806188639
 21
40.34838316634526
 31
0
  0
LINE
  8
1
 62
7
 10
145.7873780618863
 20
72.34838316634527
 30
0
 11
146.2873780618863
 21
71.84838316634527
 31
0
  0
LINE
  8
1
 62
7
 10
145.7873780618863
 20
80.34838316634526
 30
0
 11
145.7873780618863
 21
72.34838316634527
 31
0
  0
LINE
  8
1
 62
7
 10
113.6183047739643
 20
80.34838316634526
 30
0
 11
145.7873780618863
 21
80.34838316634526
 31
0
  0
LINE
  8
1
 62
7
 10
71.78737806188639
 20
78.09838316634526
 30
0
 11
72.53740427527703
 21
78.09838316634526
 31
0
  0
LINE
  8
1
 62
7
 10
71.78737806188639
 20
72.34838316634527
 30
0
 11
71.78737806188639
 21
78.09838316634526
 31
0
  0
LINE
  8
1
 62
7
 10
71.28737806188639
 20
71.84838316634527
 30
0
 11
71.78737806188639
 21
72.34838316634527
 31
0
  0
LINE
  8
1
 62
7
 10
113.2873780618863
 20
79.77520128744438
 30
0
 11
113.6183047739643
 21
80.34838316634526
 31
0
  0
LINE
  8
1
 62
7
 10
103.2554894554849
 20
79.77520128744438
 30
0
 11
113.2873780618863
 21
79.77520128744438
 31
0
  0
LINE
  8
1
 62
7
 10
102.2873780618863
 20
78.09838316634526
 30
0
 11
103.2554894554849
 21
79.77520128744438
 31
0
  0
LINE
  8
1
 62
7
 10
101.2873780618864
 20
78.77520128744438
 30
0
 11
111.7873780618864
 21
78.77520128744438
 31
0
  0
LINE
  8
1
 62
7
 10
103.2873780618863
 20
30.84838316634526
 30
0
 11
71.78737806188639
 21
30.84838316634526
 31
0
  0
LINE
  8
1
 62
7
 10
115.2873780618863
 20
67.34838316634527
 30
0
 11
71.28737806188639
 21
67.34838316634527
 31
0
  0
LINE
  8
1
 62
3
  6
DIVIDE
 10
100.2873780618863
 20
65.84838316634527
 30
0
 11
100.2873780618863
 21
39.84838316634526
 31
0
  0
LINE
  8
1
 62
3
  6
DIVIDE
 10
100.2873780618863
 20
39.84838316634526
 30
0
 11
81.2873780618864
 21
39.84838316634526
 31
0
  0
LINE
  8
1
 62
3
  6
DIVIDE
 10
81.2873780618864
 20
39.84838316634526
 30
0
 11
81.2873780618864
 21
65.84838316634527
 31
0
  0
LINE
  8
1
 62
3
  6
DIVIDE
 10
96.7873780618863
 20
30.84838316634526
 30
0
 11
96.7873780618863
 21
39.84838316634526
 31
0
  0
LINE
  8
1
 62
3
  6
DIVIDE
 10
93.7873780618863
 20
39.84838316634526
 30
0
 11
93.7873780618863
 21
30.84838316634526
 31
0
  0
LINE
  8
1
 62
3
  6
DIVIDE
 10
87.78737806188639
 20
30.84838316634526
 30
0
 11
87.7873780618864
 21
39.84838316634526
 31
0
  0
LINE
  8
1
 62
3
  6
DIVIDE
 10
84.7873780618864
 20
39.84838316634526
 30
0
 11
84.7873780618864
 21
30.84838316634526
 31
0
  0
LINE
  8
1
 62
7
 10
-3.479439567996181
 20
67.34838316634527
 30
0
 11
-3.479439567996181
 21
85.83664540291366
 31
0
  0
LINE
  8
1
 62
7
 10
-10.47943956799618
 20
67.34838316634527
 30
0
 11
-10.47943956799618
 21
85.83664540291366
 31
0
  0
LINE
  8
1
 62
7
 10
-3.479439567996181
 20
85.83664540291366
 30
0
 11
-10.47943956799618
 21
85.83664540291366
 31
0
  0
LINE
  8
1
 62
7
 10
-3.479439567996181
 20
67.34838316634527
 30
0
 11
-10.47943956799618
 21
67.34838316634527
 31
0
  0
LINE
  8
1
 62
7
 10
-10.47943956799618
 20
67.84838316634527
 30
0
 11
-3.479439567996181
 21
67.84838316634527
 31
0
  0
LINE
  8
1
 62
7
 10
-17.78680792287055
 20
42.56729425309973
 30
0
 11
-33.79811269156729
 21
33.32316313481555
 31
0
  0
LINE
  8
1
 62
7
 10
-18.21982062476278
 20
42.31729425309973
 30
0
 11
-21.71982062476278
 21
48.3794720795908
 31
0
  0
LINE
  8
1
 62
7
 10
-21.28680792287055
 20
48.6294720795908
 30
0
 11
-17.78680792287055
 21
42.56729425309973
 31
0
  0
LINE
  8
1
 62
7
 10
-21.28680792287055
 20
48.6294720795908
 30
0
 11
-37.29811269156728
 21
39.38534096130662
 31
0
  0
LINE
  8
1
 62
7
 10
-37.29811269156728
 20
39.38534096130662
 30
0
 11
-33.79811269156729
 21
33.32316313481555
 31
0
  0
LINE
  8
1
 62
7
 10
7.760941488770399
 20
48.37947207959078
 30
0
 11
4.260941488770406
 21
42.31729425309972
 31
0
  0
LINE
  8
1
 62
7
 10
3.827928786878182
 20
42.56729425309973
 30
0
 11
7.327928786878175
 21
48.62947207959079
 31
0
  0
LINE
  8
1
 62
7
 10
7.327928786878175
 20
48.62947207959079
 30
0
 11
23.3392335555749
 21
39.38534096130658
 31
0
  0
LINE
  8
1
 62
7
 10
3.827928786878182
 20
42.56729425309973
 30
0
 11
19.83923355557489
 21
33.32316313481552
 31
0
  0
LINE
  8
1
 62
7
 10
19.83923355557489
 20
33.32316313481552
 30
0
 11
23.3392335555749
 21
39.38534096130658
 31
0
  0
LINE
  8
1
 62
3
  6
DASHDOT
 10
-11.97943956799619
 20
52.84838316634527
 30
0
 11
-1.979439567996188
 21
52.84838316634527
 31
0
  0
LINE
  8
1
 62
3
  6
DIVIDE
 10
143.2873780618863
 20
82.84838316634526
 30
0
 11
116.2873780618863
 21
82.84838316634526
 31
0
  0
LINE
  8
1
 62
3
  6
DASHDOT
 10
66.28737806188639
 20
52.84838316634527
 30
0
 11
71.28737806188639
 21
52.84838316634527
 31
0
  0
LINE
  8
1
 62
7
 10
71.28737806188639
 20
65.34838316634527
 30
0
 11
146.2873780618863
 21
65.34838316634527
 31
0
  0
LINE
  8
1
 62
7
 10
109.7873780618864
 20
85.34838316634527
 30
0
 11
109.611051081178
 21
86.34838316634527
 31
0
  0
LINE
  8
1
 62
7
 10
109.611051081178
 20
86.34838316634527
 30
0
 11
108.7294161776355
 21
81.34838316634527
 31
0
  0
LINE
  8
1
 62
7
 10
108.7294161776355
 20
81.34838316634527
 30
0
 11
107.8477812740933
 21
86.34838316634527
 31
0
  0
LINE
  8
1
 62
7
 10
106.9661463705509
 20
81.34838316634527
 30
0
 11
106.0845114670086
 21
86.34838316634527
 31
0
  0
LINE
  8
1
 62
7
 10
107.8477812740933
 20
86.34838316634527
 30
0
 11
106.9661463705509
 21
81.34838316634527
 31
0
  0
LINE
  8
1
 62
7
 10
106.0845114670086
 20
86.34838316634527
 30
0
 11
105.2028765634663
 21
81.34838316634527
 31
0
  0
ARC
  8
1
 62
3
  6
DIVIDE
 10
144.2873780618863
 20
23.34838316634529
 30
0
 40
2
 50
0
 51
90
  0
ARC
  8
1
 62
3
  6
DIVIDE
 10
144.7873780618863
 20
15.34838316634527
 30
0
 40
1.5
 50
270
 51
0
  0
ARC
  8
1
 62
3
  6
DIVIDE
 10
128.2873780618864
 20
23.34838316634527
 30
0
 40
2.000000000000021
 50
90
 51
180
  0
ARC
  8
1
 62
3
  6
DIVIDE
 10
128.2873780618864
 20
82.34838316634527
 30
0
 40
2.000000000000085
 50
180
 51
270
  0
ARC
  8
1
 62
3
  6
DIVIDE
 10
144.7873780618863
 20
90.34838316634527
 30
0
 40
1.5
 50
0
 51
90
  0
ARC
  8
1
 62
3
  6
DIVIDE
 10
144.2873780618863
 20
82.34838316634526
 30
0
 40
2
 50
270
 51
0
  0
ARC
  8
1
 62
7
 10
76.30300476210449
 20
82.83664540291368
 30
0
 40
3.000000000000031
 50
339.438299686526
 51
354.1494143727539
  0
ARC
  8
1
 62
3
  6
DIVIDE
 10
-6.979439567996186
 20
52.84838316634527
 30
0
 40
13
 50
129.7477532578124
 51
170.2522467421877
  0
ARC
  8
1
 62
3
  6
DIVIDE
 10
-6.979439567996186
 20
52.84838316634527
 30
0
 40
13
 50
9.747753257812352
 51
50.25224674218763
  0
ARC
  8
1
 62
7
 10
-6.979439567996186
 20
52.84838316634527
 30
0
 40
24.75
 50
98.12968477860798
 51
141.870315221392
  0
ARC
  8
1
 62
7
 10
-6.979439567996186
 20
52.84838316634527
 30
0
 40
25.24999999999998
 50
97.96764431917576
 51
142.0323556808241
  0
ARC
  8
1
 62
7
 10
-6.979439567996186
 20
52.84838316634527
 30
0
 40
25.25
 50
337.9676443191758
 51
22.03235568082419
  0
ARC
  8
1
 62
7
 10
-6.979439567996186
 20
52.84838316634527
 30
0
 40
24.74999999999999
 50
338.1296847786079
 51
21.87031522139198
  0
ARC
  8
1
 62
7
 10
-6.979439567996186
 20
52.84838316634527
 30
0
 40
25.25000000000001
 50
217.9676443191758
 51
262.0323556808242
  0
ARC
  8
1
 62
7
 10
-6.979439567996186
 20
52.84838316634527
 30
0
 40
24.74999999999999
 50
218.129684778608
 51
261.870315221392
  0
ARC
  8
1
 62
7
 10
-6.979439567996186
 20
52.84838316634527
 30
0
 40
12.5
 50
286.260204708312
 51
253.739795291688
  0
ARC
  8
1
 62
7
 10
-6.979439567996186
 20
52.84838316634527
 30
0
 40
35
 50
102.7929537269482
 51
137.2070462730518
  0
ARC
  8
1
 62
7
 10
-6.979439567996186
 20
52.84838316634527
 30
0
 40
35.00000000000001
 50
162.7929537269482
 51
197.2070462730518
  0
ARC
  8
1
 62
7
 10
-6.979439567996186
 20
52.84838316634527
 30
0
 40
35.00000000000001
 50
222.7929537269482
 51
257.2070462730518
  0
ARC
  8
1
 62
7
 10
-6.979439567996186
 20
52.84838316634527
 30
0
 40
35.00000000000001
 50
282.7929537269482
 51
317.2070462730518
  0
ARC
  8
1
 62
7
 10
-6.979439567996186
 20
52.84838316634527
 30
0
 40
35.00000000000001
 50
342.7929537269482
 51
17.20704627305175
  0
ARC
  8
1
 62
7
 10
-6.979439567996186
 20
52.84838316634527
 30
0
 40
38.5
 50
18.38708617464945
 51
41.61291382535046
  0
ARC
  8
1
 62
7
 10
-6.979439567996186
 20
52.84838316634527
 30
0
 40
38.50000000000001
 50
318.3870861746495
 51
341.6129138253505
  0
ARC
  8
1
 62
7
 10
-6.979439567996186
 20
52.84838316634527
 30
0
 40
38.50000000000001
 50
258.3870861746495
 51
281.6129138253505
  0
ARC
  8
1
 62
7
 10
-6.979439567996186
 20
52.84838316634527
 30
0
 40
38.49999999999999
 50
198.3870861746495
 51
221.6129138253505
  0
ARC
  8
1
 62
7
 10
-6.979439567996186
 20
52.84838316634527
 30
0
 40
38.49999999999999
 50
138.3870861746495
 51
161.6129138253505
  0
ARC
  8
1
 62
7
 10
-6.979439567996186
 20
52.84838316634527
 30
0
 40
38.49999999999999
 50
78.3870861746495
 51
101.6129138253505
  0
ARC
  8
1
 62
7
 10
-6.979439567996186
 20
52.84838316634527
 30
0
 40
35
 50
42.79295372694816
 51
77.2070462730518
  0
ARC
  8
1
 62
7
 10
117.7873780618863
 20
23.34838316634527
 30
0
 40
2
 50
90
 51
180
  0
ARC
  8
1
 62
7
 10
133.7873780618863
 20
23.34838316634527
 30
0
 40
2
 50
0
 51
90
  0
ARC
  8
1
 62
7
 10
117.7873780618864
 20
82.34838316634527
 30
0
 40
2.0000000000001
 50
180
 51
270
  0
ARC
  8
1
 62
7
 10
133.7873780618863
 20
82.34838316634526
 30
0
 40
2
 50
270
 51
0
  0
ARC
  8
1
 62
7
 10
115.1487687562252
 20
76.60081637475851
 30
0
 40
2.999999999999999
 50
267.3996355033769
 51
29.99011268223546
  0
ARC
  8
1
 62
7
 10
119.0462712892876
 20
78.85014383085999
 30
0
 40
1.499999999999967
 50
74.37951682166531
 51
209.9901126822344
  0
ARC
  8
1
 62
7
 10
116.2189978929504
 20
68.73794698040439
 30
0
 40
12.00000000000008
 50
13.33452818997268
 51
74.37951682166381
  0
ARC
  8
1
 62
7
 10
126.9224385646412
 20
71.27494477062746
 30
0
 40
0.9999999999999902
 50
272.7763409314224
 51
13.33452818997296
  0
ARC
  8
1
 62
7
 10
83.7933608990799
 20
80.0269185583121
 30
0
 40
4.99999999999996
 50
159.438299686526
 51
267.3996355033764
  0
ARC
  8
1
 62
7
 10
76.7873780618864
 20
72.84838316634527
 30
0
 40
5.000000000000017
 50
171.239381898612
 51
272.7763409314269
  0
ARC
  8
1
 62
7
 10
76.30300476210449
 20
82.83664540291368
 30
0
 40
3.000000000000011
 50
5.850585627246092
 51
171.2393818986123
  0
ARC
  8
1
 62
7
 10
103.2873780618863
 20
-9.151616833654771
 30
0
 40
40.00000000000006
 50
59.59845233675698
 51
90
  0
ARC
  8
1
 62
7
 10
115.2873780618863
 20
107.3483831663453
 30
0
 40
40.00000000000003
 50
270
 51
317.545849795599
  0
ARC
  8
1
 62
7
 10
-6.979439567996186
 20
52.84838316634527
 30
0
 40
33.00000000000001
 50
336.0882760441169
 51
83.91172395588302
  0
ARC
  8
1
 62
7
 10
-6.979439567996186
 20
52.84838316634527
 30
0
 40
19.00000000000001
 50
340.6151078507078
 51
79.38489214929204
  0
ARC
  8
1
 62
7
 10
-6.979439567996186
 20
52.84838316634527
 30
0
 40
19.5
 50
340.3398908939275
 51
79.66010910607244
  0
ARC
  8
1
 62
7
 10
-6.979439567996186
 20
52.84838316634527
 30
0
 40
24.74999999999999
 50
38.12968477860798
 51
81.87031522139196
  0
ARC
  8
1
 62
7
 10
-6.979439567996186
 20
52.84838316634527
 30
0
 40
25.24999999999999
 50
37.96764431917578
 51
82.0323556808242
  0
ARC
  8
1
 62
7
 10
-6.979439567996186
 20
52.84838316634527
 30
0
 40
19.00000000000001
 50
220.6151078507078
 51
319.3848921492921
  0
ARC
  8
1
 62
7
 10
-6.979439567996186
 20
52.84838316634527
 30
0
 40
19.5
 50
220.3398908939276
 51
319.6601091060724
  0
ARC
  8
1
 62
7
 10
-6.979439567996186
 20
52.84838316634527
 30
0
 40
24.75
 50
278.129684778608
 51
321.8703152213919
  0
ARC
  8
1
 62
7
 10
-6.979439567996186
 20
52.84838316634527
 30
0
 40
25.25
 50
277.9676443191758
 51
322.0323556808242
  0
ARC
  8
1
 62
7
 10
-6.979439567996186
 20
52.84838316634527
 30
0
 40
18.99999999999999
 50
100.6151078507079
 51
199.3848921492921
  0
ARC
  8
1
 62
7
 10
-6.979439567996186
 20
52.84838316634527
 30
0
 40
19.5
 50
100.3398908939275
 51
199.6601091060725
  0
ARC
  8
1
 62
7
 10
-6.979439567996186
 20
52.84838316634527
 30
0
 40
24.75000000000001
 50
158.129684778608
 51
201.870315221392
  0
ARC
  8
1
 62
7
 10
-6.979439567996186
 20
52.84838316634527
 30
0
 40
25.24999999999999
 50
157.9676443191758
 51
202.0323556808242
  0
ARC
  8
1
 62
7
 10
-6.979439567996186
 20
52.84838316634527
 30
0
 40
33.00000000000001
 50
216.088276044117
 51
323.911723955883
  0
ARC
  8
1
 62
7
 10
-6.979439567996186
 20
52.84838316634527
 30
0
 40
33
 50
96.08827604411697
 51
203.911723955883
  0
ARC
  8
1
 62
7
 10
134.2873780618863
 20
15.34838316634526
 30
0
 40
1.5
 50
270
 51
0
  0
ARC
  8
1
 62
7
 10
134.2873780618863
 20
90.34838316634527
 30
0
 40
1.5
 50
0
 51
90
  0
ARC
  8
1
 62
7
 10
-6.979439567996186
 20
52.84838316634527
 30
0
 40
26.50000000000002
 50
337.589542391858
 51
82.41045760814198
  0
ARC
  8
1
 62
7
 10
-6.979439567996186
 20
52.84838316634527
 30
0
 40
26.50000000000002
 50
217.589542391858
 51
322.410457608142
  0
ARC
  8
1
 62
7
 10
-6.979439567996186
 20
52.84838316634527
 30
0
 40
28.50000000000002
 50
217.054131382119
 51
322.945868617881
  0
ARC
  8
1
 62
7
 10
-6.979439567996186
 20
52.84838316634527
 30
0
 40
28.50000000000003
 50
337.0541313821189
 51
82.945868617881
  0
ARC
  8
1
 62
7
 10
-6.979439567996186
 20
52.84838316634527
 30
0
 40
26.50000000000002
 50
97.58954239185799
 51
202.410457608142
  0
ARC
  8
1
 62
7
 10
-6.979439567996186
 20
52.84838316634527
 30
0
 40
28.50000000000001
 50
97.05413138211898
 51
202.945868617881
  0
CIRCLE
  8
1
 62
7
 10
-6.979439567996186
 20
52.84838316634527
 30
0
 40
34.50000000000001
  0
CIRCLE
  8
1
 62
7
 10
76.7873780618864
 20
72.84838316634527
 30
0
 40
2.5
  0
TEXT
  8
1
 62
7
 10
-15.23592841045756
 20
100.972453934565
 30
0
 40
3
  1
OS 255
 41
0.9
  7
SIMPLEX
 72
1
 11
-7.13592841045756
 21
100.972453934565
 31
0
  0
ENDSEC
  0
EOF
