  0
SECTION
  2
HEADER
  9
$ACADVER
  1
AC1009
  9
$INSBASE
 10
0
 20
0
  9
$EXTMIN
 10
-660.1344730386371
 20
10.96666340977205
  9
$EXTMAX
 10
-412.291831400222
 20
121.904383386076
  9
$LIMMIN
 10
-660.1344730386371
 20
10.96666340977205
  9
$LIMMAX
 10
-412.291831400222
 20
121.904383386076
  9
$VIEWCTR
 10
10
 20
10
  9
$VIEWSIZE
 40
10
  9
$SNAPMODE
 70
0
  9
$SNAPUNIT
 10
1
 20
1
  9
$SNAPBASE
 10
0
 20
0
  9
$SNAPANG
 50
0
  9
$SNAPSTYLE
 70
0
  9
$SNAPISOPAIR
 70
0
  9
$GRIDMODE
 70
0
  9
$GRIDUNIT
 10
0
 20
0
  9
$ORTHOMODE
 70
0
  9
$REGENMODE
 70
1
  9
$FILLMODE
 70
1
  9
$QTEXTMODE
 70
0
  9
$DRAGMODE
 70
2
  9
$LTSCALE
 40
1
  9
$OSMODE
 70
0
  9
$ATTMODE
 70
1
  9
$TEXTSIZE
 40
3.5
  9
$TRACEWID
 40
0.5
  9
$TEXTSTYLE
  7
STANDARD
  9
$CLAYER
  8
0
  9
$CELTYPE
  6
BYLAYER
  9
$CECOLOR
 62
256
  9
$DIMSCALE
 40
1
  9
$DIMASZ
 40
0.18
  9
$DIMEXO
 40
0.0625
  9
$DIMDLI
 40
0.38
  9
$DIMRND
 40
0
  9
$DIMDLE
 40
0
  9
$DIMEXE
 40
0.18
  9
$DIMTP
 40
0
  9
$DIMTM
 40
0
  9
$DIMTXT
 40
0.18
  9
$DIMCEN
 40
0.09
  9
$DIMTSZ
 40
0
  9
$DIMTOL
 70
0
  9
$DIMLIM
 70
0
  9
$DIMTIH
 70
1
  9
$DIMTOH
 70
1
  9
$DIMSE1
 70
0
  9
$DIMSE2
 70
0
  9
$DIMTAD
 70
0
  9
$DIMZIN
 70
0
  9
$DIMBLK
  1

  9
$DIMASO
 70
1
  9
$DIMSHO
 70
1
  9
$DIMPOST
  1

  9
$DIMAPOST
  1

  9
$DIMALT
 70
0
  9
$DIMALTD
 70
2
  9
$DIMALTF
 40
25.4
  9
$DIMLFAC
 40
1
  9
$DIMTOFL
 70
0
  9
$DIMTVP
 40
0
  9
$DIMTIX
 70
0
  9
$DIMSOXD
 70
0
  9
$DIMSAH
 70
0
  9
$DIMBLK1
  1

  9
$DIMBLK2
  1

  9
$DIMSTYLE
  2
*UNNAMED
  9
$DIMCLRD
 70
0
  9
$DIMCLRE
 70
0
  9
$DIMCLRT
 70
0
  9
$DIMTFAC
 40
1
  9
$DIMGAP
 40
0.09
  9
$LUNITS
 70
2
  9
$LUPREC
 70
4
  9
$AXISMODE
 70
0
  9
$AXISUNIT
 10
0
 20
0
  9
$SKETCHINC
 40
0.1
  9
$FILLETRAD
 40
2
  9
$AUNITS
 70
0
  9
$AUPREC
 70
0
  9
$MENU
  1
ACAD
  9
$ELEVATION
 40
0
  9
$THICKNESS
 40
0
  9
$VIEWDIR
 10
0
 20
0
 30
1
  9
$LIMCHECK
 70
0
  9
$BLIPMODE
 70
1
  9
$CHAMFERA
 40
0
  9
$CHAMFERB
 40
0
  9
$FASTZOOM
 70
1
  9
$SKPOLY
 70
0
  9
$ANGBASE
 50
0
  9
$ANGDIR
 70
0
  9
$PDMODE
 70
0
  9
$PDSIZE
 40
0
  9
$PLINEWID
 40
0
  9
$COORDS
 70
2
  0
ENDSEC
  0
SECTION
  2
TABLES
  0
TABLE
  2
DIMSTYLE
 70
0
  0
ENDTAB
  0
TABLE
  2
LTYPE
 70
9
  0
LTYPE
  2
CONTINUOUS
 70
64
  3
Solid line
 72
65
 73
0
 40
0
  0
LTYPE
  2
BORDER
 70
64
  3
__ __ . __ __ .
 72
65
 73
6
 40
11.41380586492701
 49
3.261087389979146
 49
-1.630543694989573
 49
3.261087389979146
 49
-1.630543694989573
 49
0
 49
-1.630543694989573
  0
LTYPE
  2
CENTER
 70
64
  3
____ _ ____ _
 72
65
 73
4
 40
13.04434955991659
 49
8.152718474947866
 49
-1.630543694989573
 49
1.630543694989573
 49
-1.630543694989573
  0
LTYPE
  2
DASHDOT
 70
64
  3
__ . __ . __ .
 72
65
 73
4
 40
6.522174779958292
 49
3.261087389979146
 49
-1.630543694989573
 49
0
 49
-1.630543694989573
  0
LTYPE
  2
DASHED
 70
64
  3
__ __ __ __ __
 72
65
 73
2
 40
4.89163108496872
 49
3.261087389979146
 49
-1.630543694989573
  0
LTYPE
  2
DIVIDE
 70
64
  3
__ . . __ . . 
 72
65
 73
6
 40
8.152718474947866
 49
3.261087389979146
 49
-1.630543694989573
 49
0
 49
-1.630543694989573
 49
0
 49
-1.630543694989573
  0
LTYPE
  2
DOT
 70
64
  3
..............
 72
65
 73
4
 40
3.261087389979146
 49
0
 49
-1.630543694989573
 49
0
 49
-1.630543694989573
  0
LTYPE
  2
HIDDEN
 70
64
  3
_ _ _ _ _ _ _
 72
65
 73
2
 40
2.44581554248436
 49
1.630543694989573
 49
-0.8152718474947865
  0
LTYPE
  2
PHANTOM
 70
64
  3
_____ _ _ _____ _ _ 
 72
65
 73
6
 40
16.30543694989573
 49
8.152718474947866
 49
-1.630543694989573
 49
1.630543694989573
 49
-1.630543694989573
 49
1.630543694989573
 49
-1.630543694989573
  0
ENDTAB
  0
TABLE
  2
LAYER
 70
3
  0
LAYER
  2
1
 70
0
 62
7
  6
CONTINUOUS
  0
LAYER
  2
0
 70
0
 62
7
  6
CONTINUOUS
  0
ENDTAB
  0
TABLE
  2
STYLE
 70
4
  0
STYLE
  2
STANDARD
 70
0
 40
0
 41
1
 50
0
 71
0
 42
3.5
  3
txt
  4

  0
STYLE
  2
SIMPLEX
 70
0
 40
0
 41
1
 50
0
 71
0
 42
3.5
  3
simplex
  4

  0
STYLE
  2
COMPLEX
 70
0
 40
0
 41
1
 50
0
 71
0
 42
3.5
  3
complex
  4

  0
STYLE
  2
ITALIC
 70
0
 40
0
 41
1
 50
0
 71
0
 42
3.5
  3
italic
  4

  0
ENDTAB
  0
TABLE
  2
VIEW
 70
0
  0
ENDTAB
  0
ENDSEC
  0
SECTION
  2
BLOCKS
  0
ENDSEC
  0
SECTION
  2
ENTITIES
  0
LINE
  8
1
 62
3
  6
DIVIDE
 10
-418.291831400222
 20
26.7166634097721
 30
0
 11
-418.291831400222
 21
15.46666340977211
 31
0
  0
LINE
  8
1
 62
3
  6
DIVIDE
 10
-424.291831400222
 20
14.46666340977211
 30
0
 11
-424.291831400222
 21
20.96666340977208
 31
0
  0
LINE
  8
1
 62
3
  6
DIVIDE
 10
-424.291831400222
 20
14.46666340977211
 30
0
 11
-423.291831400222
 21
13.46666340977211
 31
0
  0
LINE
  8
1
 62
3
  6
DIVIDE
 10
-420.291831400222
 20
13.46666340977211
 30
0
 11
-423.291831400222
 21
13.46666340977211
 31
0
  0
LINE
  8
1
 62
3
  6
DIVIDE
 10
-424.291831400222
 20
20.96666340977208
 30
0
 11
-442.291831400222
 21
20.96666340977208
 31
0
  0
LINE
  8
1
 62
3
  6
DIVIDE
 10
-442.291831400222
 20
20.96666340977208
 30
0
 11
-442.291831400222
 21
14.46666340977211
 31
0
  0
LINE
  8
1
 62
3
  6
DIVIDE
 10
-443.291831400222
 20
13.46666340977211
 30
0
 11
-442.291831400222
 21
14.46666340977211
 31
0
  0
LINE
  8
1
 62
3
  6
DIVIDE
 10
-448.2918314002221
 20
15.46666340977211
 30
0
 11
-446.2918314002221
 21
13.46666340977211
 31
0
  0
LINE
  8
1
 62
3
  6
DIVIDE
 10
-443.291831400222
 20
13.46666340977211
 30
0
 11
-446.2918314002221
 21
13.46666340977211
 31
0
  0
LINE
  8
1
 62
3
  6
DIVIDE
 10
-448.2918314002221
 20
15.46666340977211
 30
0
 11
-448.2918314002221
 21
26.71666340977211
 31
0
  0
LINE
  8
1
 62
3
  6
DASHDOT
 10
-433.291831400222
 20
29.71666340977211
 30
0
 11
-433.291831400222
 21
17.96666340977211
 31
0
  0
LINE
  8
1
 62
3
  6
DASHDOT
 10
-444.291831400222
 20
29.71666340977211
 30
0
 11
-444.291831400222
 21
17.96666340977211
 31
0
  0
LINE
  8
1
 62
3
  6
DIVIDE
 10
-448.2918314002221
 20
92.2166634097721
 30
0
 11
-448.2918314002221
 21
103.4666634097721
 31
0
  0
LINE
  8
1
 62
3
  6
DIVIDE
 10
-442.291831400222
 20
104.4666634097721
 30
0
 11
-443.291831400222
 21
105.4666634097721
 31
0
  0
LINE
  8
1
 62
3
  6
DIVIDE
 10
-446.2918314002221
 20
105.4666634097721
 30
0
 11
-448.2918314002221
 21
103.4666634097721
 31
0
  0
LINE
  8
1
 62
3
  6
DIVIDE
 10
-446.2918314002221
 20
105.4666634097721
 30
0
 11
-443.291831400222
 21
105.4666634097721
 31
0
  0
LINE
  8
1
 62
3
  6
DIVIDE
 10
-442.291831400222
 20
104.4666634097721
 30
0
 11
-442.291831400222
 21
97.96666340977212
 31
0
  0
LINE
  8
1
 62
3
  6
DIVIDE
 10
-442.291831400222
 20
97.96666340977212
 30
0
 11
-424.291831400222
 21
97.96666340977212
 31
0
  0
LINE
  8
1
 62
3
  6
DIVIDE
 10
-424.291831400222
 20
97.96666340977212
 30
0
 11
-424.291831400222
 21
104.4666634097721
 31
0
  0
LINE
  8
1
 62
3
  6
DIVIDE
 10
-423.291831400222
 20
105.4666634097721
 30
0
 11
-424.291831400222
 21
104.4666634097721
 31
0
  0
LINE
  8
1
 62
3
  6
DIVIDE
 10
-423.291831400222
 20
105.4666634097721
 30
0
 11
-420.291831400222
 21
105.4666634097721
 31
0
  0
LINE
  8
1
 62
3
  6
DIVIDE
 10
-418.291831400222
 20
103.4666634097721
 30
0
 11
-418.291831400222
 21
92.2166634097721
 31
0
  0
LINE
  8
1
 62
7
 10
-640.6903360675246
 20
69.51954909274207
 30
0
 11
-636.1903360675246
 21
77.31377772680196
 31
0
  0
LINE
  8
1
 62
7
 10
-592.366118536353
 20
77.31377772680207
 30
0
 11
-587.866118536353
 21
69.51954909274218
 31
0
  0
LINE
  8
1
 62
7
 10
-471.591831400222
 20
97.53137978317096
 30
0
 11
-471.139602705727
 21
94.96666340977212
 31
0
  0
LINE
  8
1
 62
7
 10
-464.9681583809306
 20
101.9666634097721
 30
0
 11
-464.7918314002221
 21
100.9666634097721
 31
0
  0
LINE
  8
1
 62
7
 10
-466.2024472458899
 20
94.96666340977212
 30
0
 11
-464.9681583809306
 21
101.9666634097721
 31
0
  0
LINE
  8
1
 62
7
 10
-468.6710249758085
 20
94.96666340977212
 30
0
 11
-467.4367361108492
 21
101.9666634097721
 31
0
  0
LINE
  8
1
 62
7
 10
-467.4367361108492
 20
101.9666634097721
 30
0
 11
-466.2024472458899
 21
94.96666340977212
 31
0
  0
LINE
  8
1
 62
7
 10
-469.9053138407678
 20
101.9666634097721
 30
0
 11
-468.6710249758085
 21
94.96666340977212
 31
0
  0
LINE
  8
1
 62
7
 10
-471.139602705727
 20
94.96666340977212
 30
0
 11
-469.9053138407678
 21
101.9666634097721
 31
0
  0
LINE
  8
1
 62
3
  6
DASHDOT
 10
-417.291831400222
 20
59.4666634097721
 30
0
 11
-412.291831400222
 21
59.4666634097721
 31
0
  0
LINE
  8
1
 62
7
 10
-609.7782273019388
 20
31.5666634097721
 30
0
 11
-618.7782273019388
 21
31.5666634097721
 31
0
  0
LINE
  8
1
 62
3
  6
DIVIDE
 10
-637.343925906011
 20
74.51570151544878
 30
0
 11
-627.7584767726966
 21
68.98153987802621
 31
0
  0
LINE
  8
1
 62
3
  6
DIVIDE
 10
-629.2584767726966
 20
66.3834636666729
 30
0
 11
-638.843925906011
 21
71.91762530409547
 31
0
  0
LINE
  8
1
 62
3
  6
DIVIDE
 10
-589.7125286978669
 20
71.91762530409538
 30
0
 11
-599.2979778311811
 21
66.3834636666729
 31
0
  0
LINE
  8
1
 62
3
  6
DIVIDE
 10
-600.7979778311811
 20
68.98153987802621
 30
0
 11
-591.2125286978669
 21
74.5157015154487
 31
0
  0
LINE
  8
1
 62
3
  6
DIVIDE
 10
-615.7782273019388
 20
31.96666340977208
 30
0
 11
-615.7782273019388
 21
39.96666340977208
 31
0
  0
LINE
  8
1
 62
3
  6
DIVIDE
 10
-612.7782273019388
 20
39.96666340977208
 30
0
 11
-612.7782273019388
 21
31.96666340977208
 31
0
  0
LINE
  8
1
 62
3
  6
DIVIDE
 10
-483.7918314002221
 20
42.96666340977208
 30
0
 11
-483.7918314002221
 21
31.96666340977208
 31
0
  0
LINE
  8
1
 62
3
  6
DIVIDE
 10
-493.7918314002221
 20
42.96666340977208
 30
0
 11
-493.7918314002221
 21
31.96666340977208
 31
0
  0
LINE
  8
1
 62
3
  6
DIVIDE
 10
-486.7918314002221
 20
31.96666340977208
 30
0
 11
-486.7918314002221
 21
42.96666340977208
 31
0
  0
LINE
  8
1
 62
3
  6
DIVIDE
 10
-496.7918314002221
 20
31.96666340977208
 30
0
 11
-496.7918314002221
 21
42.96666340977208
 31
0
  0
LINE
  8
1
 62
7
 10
-515.2918314002221
 20
75.4666634097721
 30
0
 11
-417.291831400222
 21
75.4666634097721
 31
0
  0
LINE
  8
1
 62
3
  6
DIVIDE
 10
-502.2918314002221
 20
75.9666634097721
 30
0
 11
-502.2918314002221
 21
42.96666340977208
 31
0
  0
LINE
  8
1
 62
3
  6
DIVIDE
 10
-477.2918314002221
 20
75.9666634097721
 30
0
 11
-502.2918314002221
 21
75.9666634097721
 31
0
  0
LINE
  8
1
 62
3
  6
DIVIDE
 10
-477.2918314002221
 20
42.96666340977208
 30
0
 11
-477.2918314002221
 21
75.9666634097721
 31
0
  0
LINE
  8
1
 62
3
  6
DIVIDE
 10
-502.2918314002221
 20
42.96666340977208
 30
0
 11
-477.2918314002221
 21
42.96666340977208
 31
0
  0
LINE
  8
1
 62
7
 10
-473.2722161579514
 20
27.5666634097721
 30
0
 11
-475.7918314002221
 21
27.5666634097721
 31
0
  0
LINE
  8
1
 62
3
 10
-472.9258059964375
 20
26.9666634097721
 30
0
 11
-475.7918314002221
 21
26.9666634097721
 31
0
  0
LINE
  8
1
 62
7
 10
-460.4454212387083
 20
26.9666634097721
 30
0
 11
-460.3010836714108
 21
26.7166634097721
 31
0
  0
LINE
  8
1
 62
7
 10
-460.3010836714108
 20
26.7166634097721
 30
0
 11
-418.291831400222
 21
26.7166634097721
 31
0
  0
LINE
  8
1
 62
3
 10
-460.791831400222
 20
27.5666634097721
 30
0
 11
-460.4454212387083
 21
26.9666634097721
 31
0
  0
LINE
  8
1
 62
7
 10
-462.791831400222
 20
91.9666634097721
 30
0
 11
-462.791831400222
 21
108.4666634097721
 31
0
  0
LINE
  8
1
 62
3
 10
-460.4454212387083
 20
91.9666634097721
 30
0
 11
-460.7918314002221
 21
91.3666634097721
 31
0
  0
LINE
  8
1
 62
3
 10
-474.2722161579514
 20
91.3666634097721
 30
0
 11
-460.7918314002221
 21
91.3666634097721
 31
0
  0
LINE
  8
1
 62
7
 10
-473.9258059964375
 20
91.9666634097721
 30
0
 11
-460.4454212387083
 21
91.9666634097721
 31
0
  0
LINE
  8
1
 62
7
 10
-459.7918314002221
 20
101.4666634097721
 30
0
 11
-459.7918314002221
 21
92.2166634097721
 31
0
  0
LINE
  8
1
 62
7
 10
-462.7918314002221
 20
25.96666340977208
 30
0
 11
-459.7918314002221
 21
25.96666340977208
 31
0
  0
LINE
  8
1
 62
7
 10
-462.7918314002221
 20
26.9666634097721
 30
0
 11
-462.7918314002221
 21
25.96666340977208
 31
0
  0
LINE
  8
1
 62
7
 10
-459.7918314002221
 20
92.96666340977212
 30
0
 11
-462.791831400222
 21
92.96666340977212
 31
0
  0
LINE
  8
1
 62
7
 10
-461.191831400222
 20
102.8666634097721
 30
0
 11
-459.7918314002221
 21
101.4666634097721
 31
0
  0
LINE
  8
1
 62
7
 10
-417.291831400222
 20
43.4666634097721
 30
0
 11
-515.2918314002221
 21
43.4666634097721
 31
0
  0
LINE
  8
1
 62
7
 10
-503.2918314002221
 20
15.4666634097721
 30
0
 11
-499.7918314002221
 21
15.4666634097721
 31
0
  0
LINE
  8
1
 62
7
 10
-503.2918314002221
 20
103.4666634097721
 30
0
 11
-499.7918314002221
 21
103.4666634097721
 31
0
  0
LINE
  8
1
 62
7
 10
-464.791831400222
 20
95.96666340977212
 30
0
 11
-464.7918314002221
 21
94.96666340977212
 31
0
  0
LINE
  8
1
 62
7
 10
-467.7918314002221
 20
23.48738935193575
 30
0
 11
-464.2918314002221
 21
21.46666340977206
 31
0
  0
LINE
  8
1
 62
7
 10
-471.291831400222
 20
21.46666340977206
 30
0
 11
-467.7918314002221
 21
23.48738935193575
 31
0
  0
LINE
  8
1
 62
7
 10
-464.2918314002221
 20
21.46666340977206
 30
0
 11
-464.2918314002221
 21
15.46666340977206
 31
0
  0
LINE
  8
1
 62
7
 10
-471.291831400222
 20
21.46666340977206
 30
0
 11
-464.2918314002221
 21
21.46666340977206
 31
0
  0
LINE
  8
1
 62
7
 10
-471.2918314002221
 20
15.46666340977206
 30
0
 11
-471.291831400222
 21
21.46666340977206
 31
0
  0
LINE
  8
1
 62
7
 10
-461.7918314002221
 20
15.46666340977203
 30
0
 11
-459.7918314002221
 21
17.46666340977206
 31
0
  0
LINE
  8
1
 62
7
 10
-478.7918314002221
 20
15.4666634097721
 30
0
 11
-461.7918314002221
 21
15.46666340977203
 31
0
  0
LINE
  8
1
 62
7
 10
-459.7918314002221
 20
17.46666340977206
 30
0
 11
-459.7918314002221
 21
26.7166634097721
 31
0
  0
LINE
  8
1
 62
3
 10
-478.7918314002221
 20
31.5666634097721
 30
0
 11
-499.7918314002221
 21
10.96666340977206
 31
0
  0
LINE
  8
1
 62
3
 10
-499.7918314002221
 20
31.5666634097721
 30
0
 11
-478.7918314002221
 21
10.96666340977206
 31
0
  0
LINE
  8
1
 62
7
 10
-501.7918314002221
 20
28.4666634097721
 30
0
 11
-514.2918314002221
 21
28.4666634097721
 31
0
  0
LINE
  8
1
 62
7
 10
-501.7918314002221
 20
27.46666340977208
 30
0
 11
-501.7918314002221
 21
31.5666634097721
 31
0
  0
LINE
  8
1
 62
7
 10
-501.7918314002221
 20
27.46666340977208
 30
0
 11
-505.2918314002221
 21
23.96666340977206
 31
0
  0
LINE
  8
1
 62
7
 10
-499.7918314002221
 20
10.96666340977206
 30
0
 11
-499.7918314002221
 21
31.5666634097721
 31
0
  0
LINE
  8
1
 62
7
 10
-478.7918314002221
 20
10.96666340977206
 30
0
 11
-499.7918314002221
 21
10.96666340977206
 31
0
  0
LINE
  8
1
 62
7
 10
-503.2918314002221
 20
15.4666634097721
 30
0
 11
-505.2918314002221
 21
17.46666340977209
 31
0
  0
LINE
  8
1
 62
7
 10
-505.2918314002221
 20
28.4666634097721
 30
0
 11
-505.2918314002221
 21
17.46666340977209
 31
0
  0
LINE
  8
1
 62
7
 10
-505.2918314002221
 20
101.4666634097721
 30
0
 11
-503.2918314002221
 21
103.4666634097721
 31
0
  0
LINE
  8
1
 62
7
 10
-501.7918314002221
 20
91.4666634097721
 30
0
 11
-501.7918314002221
 21
90.4666634097721
 31
0
  0
LINE
  8
1
 62
7
 10
-505.2918314002221
 20
94.96666340977212
 30
0
 11
-501.7918314002221
 21
91.4666634097721
 31
0
  0
LINE
  8
1
 62
7
 10
-505.2918314002221
 20
101.4666634097721
 30
0
 11
-505.2918314002221
 21
91.2017372762466
 31
0
  0
LINE
  8
1
 62
3
 10
-478.7918314002221
 20
107.9666634097721
 30
0
 11
-499.7918314002221
 21
90.4666634097721
 31
0
  0
LINE
  8
1
 62
3
 10
-499.7918314002221
 20
107.9666634097721
 30
0
 11
-478.7918314002221
 21
90.4666634097721
 31
0
  0
LINE
  8
1
 62
7
 10
-499.7918314002221
 20
107.9666634097721
 30
0
 11
-499.7918314002221
 21
90.4666634097721
 31
0
  0
LINE
  8
1
 62
7
 10
-499.7918314002221
 20
107.9666634097721
 30
0
 11
-478.7918314002221
 21
107.9666634097721
 31
0
  0
LINE
  8
1
 62
7
 10
-471.591831400222
 20
100.9666634097721
 30
0
 11
-462.791831400222
 21
100.9666634097721
 31
0
  0
LINE
  8
1
 62
7
 10
-471.591831400222
 20
101.9666634097721
 30
0
 11
-471.591831400222
 21
94.96666340977212
 31
0
  0
LINE
  8
1
 62
7
 10
-464.7918314002221
 20
101.9666634097721
 30
0
 11
-464.7918314002221
 21
100.9666634097721
 31
0
  0
LINE
  8
1
 62
7
 10
-464.7918314002221
 20
101.9666634097721
 30
0
 11
-475.7918314002221
 21
101.9666634097721
 31
0
  0
LINE
  8
1
 62
3
 10
-460.791831400222
 20
27.5666634097721
 30
0
 11
-473.2722161579514
 21
27.5666634097721
 31
0
  0
LINE
  8
1
 62
7
 10
-475.7918314002221
 20
91.3666634097721
 30
0
 11
-474.2722161579514
 21
91.3666634097721
 31
0
  0
LINE
  8
1
 62
3
 10
-475.7918314002221
 20
91.9666634097721
 30
0
 11
-473.9258059964375
 21
91.9666634097721
 31
0
  0
LINE
  8
1
 62
7
 10
-462.7918314002221
 20
103.4666634097721
 30
0
 11
-478.7918314002221
 21
103.4666634097721
 31
0
  0
LINE
  8
1
 62
7
 10
-462.791831400222
 20
93.46666340977212
 30
0
 11
-461.191831400222
 21
93.46666340977212
 31
0
  0
LINE
  8
1
 62
7
 10
-462.791831400222
 20
108.4666634097721
 30
0
 11
-461.191831400222
 21
108.4666634097721
 31
0
  0
LINE
  8
1
 62
7
 10
-461.191831400222
 20
93.46666340977212
 30
0
 11
-461.191831400222
 21
108.4666634097721
 31
0
  0
LINE
  8
1
 62
7
 10
-462.791831400222
 20
95.96666340977212
 30
0
 11
-471.591831400222
 21
95.96666340977212
 31
0
  0
LINE
  8
1
 62
7
 10
-475.7918314002221
 20
94.96666340977212
 30
0
 11
-464.7918314002221
 21
94.96666340977212
 31
0
  0
LINE
  8
1
 62
7
 10
-478.7918314002221
 20
17.46666340977209
 30
0
 11
-475.7918314002221
 21
17.46666340977209
 31
0
  0
LINE
  8
1
 62
7
 10
-478.7918314002221
 20
23.4666634097721
 30
0
 11
-475.7918314002221
 21
23.4666634097721
 31
0
  0
LINE
  8
1
 62
7
 10
-475.7918314002221
 20
31.5666634097721
 30
0
 11
-501.7918314002221
 21
31.5666634097721
 31
0
  0
LINE
  8
1
 62
7
 10
-475.7918314002221
 20
15.46666340977206
 30
0
 11
-475.7918314002221
 21
31.5666634097721
 31
0
  0
LINE
  8
1
 62
7
 10
-478.7918314002221
 20
31.5666634097721
 30
0
 11
-478.7918314002221
 21
10.96666340977206
 31
0
  0
LINE
  8
1
 62
7
 10
-478.7918314002221
 20
95.46666340977212
 30
0
 11
-475.7918314002221
 21
95.46666340977212
 31
0
  0
LINE
  8
1
 62
7
 10
-478.7918314002221
 20
101.4666634097721
 30
0
 11
-475.7918314002221
 21
101.4666634097721
 31
0
  0
LINE
  8
1
 62
7
 10
-475.7918314002221
 20
90.4666634097721
 30
0
 11
-475.7918314002221
 21
103.4666634097721
 31
0
  0
LINE
  8
1
 62
7
 10
-478.7918314002221
 20
90.4666634097721
 30
0
 11
-478.7918314002221
 21
107.9666634097721
 31
0
  0
LINE
  8
1
 62
3
  6
DIVIDE
 10
-457.2918314002221
 20
95.21666340977212
 30
0
 11
-420.291831400222
 21
95.21666340977212
 31
0
  0
LINE
  8
1
 62
3
  6
DIVIDE
 10
-420.291831400222
 20
88.7166634097721
 30
0
 11
-420.291831400222
 21
95.21666340977212
 31
0
  0
LINE
  8
1
 62
3
  6
DIVIDE
 10
-457.2918314002221
 20
88.7166634097721
 30
0
 11
-420.291831400222
 21
88.7166634097721
 31
0
  0
LINE
  8
1
 62
3
  6
DIVIDE
 10
-457.2918314002221
 20
88.7166634097721
 30
0
 11
-457.2918314002221
 21
95.21666340977212
 31
0
  0
LINE
  8
1
 62
7
 10
-504.8436971137557
 20
90.4666634097721
 30
0
 11
-474.7918314002221
 21
90.4666634097721
 31
0
  0
LINE
  8
1
 62
7
 10
-508.536537518284
 20
78.97318515970981
 30
0
 11
-447.257232112037
 21
82.10611795248532
 31
0
  0
LINE
  8
1
 62
7
 10
-514.2918314002221
 20
31.96666340977208
 30
0
 11
-473.2918314002221
 21
31.96666340977208
 31
0
  0
LINE
  8
1
 62
7
 10
-514.2918314002221
 20
35.96666340977208
 30
0
 11
-514.2918314002221
 21
28.4666634097721
 31
0
  0
LINE
  8
1
 62
7
 10
-514.2918314002221
 20
35.96666340977208
 30
0
 11
-515.2918314002221
 21
36.96666340977208
 31
0
  0
LINE
  8
1
 62
7
 10
-515.2918314002221
 20
36.96666340977208
 30
0
 11
-515.2918314002221
 21
81.9666634097721
 31
0
  0
LINE
  8
1
 62
7
 10
-515.2918314002221
 20
81.9666634097721
 30
0
 11
-514.2918314002221
 21
82.9666634097721
 31
0
  0
LINE
  8
1
 62
7
 10
-514.2918314002221
 20
90.4666634097721
 30
0
 11
-512.7888023777364
 21
90.4666634097721
 31
0
  0
LINE
  8
1
 62
7
 10
-514.2918314002221
 20
90.4666634097721
 30
0
 11
-514.2918314002221
 21
82.9666634097721
 31
0
  0
LINE
  8
1
 62
7
 10
-435.291831400222
 20
20.9666634097721
 30
0
 11
-453.291831400222
 21
20.9666634097721
 31
0
  0
LINE
  8
1
 62
7
 10
-473.7918314002221
 20
28.4666634097721
 30
0
 11
-472.9258059964375
 21
26.9666634097721
 31
0
  0
LINE
  8
1
 62
7
 10
-472.9258059964375
 20
26.9666634097721
 30
0
 11
-460.4454212387083
 21
26.9666634097721
 31
0
  0
LINE
  8
1
 62
7
 10
-473.7918314002221
 20
28.4666634097721
 30
0
 11
-475.7918314002221
 21
28.4666634097721
 31
0
  0
LINE
  8
1
 62
7
 10
-417.291831400222
 20
36.9666634097721
 30
0
 11
-418.291831400222
 21
35.9666634097721
 31
0
  0
LINE
  8
1
 62
7
 10
-418.291831400222
 20
26.7166634097721
 30
0
 11
-418.291831400222
 21
35.9666634097721
 31
0
  0
LINE
  8
1
 62
7
 10
-417.291831400222
 20
36.9666634097721
 30
0
 11
-417.291831400222
 21
81.9666634097721
 31
0
  0
LINE
  8
1
 62
7
 10
-460.4454212387083
 20
91.9666634097721
 30
0
 11
-460.3010836714108
 21
92.2166634097721
 31
0
  0
LINE
  8
1
 62
7
 10
-473.9258059964375
 20
91.9666634097721
 30
0
 11
-474.7918314002221
 21
90.4666634097721
 31
0
  0
LINE
  8
1
 62
7
 10
-515.2918314002221
 20
78.4666634097721
 30
0
 11
-457.2918314002221
 21
78.4666634097721
 31
0
  0
LINE
  8
1
 62
7
 10
-418.291831400222
 20
82.9666634097721
 30
0
 11
-417.291831400222
 21
81.9666634097721
 31
0
  0
LINE
  8
1
 62
7
 10
-435.291831400222
 20
97.96666340977212
 30
0
 11
-435.291831400222
 21
104.4666634097721
 31
0
  0
LINE
  8
1
 62
7
 10
-434.291831400222
 20
105.4666634097721
 30
0
 11
-435.291831400222
 21
104.4666634097721
 31
0
  0
LINE
  8
1
 62
7
 10
-453.291831400222
 20
104.4666634097721
 30
0
 11
-454.291831400222
 21
105.4666634097721
 31
0
  0
LINE
  8
1
 62
7
 10
-457.2918314002221
 20
105.4666634097721
 30
0
 11
-459.2918314002221
 21
103.4666634097721
 31
0
  0
LINE
  8
1
 62
7
 10
-453.291831400222
 20
104.4666634097721
 30
0
 11
-453.291831400222
 21
97.96666340977212
 31
0
  0
LINE
  8
1
 62
7
 10
-457.2918314002221
 20
105.4666634097721
 30
0
 11
-454.291831400222
 21
105.4666634097721
 31
0
  0
LINE
  8
1
 62
7
 10
-459.2918314002221
 20
92.2166634097721
 30
0
 11
-459.2918314002221
 21
103.4666634097721
 31
0
  0
LINE
  8
1
 62
7
 10
-429.291831400222
 20
103.4666634097721
 30
0
 11
-429.291831400222
 21
92.2166634097721
 31
0
  0
LINE
  8
1
 62
7
 10
-434.291831400222
 20
105.4666634097721
 30
0
 11
-431.291831400222
 21
105.4666634097721
 31
0
  0
LINE
  8
1
 62
7
 10
-418.291831400222
 20
92.2166634097721
 30
0
 11
-460.3010836714108
 21
92.2166634097721
 31
0
  0
LINE
  8
1
 62
7
 10
-418.291831400222
 20
82.9666634097721
 30
0
 11
-418.291831400222
 21
92.2166634097721
 31
0
  0
LINE
  8
1
 62
7
 10
-499.5243584083318
 20
87.48381444903022
 30
0
 11
-459.8186195868687
 21
85.47977427779644
 31
0
  0
LINE
  8
1
 62
7
 10
-511.4178816350573
 20
98.49607703056633
 30
0
 11
-513.7225496594103
 21
84.79613158186017
 31
0
  0
LINE
  8
1
 62
7
 10
-429.291831400222
 20
26.7166634097721
 30
0
 11
-429.291831400222
 21
15.46666340977211
 31
0
  0
LINE
  8
1
 62
7
 10
-431.291831400222
 20
13.46666340977211
 30
0
 11
-434.291831400222
 21
13.46666340977211
 31
0
  0
LINE
  8
1
 62
7
 10
-435.291831400222
 20
14.46666340977211
 30
0
 11
-435.291831400222
 21
20.9666634097721
 31
0
  0
LINE
  8
1
 62
7
 10
-435.291831400222
 20
14.46666340977211
 30
0
 11
-434.291831400222
 21
13.46666340977211
 31
0
  0
LINE
  8
1
 62
7
 10
-454.291831400222
 20
13.46666340977211
 30
0
 11
-453.291831400222
 21
14.46666340977211
 31
0
  0
LINE
  8
1
 62
7
 10
-453.291831400222
 20
20.9666634097721
 30
0
 11
-453.291831400222
 21
14.46666340977211
 31
0
  0
LINE
  8
1
 62
7
 10
-459.2918314002221
 20
15.46666340977206
 30
0
 11
-457.291831400222
 21
13.46666340977211
 31
0
  0
LINE
  8
1
 62
7
 10
-454.291831400222
 20
13.46666340977211
 30
0
 11
-457.291831400222
 21
13.46666340977211
 31
0
  0
LINE
  8
1
 62
7
 10
-459.2918314002221
 20
15.46666340977206
 30
0
 11
-459.291831400222
 21
26.7166634097721
 31
0
  0
LINE
  8
1
 62
7
 10
-515.2918314002221
 20
39.96666340977208
 30
0
 11
-417.291831400222
 21
39.96666340977208
 31
0
  0
LINE
  8
1
 62
7
 10
-453.291831400222
 20
97.96666340977212
 30
0
 11
-435.291831400222
 21
97.96666340977212
 31
0
  0
LINE
  8
1
 62
3
  6
DASHDOT
 10
-444.291831400222
 20
100.9666634097721
 30
0
 11
-444.291831400222
 21
89.2166634097721
 31
0
  0
LINE
  8
1
 62
7
 10
-619.2782273019388
 20
44.26797925620142
 30
0
 11
-619.2782273019388
 21
39.96666340977208
 31
0
  0
LINE
  8
1
 62
7
 10
-619.2782273019388
 20
39.96666340977208
 30
0
 11
-609.2782273019388
 21
39.96666340977208
 31
0
  0
LINE
  8
1
 62
7
 10
-609.2782273019388
 20
39.96666340977208
 30
0
 11
-609.2782273019388
 21
44.26797925620142
 31
0
  0
LINE
  8
1
 62
3
  6
DASHDOT
 10
-609.2782273019388
 20
59.4666634097721
 30
0
 11
-619.2782273019388
 21
59.4666634097721
 31
0
  0
LINE
  8
1
 62
7
 10
-618.7782273019388
 20
100.9983961273135
 30
0
 11
-618.7782273019388
 21
78.4666634097721
 31
0
  0
LINE
  8
1
 62
7
 10
-618.7782273019388
 20
78.4666634097721
 30
0
 11
-609.7782273019388
 21
78.4666634097721
 31
0
  0
LINE
  8
1
 62
7
 10
-609.7782273019388
 20
78.4666634097721
 30
0
 11
-609.7782273019388
 21
100.9983961273135
 31
0
  0
LINE
  8
1
 62
7
 10
-609.7782273019388
 20
100.9983961273135
 30
0
 11
-618.7782273019388
 21
100.9983961273135
 31
0
  0
LINE
  8
1
 62
7
 10
-618.7782273019388
 20
78.9666634097721
 30
0
 11
-609.7782273019388
 21
78.9666634097721
 31
0
  0
LINE
  8
1
 62
7
 10
-647.9957628985151
 20
34.80368273397142
 30
0
 11
-628.4827099738432
 21
46.06954909274212
 31
0
  0
LINE
  8
1
 62
7
 10
-628.4827099738432
 20
46.06954909274212
 30
0
 11
-632.9827099738432
 21
53.86377772680208
 31
0
  0
LINE
  8
1
 62
7
 10
-632.9827099738432
 20
53.86377772680208
 30
0
 11
-652.4957628985151
 21
42.59791136803138
 31
0
  0
LINE
  8
1
 62
7
 10
-652.4957628985151
 20
42.59791136803138
 30
0
 11
-647.9957628985151
 21
34.80368273397142
 31
0
  0
LINE
  8
1
 62
7
 10
-628.9157226757354
 20
45.81954909274212
 30
0
 11
-633.4157226757354
 21
53.61377772680208
 31
0
  0
LINE
  8
1
 62
7
 10
-576.0606917053628
 20
42.59791136803131
 30
0
 11
-595.5737446300345
 21
53.86377772680208
 31
0
  0
LINE
  8
1
 62
7
 10
-595.5737446300345
 20
53.86377772680208
 30
0
 11
-600.0737446300345
 21
46.06954909274212
 31
0
  0
LINE
  8
1
 62
7
 10
-600.0737446300345
 20
46.06954909274212
 30
0
 11
-580.5606917053628
 21
34.80368273397136
 31
0
  0
LINE
  8
1
 62
7
 10
-580.5606917053628
 20
34.80368273397136
 30
0
 11
-576.0606917053628
 21
42.59791136803131
 31
0
  0
LINE
  8
1
 62
7
 10
-595.1407319281423
 20
53.61377772680203
 30
0
 11
-599.6407319281423
 21
45.81954909274209
 31
0
  0
LINE
  8
1
 62
7
 10
-618.7782273019388
 20
28.79501526364209
 30
0
 11
-618.7782273019388
 21
31.96666340977208
 31
0
  0
LINE
  8
1
 62
7
 10
-618.7782273019388
 20
31.96666340977208
 30
0
 11
-609.7782273019388
 21
31.96666340977208
 31
0
  0
LINE
  8
1
 62
7
 10
-609.7782273019388
 20
31.96666340977208
 30
0
 11
-609.7782273019388
 21
28.79501526364209
 31
0
  0
LINE
  8
1
 62
7
 10
-585.4658008314525
 20
70.90537316580712
 30
0
 11
-588.2125286978669
 21
69.31954909274212
 31
0
  0
LINE
  8
1
 62
7
 10
-588.2125286978669
 20
69.31954909274212
 30
0
 11
-592.7125286978669
 21
77.11377772680207
 31
0
  0
LINE
  8
1
 62
7
 10
-592.7125286978669
 20
77.11377772680207
 30
0
 11
-589.9658008314525
 21
78.69960179986707
 31
0
  0
LINE
  8
1
 62
7
 10
-638.5906537724254
 20
78.69960179986707
 30
0
 11
-635.843925906011
 21
77.11377772680207
 31
0
  0
LINE
  8
1
 62
7
 10
-635.843925906011
 20
77.11377772680207
 30
0
 11
-640.343925906011
 21
69.31954909274212
 31
0
  0
LINE
  8
1
 62
7
 10
-640.343925906011
 20
69.31954909274212
 30
0
 11
-643.0906537724254
 21
70.90537316580712
 31
0
  0
LINE
  8
1
 62
3
  6
DASHDOT
 10
-614.2782273019388
 20
54.4666634097721
 30
0
 11
-614.2782273019388
 21
64.46666340977211
 31
0
  0
LINE
  8
1
 62
7
 10
-623.5282273019388
 20
102.9946716343624
 30
0
 11
-623.5282273019388
 21
107.0764050599848
 31
0
  0
LINE
  8
1
 62
7
 10
-605.0282273019388
 20
102.9946716343624
 30
0
 11
-605.0282273019388
 21
107.0764050599848
 31
0
  0
LINE
  8
1
 62
7
 10
-656.599588200572
 20
73.21993253706116
 30
0
 11
-660.1344730386371
 21
75.26079924987236
 31
0
  0
LINE
  8
1
 62
7
 10
-647.349588200572
 20
89.24140250707326
 30
0
 11
-650.8844730386371
 21
91.2822692198845
 31
0
  0
LINE
  8
1
 62
7
 10
-656.599588200572
 20
45.71339428248294
 30
0
 11
-660.1344730386371
 21
43.67252756967177
 31
0
  0
LINE
  8
1
 62
7
 10
-647.349588200572
 20
29.69192431247083
 30
0
 11
-650.8844730386371
 21
27.65105759965964
 31
0
  0
LINE
  8
1
 62
7
 10
-623.5282273019388
 20
15.93865518518171
 30
0
 11
-623.5282273019388
 21
11.85692175955933
 31
0
  0
LINE
  8
1
 62
7
 10
-605.0282273019388
 20
15.93865518518171
 30
0
 11
-605.0282273019388
 21
11.85692175955933
 31
0
  0
LINE
  8
1
 62
7
 10
-581.2068664033056
 20
29.69192431247082
 30
0
 11
-577.6719815652406
 21
27.65105759965962
 31
0
  0
LINE
  8
1
 62
7
 10
-571.9568664033056
 20
45.71339428248292
 30
0
 11
-568.4219815652406
 21
43.67252756967174
 31
0
  0
LINE
  8
1
 62
7
 10
-571.9568664033055
 20
73.21993253706113
 30
0
 11
-568.4219815652406
 21
75.26079924987234
 31
0
  0
LINE
  8
1
 62
7
 10
-581.2068664033055
 20
89.24140250707323
 30
0
 11
-577.6719815652405
 21
91.28226921988444
 31
0
  0
LINE
  8
1
 62
3
  6
DASHDOT
 10
-520.2918314002221
 20
59.4666634097721
 30
0
 11
-515.2918314002221
 21
59.4666634097721
 31
0
  0
LINE
  8
1
 62
3
  6
DASHDOT
 10
-433.291831400222
 20
100.9666634097721
 30
0
 11
-433.291831400222
 21
89.2166634097721
 31
0
  0
ARC
  8
1
 62
3
  6
DIVIDE
 10
-420.291831400222
 20
15.46666340977211
 30
0
 40
2
 50
270
 51
0
  0
ARC
  8
1
 62
3
  6
DIVIDE
 10
-420.291831400222
 20
103.4666634097721
 30
0
 40
2
 50
0
 51
90
  0
ARC
  8
1
 62
7
 10
-614.2782273019388
 20
59.4666634097721
 30
0
 40
23.50000000000003
 50
101.039714414033
 51
198.960285585967
  0
ARC
  8
1
 62
7
 10
-614.2782273019388
 20
59.4666634097721
 30
0
 40
23.50000000000002
 50
221.0397144140329
 51
318.9602855859668
  0
ARC
  8
1
 62
7
 10
-614.2782273019388
 20
59.4666634097721
 30
0
 40
23.50000000000004
 50
341.0397144140329
 51
78.96028558596704
  0
ARC
  8
1
 62
7
 10
-614.2782273019388
 20
59.4666634097721
 30
0
 40
22.49999999999999
 50
221.5369590328153
 51
318.4630409671841
  0
ARC
  8
1
 62
7
 10
-614.2782273019388
 20
59.4666634097721
 30
0
 40
22.49999999999997
 50
341.5369590328151
 51
78.4630409671845
  0
ARC
  8
1
 62
7
 10
-614.2782273019388
 20
59.4666634097721
 30
0
 40
22.49999999999998
 50
101.5369590328155
 51
198.4630409671847
  0
ARC
  8
1
 62
7
 10
-462.7559634161263
 20
98.46666340977212
 30
0
 40
2.167143041697264
 50
316.1990206080457
 51
43.80097939195425
  0
ARC
  8
1
 62
7
 10
-459.6422213984259
 20
88.975326262693
 30
0
 40
3.500000000000032
 50
267.1110984665469
 51
28.4376132290757
  0
ARC
  8
1
 62
7
 10
-455.0665014051
 20
90.71861993475339
 30
0
 40
1.499999999999938
 50
92.92672499603661
 51
182.9267249960342
  0
ARC
  8
1
 62
7
 10
-458.0109181197007
 20
80.56438640449566
 30
0
 40
11.99999999999989
 50
13.35288659107466
 51
76.17331596463839
  0
ARC
  8
1
 62
7
 10
-473.2918314002221
 20
-8.033336590227918
 30
0
 40
40.00000000000004
 50
60.3137047686276
 51
90
  0
ARC
  8
1
 62
7
 10
-457.2918314002221
 20
118.4666634097721
 30
0
 40
40
 50
270
 51
318.9855003342696
  0
ARC
  8
1
 62
7
 10
-508.4594506795443
 20
97.99839612731351
 30
0
 40
2.999999999999921
 50
339.3454760488045
 51
170.450848566453
  0
ARC
  8
1
 62
7
 10
-508.7918314002221
 20
83.9666634097721
 30
0
 40
4.999999999999915
 50
170.4508485664523
 51
272.9267249960367
  0
ARC
  8
1
 62
7
 10
-499.1022077642413
 20
94.47107348485353
 30
0
 40
7.000000000000041
 50
182.7286602207789
 51
266.5425520360191
  0
ARC
  8
1
 62
7
 10
-499.1022077642413
 20
94.47107348485353
 30
0
 40
7.000000000000035
 50
159.345476048805
 51
182.7286602207789
  0
ARC
  8
1
 62
7
 10
-614.2782273019388
 20
59.4666634097721
 30
0
 40
16.00000000000002
 50
288.209956864283
 51
251.790043135717
  0
ARC
  8
1
 62
7
 10
-614.2782273019388
 20
59.4666634097721
 30
0
 40
30.9999999999999
 50
38.34661926322073
 51
81.65338073677937
  0
ARC
  8
1
 62
7
 10
-614.2782273019388
 20
59.4666634097721
 30
0
 40
31.00000000000009
 50
158.3466192632207
 51
201.6533807367796
  0
ARC
  8
1
 62
7
 10
-614.2782273019388
 20
59.4666634097721
 30
0
 40
31.00000000000001
 50
278.3466192632206
 51
321.6533807367791
  0
ARC
  8
1
 62
7
 10
-614.2782273019388
 20
59.4666634097721
 30
0
 40
31.00000000000004
 50
218.3466192632204
 51
261.6533807367794
  0
ARC
  8
1
 62
7
 10
-614.2782273019388
 20
59.4666634097721
 30
0
 40
31.00000000000004
 50
338.346619263221
 51
21.65338073677946
  0
ARC
  8
1
 62
7
 10
-614.2782273019388
 20
59.4666634097721
 30
0
 40
30.99999999999999
 50
98.3466192632206
 51
141.6533807367796
  0
ARC
  8
1
 62
7
 10
-614.2782273019388
 20
59.4666634097721
 30
0
 40
35.50000000000001
 50
217.2824374797782
 51
322.7175625202212
  0
ARC
  8
1
 62
7
 10
-614.2782273019388
 20
59.4666634097721
 30
0
 40
35.49999999999998
 50
337.2824374797786
 51
82.71756252022169
  0
ARC
  8
1
 62
7
 10
-614.2782273019388
 20
59.4666634097721
 30
0
 40
35.50000000000002
 50
97.2824374797783
 51
202.7175625202219
  0
ARC
  8
1
 62
7
 10
-614.2782273019388
 20
59.4666634097721
 30
0
 40
32.00000000000002
 50
98.08401390709929
 51
201.9159860929009
  0
ARC
  8
1
 62
7
 10
-614.2782273019388
 20
59.4666634097721
 30
0
 40
31.99999999999997
 50
218.0840139070992
 51
321.9159860929001
  0
ARC
  8
1
 62
7
 10
-614.2782273019388
 20
59.4666634097721
 30
0
 40
31.99999999999997
 50
338.0840139070996
 51
81.9159860929007
  0
ARC
  8
1
 62
7
 10
-614.2782273019388
 20
59.4666634097721
 30
0
 40
48.49999999999997
 50
79.00509817554162
 51
100.9949018244584
  0
ARC
  8
1
 62
7
 10
-614.2782273019388
 20
59.4666634097721
 30
0
 40
44.50000000000006
 50
41.99727493403524
 51
78.00272506596457
  0
ARC
  8
1
 62
7
 10
-614.2782273019388
 20
59.4666634097721
 30
0
 40
48.49999999999997
 50
139.0050981755416
 51
160.9949018244584
  0
ARC
  8
1
 62
7
 10
-614.2782273019388
 20
59.4666634097721
 30
0
 40
48.5
 50
199.0050981755417
 51
220.9949018244584
  0
ARC
  8
1
 62
7
 10
-614.2782273019388
 20
59.4666634097721
 30
0
 40
48.50000000000005
 50
259.0050981755417
 51
280.9949018244583
  0
ARC
  8
1
 62
7
 10
-614.2782273019388
 20
59.4666634097721
 30
0
 40
48.50000000000004
 50
319.0050981755416
 51
340.9949018244583
  0
ARC
  8
1
 62
7
 10
-614.2782273019388
 20
59.4666634097721
 30
0
 40
48.49999999999996
 50
19.00509817554155
 51
40.99490182445822
  0
ARC
  8
1
 62
7
 10
-614.2782273019388
 20
59.4666634097721
 30
0
 40
44.50000000000001
 50
101.9972749340354
 51
138.0027250659646
  0
ARC
  8
1
 62
7
 10
-614.2782273019388
 20
59.4666634097721
 30
0
 40
44.50000000000001
 50
161.9972749340355
 51
198.0027250659647
  0
ARC
  8
1
 62
7
 10
-614.2782273019388
 20
59.4666634097721
 30
0
 40
44.50000000000006
 50
221.9972749340355
 51
258.0027250659646
  0
ARC
  8
1
 62
7
 10
-614.2782273019388
 20
59.4666634097721
 30
0
 40
44.50000000000011
 50
281.9972749340354
 51
318.0027250659645
  0
ARC
  8
1
 62
7
 10
-614.2782273019388
 20
59.4666634097721
 30
0
 40
44.50000000000006
 50
341.9972749340353
 51
18.00272506596443
  0
ARC
  8
1
 62
7
 10
-447.3082908884247
 20
83.10481360249777
 30
0
 40
1.000000000000001
 50
272.9267249960419
 51
13.35288659107587
  0
ARC
  8
1
 62
7
 10
-431.291831400222
 20
103.4666634097721
 30
0
 40
2
 50
0
 51
90
  0
ARC
  8
1
 62
7
 10
-431.291831400222
 20
15.46666340977211
 30
0
 40
2
 50
270
 51
0
  0
ARC
  8
1
 62
3
  6
DIVIDE
 10
-614.2782273019388
 20
59.4666634097721
 30
0
 40
16.50000000000003
 50
12.360298605764
 51
47.63970139423599
  0
ARC
  8
1
 62
3
  6
DIVIDE
 10
-614.2782273019388
 20
59.4666634097721
 30
0
 40
16.49999999999986
 50
132.3602986057635
 51
167.6397013942357
  0
CIRCLE
  8
1
 62
7
 10
-508.7918314002221
 20
83.9666634097721
 30
0
 40
2.75
  0
CIRCLE
  8
1
 62
7
 10
-614.2782273019388
 20
59.4666634097721
 30
0
 40
44
  0
CIRCLE
  8
1
 62
7
 10
-614.2782273019388
 20
59.4666634097721
 30
0
 40
42
  0
TEXT
  8
1
 62
7
 10
-625.238284463684
 20
117.904383386076
 30
0
 40
4
  1
OS 357
 41
0.9
  7
SIMPLEX
 72
1
 11
-614.438284463684
 21
117.904383386076
 31
0
  0
ENDSEC
  0
EOF
