  0
SECTION
  2
HEADER
  9
$ACADVER
  1
AC1009
  9
$INSBASE
 10
0
 20
0
  9
$EXTMIN
 10
-289.6890594480127
 20
-168.6630674721769
  9
$EXTMAX
 10
2.567662099049514
 20
-25.1651977149994
  9
$LIMMIN
 10
-289.6890594480127
 20
-168.6630674721769
  9
$LIMMAX
 10
2.567662099049514
 20
-25.1651977149994
  9
$VIEWCTR
 10
10
 20
10
  9
$VIEWSIZE
 40
10
  9
$SNAPMODE
 70
0
  9
$SNAPUNIT
 10
1
 20
1
  9
$SNAPBASE
 10
0
 20
0
  9
$SNAPANG
 50
0
  9
$SNAPSTYLE
 70
0
  9
$SNAPISOPAIR
 70
0
  9
$GRIDMODE
 70
0
  9
$GRIDUNIT
 10
0
 20
0
  9
$ORTHOMODE
 70
0
  9
$REGENMODE
 70
1
  9
$FILLMODE
 70
1
  9
$QTEXTMODE
 70
0
  9
$DRAGMODE
 70
2
  9
$LTSCALE
 40
1
  9
$OSMODE
 70
0
  9
$ATTMODE
 70
1
  9
$TEXTSIZE
 40
3.5
  9
$TRACEWID
 40
0.5
  9
$TEXTSTYLE
  7
STANDARD
  9
$CLAYER
  8
0
  9
$CELTYPE
  6
BYLAYER
  9
$CECOLOR
 62
256
  9
$DIMSCALE
 40
1
  9
$DIMASZ
 40
0.18
  9
$DIMEXO
 40
0.0625
  9
$DIMDLI
 40
0.38
  9
$DIMRND
 40
0
  9
$DIMDLE
 40
0
  9
$DIMEXE
 40
0.18
  9
$DIMTP
 40
0
  9
$DIMTM
 40
0
  9
$DIMTXT
 40
0.18
  9
$DIMCEN
 40
0.09
  9
$DIMTSZ
 40
0
  9
$DIMTOL
 70
0
  9
$DIMLIM
 70
0
  9
$DIMTIH
 70
1
  9
$DIMTOH
 70
1
  9
$DIMSE1
 70
0
  9
$DIMSE2
 70
0
  9
$DIMTAD
 70
0
  9
$DIMZIN
 70
0
  9
$DIMBLK
  1

  9
$DIMASO
 70
1
  9
$DIMSHO
 70
1
  9
$DIMPOST
  1

  9
$DIMAPOST
  1

  9
$DIMALT
 70
0
  9
$DIMALTD
 70
2
  9
$DIMALTF
 40
25.4
  9
$DIMLFAC
 40
1
  9
$DIMTOFL
 70
0
  9
$DIMTVP
 40
0
  9
$DIMTIX
 70
0
  9
$DIMSOXD
 70
0
  9
$DIMSAH
 70
0
  9
$DIMBLK1
  1

  9
$DIMBLK2
  1

  9
$DIMSTYLE
  2
*UNNAMED
  9
$DIMCLRD
 70
0
  9
$DIMCLRE
 70
0
  9
$DIMCLRT
 70
0
  9
$DIMTFAC
 40
1
  9
$DIMGAP
 40
0.09
  9
$LUNITS
 70
2
  9
$LUPREC
 70
4
  9
$AXISMODE
 70
0
  9
$AXISUNIT
 10
0
 20
0
  9
$SKETCHINC
 40
0.1
  9
$FILLETRAD
 40
2
  9
$AUNITS
 70
0
  9
$AUPREC
 70
0
  9
$MENU
  1
ACAD
  9
$ELEVATION
 40
0
  9
$THICKNESS
 40
0
  9
$VIEWDIR
 10
0
 20
0
 30
1
  9
$LIMCHECK
 70
0
  9
$BLIPMODE
 70
1
  9
$CHAMFERA
 40
0
  9
$CHAMFERB
 40
0
  9
$FASTZOOM
 70
1
  9
$SKPOLY
 70
0
  9
$ANGBASE
 50
0
  9
$ANGDIR
 70
0
  9
$PDMODE
 70
0
  9
$PDSIZE
 40
0
  9
$PLINEWID
 40
0
  9
$COORDS
 70
2
  0
ENDSEC
  0
SECTION
  2
TABLES
  0
TABLE
  2
DIMSTYLE
 70
0
  0
ENDTAB
  0
TABLE
  2
LTYPE
 70
9
  0
LTYPE
  2
CONTINUOUS
 70
64
  3
Solid line
 72
65
 73
0
 40
0
  0
LTYPE
  2
BORDER
 70
64
  3
__ __ . __ __ .
 72
65
 73
6
 40
13.45919112387787
 49
3.845483178250819
 49
-1.922741589125409
 49
3.845483178250819
 49
-1.922741589125409
 49
0
 49
-1.922741589125409
  0
LTYPE
  2
CENTER
 70
64
  3
____ _ ____ _
 72
65
 73
4
 40
15.38193271300328
 49
9.613707945627047
 49
-1.922741589125409
 49
1.922741589125409
 49
-1.922741589125409
  0
LTYPE
  2
DASHDOT
 70
64
  3
__ . __ . __ .
 72
65
 73
4
 40
7.690966356501638
 49
3.845483178250819
 49
-1.922741589125409
 49
0
 49
-1.922741589125409
  0
LTYPE
  2
DASHED
 70
64
  3
__ __ __ __ __
 72
65
 73
2
 40
5.768224767376228
 49
3.845483178250819
 49
-1.922741589125409
  0
LTYPE
  2
DIVIDE
 70
64
  3
__ . . __ . . 
 72
65
 73
6
 40
9.613707945627047
 49
3.845483178250819
 49
-1.922741589125409
 49
0
 49
-1.922741589125409
 49
0
 49
-1.922741589125409
  0
LTYPE
  2
DOT
 70
64
  3
..............
 72
65
 73
4
 40
3.845483178250819
 49
0
 49
-1.922741589125409
 49
0
 49
-1.922741589125409
  0
LTYPE
  2
HIDDEN
 70
64
  3
_ _ _ _ _ _ _
 72
65
 73
2
 40
2.884112383688114
 49
1.922741589125409
 49
-0.9613707945627047
  0
LTYPE
  2
PHANTOM
 70
64
  3
_____ _ _ _____ _ _ 
 72
65
 73
6
 40
19.22741589125409
 49
9.613707945627047
 49
-1.922741589125409
 49
1.922741589125409
 49
-1.922741589125409
 49
1.922741589125409
 49
-1.922741589125409
  0
ENDTAB
  0
TABLE
  2
LAYER
 70
3
  0
LAYER
  2
1
 70
0
 62
7
  6
CONTINUOUS
  0
LAYER
  2
0
 70
0
 62
7
  6
CONTINUOUS
  0
ENDTAB
  0
TABLE
  2
STYLE
 70
4
  0
STYLE
  2
STANDARD
 70
0
 40
0
 41
1
 50
0
 71
0
 42
3.5
  3
txt
  4

  0
STYLE
  2
SIMPLEX
 70
0
 40
0
 41
1
 50
0
 71
0
 42
3.5
  3
simplex
  4

  0
STYLE
  2
COMPLEX
 70
0
 40
0
 41
1
 50
0
 71
0
 42
3.5
  3
complex
  4

  0
STYLE
  2
ITALIC
 70
0
 40
0
 41
1
 50
0
 71
0
 42
3.5
  3
italic
  4

  0
ENDTAB
  0
TABLE
  2
VIEW
 70
0
  0
ENDTAB
  0
ENDSEC
  0
SECTION
  2
BLOCKS
  0
ENDSEC
  0
SECTION
  2
ENTITIES
  0
LINE
  8
1
 62
3
  6
DIVIDE
 10
-3.432337900950486
 20
-147.4130674721769
 30
0
 11
-3.432337900950486
 21
-165.1630674721769
 31
0
  0
LINE
  8
1
 62
3
  6
DIVIDE
 10
-8.432337900950486
 20
-167.1630674721769
 30
0
 11
-9.432337900950486
 21
-166.1630674721769
 31
0
  0
LINE
  8
1
 62
3
  6
DIVIDE
 10
-8.432337900950486
 20
-167.1630674721769
 30
0
 11
-5.432337900950486
 21
-167.1630674721769
 31
0
  0
LINE
  8
1
 62
3
  6
DIVIDE
 10
-9.432337900950486
 20
-156.6630674721769
 30
0
 11
-9.432337900950486
 21
-166.1630674721769
 31
0
  0
LINE
  8
1
 62
3
  6
DIVIDE
 10
-29.43233790095049
 20
-156.6630674721769
 30
0
 11
-9.432337900950486
 21
-156.6630674721769
 31
0
  0
LINE
  8
1
 62
3
  6
DIVIDE
 10
-29.43233790095049
 20
-166.1630674721769
 30
0
 11
-29.43233790095049
 21
-156.6630674721769
 31
0
  0
LINE
  8
1
 62
3
  6
DIVIDE
 10
-30.43233790095049
 20
-167.1630674721769
 30
0
 11
-29.43233790095049
 21
-166.1630674721769
 31
0
  0
LINE
  8
1
 62
3
  6
DIVIDE
 10
-33.43233790095049
 20
-167.1630674721769
 30
0
 11
-30.43233790095049
 21
-167.1630674721769
 31
0
  0
LINE
  8
1
 62
3
  6
DIVIDE
 10
-35.43233790095049
 20
-165.1630674721769
 30
0
 11
-35.43233790095049
 21
-147.4130674721769
 31
0
  0
LINE
  8
1
 62
3
  6
DIVIDE
 10
-33.43233790095049
 20
-167.1630674721769
 30
0
 11
-35.43233790095049
 21
-165.1630674721769
 31
0
  0
LINE
  8
1
 62
3
  6
DASHDOT
 10
-19.43233790095049
 20
-168.6630674721769
 30
0
 11
-19.43233790095049
 21
-145.413067472177
 31
0
  0
LINE
  8
1
 62
3
  6
DASHDOT
 10
-35.43233790095049
 20
-168.6630674721769
 30
0
 11
-35.43233790095049
 21
-145.413067472177
 31
0
  0
LINE
  8
1
 62
3
  6
DIVIDE
 10
-35.43233790095049
 20
-64.91306747217688
 30
0
 11
-35.43233790095049
 21
-47.16306747217688
 31
0
  0
LINE
  8
1
 62
3
  6
DIVIDE
 10
-29.43233790095049
 20
-46.16306747217688
 30
0
 11
-30.43233790095049
 21
-45.16306747217688
 31
0
  0
LINE
  8
1
 62
3
  6
DIVIDE
 10
-35.43233790095049
 20
-47.16306747217688
 30
0
 11
-33.43233790095049
 21
-45.16306747217688
 31
0
  0
LINE
  8
1
 62
3
  6
DIVIDE
 10
-30.43233790095049
 20
-45.16306747217688
 30
0
 11
-33.43233790095049
 21
-45.16306747217688
 31
0
  0
LINE
  8
1
 62
3
  6
DIVIDE
 10
-29.43233790095049
 20
-55.66306747217688
 30
0
 11
-29.43233790095049
 21
-46.16306747217688
 31
0
  0
LINE
  8
1
 62
3
  6
DIVIDE
 10
-9.432337900950486
 20
-55.66306747217688
 30
0
 11
-29.43233790095049
 21
-55.66306747217688
 31
0
  0
LINE
  8
1
 62
3
  6
DIVIDE
 10
-9.432337900950486
 20
-46.16306747217688
 30
0
 11
-9.432337900950486
 21
-55.66306747217688
 31
0
  0
LINE
  8
1
 62
3
  6
DIVIDE
 10
-9.432337900950486
 20
-46.16306747217688
 30
0
 11
-8.432337900950486
 21
-45.16306747217688
 31
0
  0
LINE
  8
1
 62
3
  6
DIVIDE
 10
-5.432337900950486
 20
-45.16306747217688
 30
0
 11
-8.432337900950486
 21
-45.16306747217688
 31
0
  0
LINE
  8
1
 62
3
  6
DIVIDE
 10
-3.432337900950486
 20
-47.16306747217688
 30
0
 11
-3.432337900950486
 21
-64.91306747217688
 31
0
  0
LINE
  8
1
 62
3
  6
DASHDOT
 10
-19.43233790095049
 20
-66.91306747217686
 30
0
 11
-19.43233790095049
 21
-43.66306747217688
 31
0
  0
LINE
  8
1
 62
3
  6
DASHDOT
 10
-2.432337900950486
 20
-106.1630674721769
 30
0
 11
2.567662099049514
 21
-106.1630674721769
 31
0
  0
LINE
  8
1
 62
7
 10
-59.4323379009505
 20
-52.16306747217688
 30
0
 11
-59.4323379009505
 21
-53.41306747217688
 31
0
  0
LINE
  8
1
 62
7
 10
-113.4323379009505
 20
-83.66306747217686
 30
0
 11
-2.432337900950486
 21
-83.66306747217686
 31
0
  0
LINE
  8
1
 62
3
  6
DASHDOT
 10
-113.4323379009505
 20
-106.1630674721769
 30
0
 11
-118.4323379009505
 21
-106.1630674721769
 31
0
  0
LINE
  8
1
 62
3
  6
DIVIDE
 10
-229.5335482884879
 20
-141.163067472177
 30
0
 11
-229.533548288488
 21
-132.1630674721769
 31
0
  0
LINE
  8
1
 62
3
  6
DIVIDE
 10
-233.533548288488
 20
-141.163067472177
 30
0
 11
-233.533548288488
 21
-132.1630674721769
 31
0
  0
LINE
  8
1
 62
3
  6
DIVIDE
 10
-262.8444374209435
 20
-90.39511827974575
 30
0
 11
-252.3766831214725
 21
-96.43867904235616
 31
0
  0
LINE
  8
1
 62
3
  6
DIVIDE
 10
-260.8444374209435
 20
-86.93101666460797
 30
0
 11
-250.3766831214725
 21
-92.97457742721841
 31
0
  0
LINE
  8
1
 62
3
  6
DIVIDE
 10
-210.6904134555036
 20
-96.43867904235616
 30
0
 11
-200.2226591560326
 21
-90.39511827974575
 31
0
  0
LINE
  8
1
 62
3
  6
DIVIDE
 10
-212.6904134555036
 20
-92.97457742721841
 30
0
 11
-202.2226591560326
 21
-86.93101666460797
 31
0
  0
LINE
  8
1
 62
7
 10
-225.533548288488
 20
-132.1630674721769
 30
0
 11
-225.533548288488
 21
-127.8483159143783
 31
0
  0
LINE
  8
1
 62
7
 10
-237.533548288488
 20
-132.1630674721769
 30
0
 11
-225.533548288488
 21
-132.1630674721769
 31
0
  0
LINE
  8
1
 62
7
 10
-237.533548288488
 20
-127.8483159143783
 30
0
 11
-237.533548288488
 21
-132.1630674721769
 31
0
  0
LINE
  8
1
 62
7
 10
-206.5168877900926
 20
-114.8329404532547
 30
0
 11
-211.5168877900926
 21
-123.4931944910991
 31
0
  0
LINE
  8
1
 62
7
 10
-187.6757489599711
 20
-137.257882412457
 30
0
 11
-182.6757489599711
 21
-128.5976283746126
 31
0
  0
LINE
  8
1
 62
7
 10
-206.9499004919848
 20
-114.5829404532547
 30
0
 11
-182.6757489599711
 21
-128.5976283746126
 31
0
  0
LINE
  8
1
 62
7
 10
-211.9499004919848
 20
-123.2431944910991
 30
0
 11
-206.9499004919848
 21
-114.5829404532547
 31
0
  0
LINE
  8
1
 62
7
 10
-211.9499004919848
 20
-123.2431944910991
 30
0
 11
-187.6757489599711
 21
-137.257882412457
 31
0
  0
LINE
  8
1
 62
7
 10
-251.5502087868834
 20
-123.4931944910991
 30
0
 11
-256.5502087868834
 21
-114.8329404532547
 31
0
  0
LINE
  8
1
 62
7
 10
-280.3913476170049
 20
-128.5976283746126
 30
0
 11
-275.3913476170049
 21
-137.257882412457
 31
0
  0
LINE
  8
1
 62
7
 10
-251.1171960849912
 20
-123.2431944910991
 30
0
 11
-275.3913476170049
 21
-137.257882412457
 31
0
  0
LINE
  8
1
 62
7
 10
-256.1171960849912
 20
-114.5829404532547
 30
0
 11
-251.1171960849912
 21
-123.2431944910991
 31
0
  0
LINE
  8
1
 62
7
 10
-256.1171960849912
 20
-114.5829404532547
 30
0
 11
-280.3913476170049
 21
-128.5976283746126
 31
0
  0
LINE
  8
1
 62
7
 10
-236.533548288488
 20
-80.16306747217685
 30
0
 11
-226.533548288488
 21
-80.16306747217685
 31
0
  0
LINE
  8
1
 62
7
 10
-226.533548288488
 20
-52.63369162946106
 30
0
 11
-236.533548288488
 21
-52.63369162946106
 31
0
  0
LINE
  8
1
 62
7
 10
-236.533548288488
 20
-80.66306747217686
 30
0
 11
-236.533548288488
 21
-52.63369162946106
 31
0
  0
LINE
  8
1
 62
7
 10
-226.533548288488
 20
-80.66306747217686
 30
0
 11
-236.533548288488
 21
-80.66306747217686
 31
0
  0
LINE
  8
1
 62
7
 10
-226.533548288488
 20
-80.66306747217686
 30
0
 11
-226.533548288488
 21
-52.63369162946106
 31
0
  0
LINE
  8
1
 62
7
 10
-178.1994308154727
 20
-86.05158037214849
 30
0
 11
-173.3780371289633
 21
-83.2679474293731
 31
0
  0
LINE
  8
1
 62
7
 10
-187.4494308154727
 20
-70.03011040213639
 30
0
 11
-182.6280371289632
 21
-67.24647745936099
 31
0
  0
LINE
  8
1
 62
7
 10
-187.4494308154727
 20
-142.2960245422174
 30
0
 11
-182.6280371289633
 21
-145.0796574849928
 31
0
  0
LINE
  8
1
 62
7
 10
-178.1994308154727
 20
-126.2745545722053
 30
0
 11
-173.3780371289633
 21
-129.0581875149807
 31
0
  0
LINE
  8
1
 62
7
 10
-240.783548288488
 20
-162.4075116422458
 30
0
 11
-240.783548288488
 21
-167.9747775277966
 31
0
  0
LINE
  8
1
 62
7
 10
-222.283548288488
 20
-162.4075116422458
 30
0
 11
-222.283548288488
 21
-167.9747775277966
 31
0
  0
LINE
  8
1
 62
7
 10
-284.8676657615033
 20
-126.2745545722053
 30
0
 11
-289.6890594480127
 21
-129.0581875149807
 31
0
  0
LINE
  8
1
 62
7
 10
-275.6176657615033
 20
-142.2960245422174
 30
0
 11
-280.4390594480128
 21
-145.0796574849928
 31
0
  0
LINE
  8
1
 62
7
 10
-275.6176657615033
 20
-70.03011040213636
 30
0
 11
-280.4390594480127
 21
-67.24647745936096
 31
0
  0
LINE
  8
1
 62
7
 10
-284.8676657615033
 20
-86.05158037214849
 30
0
 11
-289.6890594480127
 21
-83.2679474293731
 31
0
  0
LINE
  8
1
 62
7
 10
-222.283548288488
 20
-49.91862330210796
 30
0
 11
-222.283548288488
 21
-44.35135741655716
 31
0
  0
LINE
  8
1
 62
7
 10
-240.783548288488
 20
-49.91862330210796
 30
0
 11
-240.783548288488
 21
-44.35135741655716
 31
0
  0
LINE
  8
1
 62
7
 10
-264.3444374209433
 20
-92.99319449109899
 30
0
 11
-259.3444374209433
 21
-84.33294045325462
 31
0
  0
LINE
  8
1
 62
7
 10
-262.9663863660788
 20
-82.24180725478955
 30
0
 11
-259.3444374209433
 21
-84.33294045325462
 31
0
  0
LINE
  8
1
 62
7
 10
-264.3444374209433
 20
-92.99319449109899
 30
0
 11
-267.9663863660788
 21
-90.90206129263392
 31
0
  0
LINE
  8
1
 62
7
 10
-259.6908475824571
 20
-84.13294045325461
 30
0
 11
-264.6908475824571
 21
-92.79319449109897
 31
0
  0
LINE
  8
1
 62
7
 10
-203.7226591560326
 20
-84.33294045325471
 30
0
 11
-198.7226591560326
 21
-92.99319449109908
 31
0
  0
LINE
  8
1
 62
7
 10
-195.1007102108972
 20
-90.90206129263405
 30
0
 11
-198.7226591560326
 21
-92.99319449109908
 31
0
  0
LINE
  8
1
 62
7
 10
-203.7226591560326
 20
-84.33294045325471
 30
0
 11
-200.0134071953061
 21
-82.19140283523711
 31
0
  0
LINE
  8
1
 62
7
 10
-198.3762489945188
 20
-92.79319449109909
 30
0
 11
-203.3762489945188
 21
-84.1329404532547
 31
0
  0
LINE
  8
1
 62
7
 10
-226.533548288488
 20
-141.1630674721769
 30
0
 11
-236.533548288488
 21
-141.1630674721769
 31
0
  0
LINE
  8
1
 62
7
 10
-236.533548288488
 20
-145.345333869107
 30
0
 11
-236.533548288488
 21
-141.1630674721769
 31
0
  0
LINE
  8
1
 62
7
 10
-226.533548288488
 20
-141.1630674721769
 30
0
 11
-226.533548288488
 21
-145.345333869107
 31
0
  0
LINE
  8
1
 62
7
 10
-236.533548288488
 20
-141.5630674721769
 30
0
 11
-226.533548288488
 21
-141.5630674721769
 31
0
  0
LINE
  8
1
 62
3
  6
DASHDOT
 10
-241.533548288488
 20
-106.1630674721769
 30
0
 11
-221.533548288488
 21
-106.1630674721769
 31
0
  0
LINE
  8
1
 62
3
  6
DASHDOT
 10
-231.533548288488
 20
-96.16306747217691
 30
0
 11
-231.533548288488
 21
-116.1630674721769
 31
0
  0
LINE
  8
1
 62
7
 10
-113.4323379009505
 20
-132.1630674721769
 30
0
 11
-2.432337900950486
 21
-132.1630674721769
 31
0
  0
LINE
  8
1
 62
3
  6
DASHDOT
 10
-35.43233790095049
 20
-66.91306747217686
 30
0
 11
-35.43233790095049
 21
-43.66306747217688
 31
0
  0
LINE
  8
1
 62
7
 10
-51.43233790095049
 20
-165.1630674721769
 30
0
 11
-51.43233790095049
 21
-147.4130674721769
 31
0
  0
LINE
  8
1
 62
7
 10
-46.43233790095049
 20
-167.1630674721769
 30
0
 11
-45.43233790095049
 21
-166.1630674721769
 31
0
  0
LINE
  8
1
 62
7
 10
-49.43233790095049
 20
-167.1630674721769
 30
0
 11
-51.43233790095049
 21
-165.1630674721769
 31
0
  0
LINE
  8
1
 62
7
 10
-45.43233790095049
 20
-166.1630674721769
 30
0
 11
-45.43233790095049
 21
-156.6630674721769
 31
0
  0
LINE
  8
1
 62
7
 10
-49.43233790095049
 20
-167.1630674721769
 30
0
 11
-46.43233790095049
 21
-167.1630674721769
 31
0
  0
LINE
  8
1
 62
7
 10
-45.43233790095049
 20
-156.6630674721769
 30
0
 11
-25.43233790095049
 21
-156.6630674721769
 31
0
  0
LINE
  8
1
 62
7
 10
-24.43233790095049
 20
-167.1630674721769
 30
0
 11
-25.43233790095049
 21
-166.1630674721769
 31
0
  0
LINE
  8
1
 62
7
 10
-25.43233790095049
 20
-156.6630674721769
 30
0
 11
-25.43233790095049
 21
-166.1630674721769
 31
0
  0
LINE
  8
1
 62
7
 10
-24.43233790095049
 20
-167.1630674721769
 30
0
 11
-21.43233790095049
 21
-167.1630674721769
 31
0
  0
LINE
  8
1
 62
7
 10
-19.43233790095049
 20
-147.4130674721769
 30
0
 11
-19.43233790095049
 21
-165.1630674721769
 31
0
  0
LINE
  8
1
 62
7
 10
-25.43233790095049
 20
-46.16306747217688
 30
0
 11
-24.43233790095049
 21
-45.16306747217688
 31
0
  0
LINE
  8
1
 62
7
 10
-45.43233790095049
 20
-46.16306747217688
 30
0
 11
-46.43233790095049
 21
-45.16306747217688
 31
0
  0
LINE
  8
1
 62
7
 10
-51.43233790095049
 20
-47.16306747217688
 30
0
 11
-49.43233790095049
 21
-45.16306747217688
 31
0
  0
LINE
  8
1
 62
7
 10
-51.43233790095049
 20
-64.91306747217688
 30
0
 11
-51.43233790095049
 21
-47.16306747217688
 31
0
  0
LINE
  8
1
 62
7
 10
-45.43233790095049
 20
-55.66306747217688
 30
0
 11
-45.43233790095049
 21
-46.16306747217688
 31
0
  0
LINE
  8
1
 62
7
 10
-46.43233790095049
 20
-45.16306747217688
 30
0
 11
-49.43233790095049
 21
-45.16306747217688
 31
0
  0
LINE
  8
1
 62
7
 10
-25.43233790095049
 20
-55.66306747217688
 30
0
 11
-45.43233790095049
 21
-55.66306747217688
 31
0
  0
LINE
  8
1
 62
7
 10
-25.43233790095049
 20
-46.16306747217688
 30
0
 11
-25.43233790095049
 21
-55.66306747217688
 31
0
  0
LINE
  8
1
 62
7
 10
-21.43233790095049
 20
-45.16306747217688
 30
0
 11
-24.43233790095049
 21
-45.16306747217688
 31
0
  0
LINE
  8
1
 62
7
 10
-19.43233790095049
 20
-47.16306747217688
 30
0
 11
-19.43233790095049
 21
-64.91306747217688
 31
0
  0
LINE
  8
1
 62
7
 10
-62.9323379009505
 20
-150.0649912608236
 30
0
 11
-58.4323379009505
 21
-152.6630674721769
 31
0
  0
LINE
  8
1
 62
7
 10
-67.4323379009505
 20
-152.6630674721769
 30
0
 11
-62.9323379009505
 21
-150.0649912608236
 31
0
  0
LINE
  8
1
 62
7
 10
-58.4323379009505
 20
-152.6630674721769
 30
0
 11
-58.4323379009505
 21
-162.6630674721769
 31
0
  0
LINE
  8
1
 62
7
 10
-67.4323379009505
 20
-152.6630674721769
 30
0
 11
-58.4323379009505
 21
-152.6630674721769
 31
0
  0
LINE
  8
1
 62
7
 10
-67.4323379009505
 20
-162.6630674721769
 30
0
 11
-67.4323379009505
 21
-152.6630674721769
 31
0
  0
LINE
  8
1
 62
3
  6
DIVIDE
 10
-5.432337900950486
 20
-61.91306747217688
 30
0
 11
-49.43233790095049
 21
-61.91306747217686
 31
0
  0
LINE
  8
1
 62
3
  6
DIVIDE
 10
-5.432337900950486
 20
-69.41306747217688
 30
0
 11
-5.432337900950486
 21
-61.91306747217688
 31
0
  0
LINE
  8
1
 62
3
  6
DIVIDE
 10
-49.43233790095049
 20
-69.41306747217686
 30
0
 11
-5.432337900950486
 21
-69.41306747217688
 31
0
  0
LINE
  8
1
 62
3
  6
DIVIDE
 10
-49.43233790095049
 20
-61.91306747217686
 30
0
 11
-49.43233790095049
 21
-69.41306747217686
 31
0
  0
LINE
  8
1
 62
7
 10
-56.9323379009505
 20
-57.66306747217688
 30
0
 11
-54.9323379009505
 21
-57.66306747217688
 31
0
  0
LINE
  8
1
 62
7
 10
-56.9323379009505
 20
-54.66306747217688
 30
0
 11
-54.9323379009505
 21
-54.66306747217688
 31
0
  0
LINE
  8
1
 62
7
 10
-54.9323379009505
 20
-61.16306747217688
 30
0
 11
-56.9323379009505
 21
-61.16306747217688
 31
0
  0
LINE
  8
1
 62
7
 10
-54.9323379009505
 20
-43.16306747217688
 30
0
 11
-56.9323379009505
 21
-43.16306747217688
 31
0
  0
LINE
  8
1
 62
7
 10
-54.9323379009505
 20
-43.16306747217688
 30
0
 11
-54.9323379009505
 21
-61.16306747217688
 31
0
  0
LINE
  8
1
 62
7
 10
-71.9323379009505
 20
-49.66306747217688
 30
0
 11
-71.9323379009505
 21
-66.66306747217686
 31
0
  0
LINE
  8
1
 62
7
 10
-67.2323379009505
 20
-53.41306747217687
 30
0
 11
-56.9323379009505
 21
-53.41306747217688
 31
0
  0
LINE
  8
1
 62
7
 10
-67.2323379009505
 20
-52.16306747217688
 30
0
 11
-67.2323379009505
 21
-60.16306747217688
 31
0
  0
LINE
  8
1
 62
7
 10
-59.4323379009505
 20
-58.91306747217688
 30
0
 11
-59.4323379009505
 21
-60.16306747217688
 31
0
  0
LINE
  8
1
 62
7
 10
-67.2323379009505
 20
-58.91306747217686
 30
0
 11
-56.9323379009505
 21
-58.91306747217688
 31
0
  0
LINE
  8
1
 62
7
 10
-59.4323379009505
 20
-60.16306747217688
 30
0
 11
-71.9323379009505
 21
-60.16306747217688
 31
0
  0
LINE
  8
1
 62
7
 10
-71.9323379009505
 20
-52.16306747217688
 30
0
 11
-59.4323379009505
 21
-52.16306747217688
 31
0
  0
LINE
  8
1
 62
7
 10
-56.9323379009505
 20
-148.1630674721769
 30
0
 11
-56.9323379009505
 21
-146.1152168734703
 31
0
  0
LINE
  8
1
 62
7
 10
-56.9323379009505
 20
-148.1630674721769
 30
0
 11
-53.9323379009505
 21
-148.1630674721769
 31
0
  0
LINE
  8
1
 62
7
 10
-55.9323379009505
 20
-162.6630674721769
 30
0
 11
-53.9323379009505
 21
-160.6630674721769
 31
0
  0
LINE
  8
1
 62
7
 10
-53.9323379009505
 20
-146.830090361718
 30
0
 11
-53.9323379009505
 21
-160.6630674721769
 31
0
  0
LINE
  8
1
 62
7
 10
-55.9323379009505
 20
-162.6630674721769
 30
0
 11
-74.9323379009505
 21
-162.6630674721769
 31
0
  0
LINE
  8
1
 62
3
 10
-56.9323379009505
 20
-146.1152168734703
 30
0
 11
-52.84507030182682
 21
-146.1152168734703
 31
0
  0
LINE
  8
1
 62
3
 10
-71.9323379009505
 20
-146.830090361718
 30
0
 11
-68.75855692152349
 21
-146.830090361718
 31
0
  0
LINE
  8
1
 62
7
 10
-52.4323379009505
 20
-146.830090361718
 30
0
 11
-68.75855692152349
 21
-146.830090361718
 31
0
  0
LINE
  8
1
 62
7
 10
-71.9323379009505
 20
-146.1152168734703
 30
0
 11
-56.9323379009505
 21
-146.1152168734703
 31
0
  0
LINE
  8
1
 62
7
 10
-53.9323379009505
 20
-64.16306747217688
 30
0
 11
-56.9323379009505
 21
-64.16306747217688
 31
0
  0
LINE
  8
1
 62
7
 10
-56.9323379009505
 20
-66.21091807088348
 30
0
 11
-71.9323379009505
 21
-66.21091807088348
 31
0
  0
LINE
  8
1
 62
3
 10
-68.75855692152349
 20
-65.49604458263576
 30
0
 11
-71.9323379009505
 21
-65.49604458263576
 31
0
  0
LINE
  8
1
 62
7
 10
-56.9323379009505
 20
-43.16306747217688
 30
0
 11
-56.9323379009505
 21
-66.21091807088348
 31
0
  0
LINE
  8
1
 62
7
 10
-53.9323379009505
 20
-51.66306747217688
 30
0
 11
-54.9323379009505
 21
-50.66306747217688
 31
0
  0
LINE
  8
1
 62
7
 10
-53.9323379009505
 20
-51.66306747217688
 30
0
 11
-53.9323379009505
 21
-65.49604458263576
 31
0
  0
LINE
  8
1
 62
7
 10
-74.9323379009505
 20
-49.66306747217688
 30
0
 11
-56.9323379009505
 21
-49.66306747217688
 31
0
  0
LINE
  8
1
 62
7
 10
-74.9323379009505
 20
-152.6630674721769
 30
0
 11
-71.9323379009505
 21
-152.6630674721769
 31
0
  0
LINE
  8
1
 62
7
 10
-71.9323379009505
 20
-159.6630674721769
 30
0
 11
-74.9323379009505
 21
-159.6630674721769
 31
0
  0
LINE
  8
1
 62
7
 10
-71.9323379009505
 20
-141.5630674721769
 30
0
 11
-71.9323379009505
 21
-162.6630674721769
 31
0
  0
LINE
  8
1
 62
7
 10
-71.9323379009505
 20
-59.66306747217688
 30
0
 11
-74.9323379009505
 21
-59.66306747217688
 31
0
  0
LINE
  8
1
 62
7
 10
-74.9323379009505
 20
-52.66306747217688
 30
0
 11
-71.9323379009505
 21
-52.66306747217688
 31
0
  0
LINE
  8
1
 62
3
 10
-95.9323379009505
 20
-168.6630674721769
 30
0
 11
-74.9323379009505
 21
-141.5630674721769
 31
0
  0
LINE
  8
1
 62
7
 10
-74.9323379009505
 20
-141.5630674721769
 30
0
 11
-74.9323379009505
 21
-168.6630674721769
 31
0
  0
LINE
  8
1
 62
7
 10
-97.9323379009505
 20
-141.5630674721769
 30
0
 11
-71.9323379009505
 21
-141.5630674721769
 31
0
  0
LINE
  8
1
 62
7
 10
-74.9323379009505
 20
-168.6630674721769
 30
0
 11
-95.9323379009505
 21
-168.6630674721769
 31
0
  0
LINE
  8
1
 62
3
 10
-95.9323379009505
 20
-141.5630674721769
 30
0
 11
-74.9323379009505
 21
-168.6630674721769
 31
0
  0
LINE
  8
1
 62
7
 10
-97.9323379009505
 20
-145.6630674721769
 30
0
 11
-112.4323379009505
 21
-145.6630674721769
 31
0
  0
LINE
  8
1
 62
7
 10
-97.9323379009505
 20
-146.6630674721769
 30
0
 11
-97.9323379009505
 21
-141.5630674721769
 31
0
  0
LINE
  8
1
 62
7
 10
-95.9323379009505
 20
-168.6630674721769
 30
0
 11
-95.9323379009505
 21
-141.5630674721769
 31
0
  0
LINE
  8
1
 62
7
 10
-97.9323379009505
 20
-146.6630674721769
 30
0
 11
-102.4323379009505
 21
-151.1630674721769
 31
0
  0
LINE
  8
1
 62
7
 10
-102.4323379009505
 20
-145.6630674721769
 30
0
 11
-102.4323379009505
 21
-160.6630674721769
 31
0
  0
LINE
  8
1
 62
7
 10
-100.4323379009505
 20
-162.6630674721769
 30
0
 11
-102.4323379009505
 21
-160.6630674721769
 31
0
  0
LINE
  8
1
 62
7
 10
-100.4323379009505
 20
-162.6630674721769
 30
0
 11
-95.9323379009505
 21
-162.6630674721769
 31
0
  0
LINE
  8
1
 62
3
 10
-74.9323379009505
 20
-43.66306747217688
 30
0
 11
-95.9323379009505
 21
-66.66306747217688
 31
0
  0
LINE
  8
1
 62
3
 10
-95.9323379009505
 20
-43.66306747217688
 30
0
 11
-74.9323379009505
 21
-66.66306747217686
 31
0
  0
LINE
  8
1
 62
7
 10
-74.9323379009505
 20
-43.66306747217688
 30
0
 11
-74.9323379009505
 21
-66.66306747217686
 31
0
  0
LINE
  8
1
 62
7
 10
-95.9323379009505
 20
-43.66306747217688
 30
0
 11
-74.9323379009505
 21
-43.66306747217688
 31
0
  0
LINE
  8
1
 62
7
 10
-95.9323379009505
 20
-66.66306747217688
 30
0
 11
-95.9323379009505
 21
-43.66306747217688
 31
0
  0
LINE
  8
1
 62
7
 10
-112.4323379009505
 20
-70.06428453195139
 30
0
 11
-112.4323379009505
 21
-66.66306747217686
 31
0
  0
LINE
  8
1
 62
7
 10
-112.4323379009505
 20
-66.66306747217686
 30
0
 11
-111.7140977631317
 21
-66.66306747217686
 31
0
  0
LINE
  8
1
 62
7
 10
-46.58508457358222
 20
-68.80079320542522
 30
0
 11
-46.71788853792701
 21
-66.49948577074288
 31
0
  0
LINE
  8
1
 62
7
 10
-94.87526486012014
 20
-69.84171185831414
 30
0
 11
-50.28727476544066
 21
-72.49624965202398
 31
0
  0
LINE
  8
1
 62
7
 10
-105.5290525076424
 20
-80.15144073721818
 30
0
 11
-35.14615033829766
 21
-76.08978070461548
 31
0
  0
LINE
  8
1
 62
7
 10
-109.3378844346777
 20
-55.41053940413486
 30
0
 11
-112.7812942766346
 21
-71.71676302152446
 31
0
  0
LINE
  8
1
 62
7
 10
-102.4323379009505
 20
-51.66306747217688
 30
0
 11
-100.4323379009505
 21
-49.66306747217688
 31
0
  0
LINE
  8
1
 62
7
 10
-97.9323379009505
 20
-65.66306747217688
 30
0
 11
-97.9323379009505
 21
-66.66306747217688
 31
0
  0
LINE
  8
1
 62
7
 10
-102.4323379009505
 20
-61.16306747217688
 30
0
 11
-97.9323379009505
 21
-65.66306747217688
 31
0
  0
LINE
  8
1
 62
7
 10
-102.4323379009505
 20
-51.66306747217688
 30
0
 11
-102.4323379009505
 21
-64.79722819413018
 31
0
  0
LINE
  8
1
 62
7
 10
-95.9323379009505
 20
-49.66306747217688
 30
0
 11
-100.4323379009505
 21
-49.66306747217688
 31
0
  0
LINE
  8
1
 62
3
  6
DIVIDE
 10
-98.4323379009505
 20
-83.16306747217689
 30
0
 11
-73.4323379009505
 21
-83.16306747217689
 31
0
  0
LINE
  8
1
 62
3
  6
DIVIDE
 10
-93.4323379009505
 20
-141.1630674721769
 30
0
 11
-93.4323379009505
 21
-129.1630674721769
 31
0
  0
LINE
  8
1
 62
3
  6
DIVIDE
 10
-89.4323379009505
 20
-129.1630674721769
 30
0
 11
-89.4323379009505
 21
-141.1630674721769
 31
0
  0
LINE
  8
1
 62
3
  6
DIVIDE
 10
-83.4323379009505
 20
-141.1630674721769
 30
0
 11
-83.4323379009505
 21
-129.1630674721769
 31
0
  0
LINE
  8
1
 62
3
  6
DIVIDE
 10
-79.4323379009505
 20
-129.1630674721769
 30
0
 11
-79.4323379009505
 21
-141.1630674721769
 31
0
  0
LINE
  8
1
 62
3
  6
DIVIDE
 10
-98.4323379009505
 20
-129.1630674721769
 30
0
 11
-98.4323379009505
 21
-83.16306747217689
 31
0
  0
LINE
  8
1
 62
3
  6
DIVIDE
 10
-73.4323379009505
 20
-129.1630674721769
 30
0
 11
-98.4323379009505
 21
-129.1630674721769
 31
0
  0
LINE
  8
1
 62
3
  6
DIVIDE
 10
-73.4323379009505
 20
-83.16306747217689
 30
0
 11
-73.4323379009505
 21
-129.1630674721769
 31
0
  0
LINE
  8
1
 62
7
 10
-49.4323379009505
 20
-80.66306747217686
 30
0
 11
-113.4323379009505
 21
-80.66306747217686
 31
0
  0
LINE
  8
1
 62
7
 10
-68.4323379009505
 20
-141.1630674721769
 30
0
 11
-112.4323379009505
 21
-141.1630674721769
 31
0
  0
LINE
  8
1
 62
3
 10
-52.84507030182682
 20
-66.21091807088348
 30
0
 11
-52.4323379009505
 21
-65.49604458263576
 31
0
  0
LINE
  8
1
 62
3
 10
-52.84507030182682
 20
-66.21091807088348
 30
0
 11
-56.9323379009505
 21
-66.21091807088348
 31
0
  0
LINE
  8
1
 62
7
 10
-113.4323379009505
 20
-76.16306747217686
 30
0
 11
-112.5911359230876
 21
-75.32186549431395
 31
0
  0
LINE
  8
1
 62
7
 10
-69.4323379009505
 20
-66.66306747217686
 30
0
 11
-68.75855692152349
 21
-65.49604458263576
 31
0
  0
LINE
  8
1
 62
7
 10
-68.75855692152349
 20
-65.49604458263576
 30
0
 11
-52.4323379009505
 21
-65.49604458263576
 31
0
  0
LINE
  8
1
 62
7
 10
-52.4323379009505
 20
-65.49604458263576
 30
0
 11
-52.09575590929568
 21
-64.91306747217686
 31
0
  0
LINE
  8
1
 62
7
 10
-52.09575590929568
 20
-64.91306747217686
 30
0
 11
-3.432337900950486
 21
-64.91306747217688
 31
0
  0
LINE
  8
1
 62
7
 10
-3.432337900950486
 20
-64.91306747217688
 30
0
 11
-3.432337900950486
 21
-75.16306747217686
 31
0
  0
LINE
  8
1
 62
7
 10
-3.432337900950486
 20
-75.16306747217686
 30
0
 11
-2.432337900950486
 21
-76.16306747217686
 31
0
  0
LINE
  8
1
 62
3
 10
-52.4323379009505
 20
-146.830090361718
 30
0
 11
-52.84507030182682
 21
-146.1152168734703
 31
0
  0
LINE
  8
1
 62
7
 10
-2.432337900950486
 20
-128.6630674721769
 30
0
 11
-113.4323379009505
 21
-128.6630674721769
 31
0
  0
LINE
  8
1
 62
7
 10
-113.4323379009505
 20
-136.1630674721769
 30
0
 11
-113.4323379009505
 21
-76.16306747217686
 31
0
  0
LINE
  8
1
 62
7
 10
-112.4323379009505
 20
-137.1630674721769
 30
0
 11
-113.4323379009505
 21
-136.1630674721769
 31
0
  0
LINE
  8
1
 62
7
 10
-112.4323379009505
 20
-145.6630674721769
 30
0
 11
-112.4323379009505
 21
-137.1630674721769
 31
0
  0
LINE
  8
1
 62
7
 10
-69.4323379009505
 20
-145.6630674721769
 30
0
 11
-71.9323379009505
 21
-145.6630674721769
 31
0
  0
LINE
  8
1
 62
7
 10
-68.75855692152349
 20
-146.830090361718
 30
0
 11
-69.4323379009505
 21
-145.6630674721769
 31
0
  0
LINE
  8
1
 62
7
 10
-52.09575590929568
 20
-147.4130674721769
 30
0
 11
-52.4323379009505
 21
-146.830090361718
 31
0
  0
LINE
  8
1
 62
7
 10
-3.432337900950486
 20
-147.4130674721769
 30
0
 11
-52.09575590929568
 21
-147.4130674721769
 31
0
  0
LINE
  8
1
 62
7
 10
-3.432337900950486
 20
-137.1630674721769
 30
0
 11
-3.432337900950486
 21
-147.4130674721769
 31
0
  0
LINE
  8
1
 62
7
 10
-2.432337900950486
 20
-136.1630674721769
 30
0
 11
-3.432337900950486
 21
-137.1630674721769
 31
0
  0
LINE
  8
1
 62
7
 10
-2.432337900950486
 20
-76.16306747217686
 30
0
 11
-2.432337900950486
 21
-136.1630674721769
 31
0
  0
LINE
  8
1
 62
7
 10
-59.4323379009505
 20
-53.41306747217688
 30
0
 11
-59.65274662683608
 21
-52.16306747217688
 31
0
  0
LINE
  8
1
 62
7
 10
-59.65274662683608
 20
-52.16306747217688
 30
0
 11
-61.06336247250381
 21
-60.16306747217688
 31
0
  0
LINE
  8
1
 62
7
 10
-61.06336247250381
 20
-60.16306747217688
 30
0
 11
-62.47397831817153
 21
-52.16306747217688
 31
0
  0
LINE
  8
1
 62
7
 10
-62.47397831817153
 20
-52.16306747217688
 30
0
 11
-63.88459416383925
 21
-60.16306747217688
 31
0
  0
LINE
  8
1
 62
7
 10
-63.88459416383925
 20
-60.16306747217688
 30
0
 11
-65.29521000950696
 21
-52.16306747217688
 31
0
  0
LINE
  8
1
 62
7
 10
-65.29521000950696
 20
-52.16306747217688
 30
0
 11
-66.70582585517468
 21
-60.16306747217688
 31
0
  0
LINE
  8
1
 62
7
 10
-66.70582585517468
 20
-60.16306747217688
 30
0
 11
-67.2323379009505
 21
-57.17706927915873
 31
0
  0
LINE
  8
1
 62
7
 10
-101.2176634424421
 20
-66.66306747217686
 30
0
 11
-69.4323379009505
 21
-66.66306747217686
 31
0
  0
ARC
  8
1
 62
3
  6
DIVIDE
 10
-5.432337900950486
 20
-149.4130674721769
 30
0
 40
2
 50
0
 51
90
  0
ARC
  8
1
 62
3
  6
DIVIDE
 10
-33.43233790095049
 20
-149.4130674721769
 30
0
 40
2
 50
90
 51
180
  0
ARC
  8
1
 62
3
  6
DIVIDE
 10
-33.43233790095049
 20
-62.91306747217688
 30
0
 40
2
 50
180
 51
270
  0
ARC
  8
1
 62
3
  6
DIVIDE
 10
-5.432337900950486
 20
-62.91306747217688
 30
0
 40
2
 50
270
 51
0
  0
ARC
  8
1
 62
7
 10
-105.9134062468356
 20
-56.13369162946106
 30
0
 40
3.499999999999973
 50
337.7954557545489
 51
354.0379743116893
  0
ARC
  8
1
 62
3
  6
DIVIDE
 10
-231.533548288488
 20
-106.1630674721769
 30
0
 40
23.00000000000009
 50
139.9845898317494
 51
160.0154101682507
  0
ARC
  8
1
 62
3
  6
DIVIDE
 10
-231.533548288488
 20
-106.1630674721769
 30
0
 40
22.99999999999998
 50
19.98458983174939
 51
40.0154101682508
  0
ARC
  8
1
 62
7
 10
-231.533548288488
 20
-106.1630674721769
 30
0
 40
22.49999999999996
 50
285.4660099534206
 51
254.5339900465795
  0
ARC
  8
1
 62
7
 10
-231.533548288488
 20
-106.1630674721769
 30
0
 40
39.49999999999998
 50
157.2721395549391
 51
202.7278604450608
  0
ARC
  8
1
 62
7
 10
-231.533548288488
 20
-106.1630674721769
 30
0
 40
30.00000000000003
 50
99.59406822686044
 51
200.4059317731395
  0
ARC
  8
1
 62
7
 10
-231.533548288488
 20
-106.1630674721769
 30
0
 40
31.00000000000003
 50
99.28179908667751
 51
200.7182009133224
  0
ARC
  8
1
 62
7
 10
-231.533548288488
 20
-106.1630674721769
 30
0
 40
40.50000000000004
 50
97.09164608439373
 51
202.9083539156062
  0
ARC
  8
1
 62
7
 10
-231.533548288488
 20
-106.1630674721769
 30
0
 40
45.00000000000004
 50
96.37937020844279
 51
203.6206297915572
  0
ARC
  8
1
 62
7
 10
-231.533548288488
 20
-106.1630674721769
 30
0
 40
39.49999999999997
 50
277.2721395549393
 51
322.7278604450606
  0
ARC
  8
1
 62
7
 10
-231.533548288488
 20
-106.1630674721769
 30
0
 40
44.99999999999993
 50
216.3793702084429
 51
323.6206297915571
  0
ARC
  8
1
 62
7
 10
-231.533548288488
 20
-106.1630674721769
 30
0
 40
40.50000000000001
 50
217.0916460843937
 51
322.9083539156061
  0
ARC
  8
1
 62
7
 10
-231.533548288488
 20
-106.1630674721769
 30
0
 40
30.99999999999995
 50
219.2817990866775
 51
320.7182009133223
  0
ARC
  8
1
 62
7
 10
-231.533548288488
 20
-106.1630674721769
 30
0
 40
29.99999999999999
 50
219.5940682268604
 51
320.4059317731393
  0
ARC
  8
1
 62
7
 10
-231.533548288488
 20
-106.1630674721769
 30
0
 40
44.99999999999992
 50
336.3793702084428
 51
83.62062979155721
  0
ARC
  8
1
 62
7
 10
-231.533548288488
 20
-106.1630674721769
 30
0
 40
40.50000000000001
 50
337.0916460843937
 51
82.90835391560627
  0
ARC
  8
1
 62
7
 10
-231.533548288488
 20
-106.1630674721769
 30
0
 40
39.50000000000003
 50
37.27213955493922
 51
82.72786044506073
  0
ARC
  8
1
 62
7
 10
-231.533548288488
 20
-106.1630674721769
 30
0
 40
30.99999999999997
 50
339.2817990866774
 51
80.71820091332249
  0
ARC
  8
1
 62
7
 10
-231.533548288488
 20
-106.1630674721769
 30
0
 40
30.00000000000001
 50
339.5940682268604
 51
80.40593177313956
  0
ARC
  8
1
 62
7
 10
-231.533548288488
 20
-106.1630674721769
 30
0
 40
57.00000000000002
 50
99.33930117158535
 51
140.6606988284147
  0
ARC
  8
1
 62
7
 10
-231.533548288488
 20
-106.1630674721769
 30
0
 40
57.00000000000006
 50
159.3393011715854
 51
200.6606988284146
  0
ARC
  8
1
 62
7
 10
-231.533548288488
 20
-106.1630674721769
 30
0
 40
57.00000000000003
 50
219.3393011715853
 51
260.6606988284146
  0
ARC
  8
1
 62
7
 10
-231.533548288488
 20
-106.1630674721769
 30
0
 40
56.99999999999996
 50
279.3393011715854
 51
320.6606988284147
  0
ARC
  8
1
 62
7
 10
-231.533548288488
 20
-106.1630674721769
 30
0
 40
57.00000000000003
 50
339.3393011715853
 51
20.66069882841465
  0
ARC
  8
1
 62
7
 10
-231.533548288488
 20
-106.1630674721769
 30
0
 40
62.49999999999996
 50
21.48895862481135
 51
38.51104137518863
  0
ARC
  8
1
 62
7
 10
-231.533548288488
 20
-106.1630674721769
 30
0
 40
62.49999999999996
 50
321.4889586248113
 51
338.5110413751887
  0
ARC
  8
1
 62
7
 10
-231.533548288488
 20
-106.1630674721769
 30
0
 40
62.49999999999996
 50
261.4889586248114
 51
278.5110413751887
  0
ARC
  8
1
 62
7
 10
-231.533548288488
 20
-106.1630674721769
 30
0
 40
62.49999999999998
 50
201.4889586248113
 51
218.5110413751886
  0
ARC
  8
1
 62
7
 10
-231.533548288488
 20
-106.1630674721769
 30
0
 40
62.50000000000001
 50
141.4889586248113
 51
158.5110413751887
  0
ARC
  8
1
 62
7
 10
-231.533548288488
 20
-106.1630674721769
 30
0
 40
57.00000000000002
 50
39.33930117158533
 51
80.66069882841467
  0
ARC
  8
1
 62
7
 10
-231.533548288488
 20
-106.1630674721769
 30
0
 40
62.50000000000003
 50
81.48895862481135
 51
98.51104137518865
  0
ARC
  8
1
 62
7
 10
-231.533548288488
 20
-106.1630674721769
 30
0
 40
39.5
 50
97.27213955493927
 51
142.7278604450605
  0
ARC
  8
1
 62
7
 10
-231.533548288488
 20
-106.1630674721769
 30
0
 40
39.49999999999994
 50
337.2721395549393
 51
22.72786044506075
  0
ARC
  8
1
 62
7
 10
-231.533548288488
 20
-106.1630674721769
 30
0
 40
39.49999999999996
 50
217.2721395549394
 51
262.7278604450607
  0
ARC
  8
1
 62
7
 10
-49.43233790095049
 20
-149.4130674721769
 30
0
 40
2
 50
90
 51
180
  0
ARC
  8
1
 62
7
 10
-21.43233790095049
 20
-149.4130674721769
 30
0
 40
2
 50
0
 51
90
  0
ARC
  8
1
 62
7
 10
-49.43233790095049
 20
-62.91306747217688
 30
0
 40
2
 50
180
 51
270
  0
ARC
  8
1
 62
7
 10
-21.43233790095049
 20
-62.91306747217688
 30
0
 40
2
 50
270
 51
0
  0
ARC
  8
1
 62
7
 10
-48.48762493906449
 20
-79.51173573978589
 30
0
 40
15
 50
18.40520833481894
 51
75.99431641889137
  0
ARC
  8
1
 62
7
 10
-35.20376253734167
 20
-75.09144166675243
 30
0
 40
1.000000000000001
 50
273.3027646452583
 51
18.4052083348187
  0
ARC
  8
1
 62
7
 10
-45.22037998113244
 20
-66.41306747217686
 30
0
 40
1.5
 50
75.99431641889125
 51
183.3027646452584
  0
ARC
  8
1
 62
7
 10
-94.34039856468012
 20
-60.85761935845629
 30
0
 40
9.00000000000003
 50
157.7954557545492
 51
266.5929278375014
  0
ARC
  8
1
 62
7
 10
-105.9323379009505
 20
-73.16306747217686
 30
0
 40
7.000000000000056
 50
168.0759486234146
 51
273.3027646452586
  0
ARC
  8
1
 62
7
 10
-105.9134062468356
 20
-56.13369162946106
 30
0
 40
3.500000000000076
 50
5.962025688310811
 51
168.0759486234147
  0
ARC
  8
1
 62
7
 10
-49.4323379009505
 20
-40.66306747217686
 30
0
 40
40
 50
270
 51
322.6811553253516
  0
ARC
  8
1
 62
7
 10
-68.4323379009505
 20
-181.1630674721769
 30
0
 40
40
 50
57.53825503275765
 51
90
  0
CIRCLE
  8
1
 62
7
 10
-231.533548288488
 20
-106.1630674721769
 30
0
 40
54.50000000000009
  0
CIRCLE
  8
1
 62
7
 10
-231.533548288488
 20
-106.1630674721769
 30
0
 40
56.5
  0
CIRCLE
  8
1
 62
7
 10
-105.9323379009505
 20
-73.16306747217686
 30
0
 40
3
  0
POLYLINE
  8
1
 62
7
 66
1
  0
VERTEX
  8
1
 10
-54.9323379009505
 20
-53.41306747217688
 30
0
 42
-0.06350186446508203
  0
VERTEX
  8
1
 10
-54.84352232821344
 20
-53.42447889234403
 30
0
 42
-0.1024827257670451
  0
VERTEX
  8
1
 10
-54.66947619221858
 20
-53.50958610920718
 30
0
 42
-0.06611454789914877
  0
VERTEX
  8
1
 10
-54.50565730120339
 20
-53.67567895486427
 30
0
 42
-0.04407285697899276
  0
VERTEX
  8
1
 10
-54.35565026534641
 20
-53.91616868882854
 30
0
 42
-0.03156273916841401
  0
VERTEX
  8
1
 10
-54.22311437090301
 20
-54.22415085856666
 30
0
 42
-0.02429944155020743
  0
VERTEX
  8
1
 10
-54.11190243811399
 20
-54.590600724898
 30
0
 42
-0.02000072692645132
  0
VERTEX
  8
1
 10
-54.02537036250378
 20
-55.00458594503431
 30
0
 42
-0.01748505840764998
  0
VERTEX
  8
1
 10
-53.96616450567097
 20
-55.45363765875523
 30
0
 42
-0.01616025272520465
  0
VERTEX
  8
1
 10
-53.93610028719628
 20
-55.92417815979046
 30
0
 42
-0.01574624143280291
  0
VERTEX
  8
1
 10
-53.93610028719628
 20
-56.4019567845633
 30
0
 42
-0.01616070175789168
  0
VERTEX
  8
1
 10
-53.96616450567099
 20
-56.87249728559853
 30
0
 42
-0.01748621643005767
  0
VERTEX
  8
1
 10
-54.02537036250379
 20
-57.32154899931945
 30
0
 42
-0.02000342035721575
  0
VERTEX
  8
1
 10
-54.111902438114
 20
-57.73553421945576
 30
0
 42
-0.02430609254585106
  0
VERTEX
  8
1
 10
-54.22311437090302
 20
-58.10198408578711
 30
0
 42
-0.03158246460562466
  0
VERTEX
  8
1
 10
-54.3556502653464
 20
-58.40996625552523
 30
0
 42
-0.04413566083729114
  0
VERTEX
  8
1
 10
-54.50565730120336
 20
-58.65045598948949
 30
0
 42
-0.06640274799212143
  0
VERTEX
  8
1
 10
-54.66947619221857
 20
-58.81654883514659
 30
0
 42
-0.103131234391382
  0
VERTEX
  8
1
 10
-54.84352232821343
 20
-58.90165605200973
 30
0
  0
VERTEX
  8
1
 10
-54.88793011458181
 20
-58.91021461713507
 30
0
  0
VERTEX
  8
1
 10
-54.9323379009505
 20
-58.91306747217689
 30
0
  0
SEQEND
  8
1
  0
ARC
  8
1
 62
3
  6
DIVIDE
 10
-5.432337900950486
 20
-165.1630674721769
 30
0
 40
2
 50
270
 51
0
  0
ARC
  8
1
 62
3
  6
DIVIDE
 10
-5.432337900950486
 20
-47.16306747217688
 30
0
 40
2
 50
0
 51
90
  0
ARC
  8
1
 62
7
 10
-21.43233790095049
 20
-165.1630674721769
 30
0
 40
2
 50
270
 51
0
  0
ARC
  8
1
 62
7
 10
-21.43233790095049
 20
-47.16306747217688
 30
0
 40
2
 50
0
 51
90
  0
ARC
  8
1
 62
7
 10
-50.07927120610288
 20
-69.00243590207926
 30
0
 40
3.499999999999996
 50
266.5929278375016
 51
3.302764645258328
  0
TEXT
  8
1
 62
7
 10
-246.433452927597
 20
-30.1651977149994
 30
0
 40
5
  1
OS 457
 41
0.9
  7
SIMPLEX
 72
1
 11
-232.933452927597
 21
-30.1651977149994
 31
0
  0
ENDSEC
  0
EOF
