  0
SECTION
  2
HEADER
  9
$ACADVER
  1
AC1009
  9
$INSBASE
 10
0
 20
0
  9
$EXTMIN
 10
-207
 20
-167.5
  9
$EXTMAX
 10
264
 20
65.71360840158738
  9
$LIMMIN
 10
-207
 20
-167.5
  9
$LIMMAX
 10
264
 20
65.71360840158738
  9
$VIEWCTR
 10
10
 20
10
  9
$VIEWSIZE
 40
10
  9
$SNAPMODE
 70
0
  9
$SNAPUNIT
 10
1
 20
1
  9
$SNAPBASE
 10
0
 20
0
  9
$SNAPANG
 50
0
  9
$SNAPSTYLE
 70
0
  9
$SNAPISOPAIR
 70
0
  9
$GRIDMODE
 70
0
  9
$GRIDUNIT
 10
0
 20
0
  9
$ORTHOMODE
 70
0
  9
$REGENMODE
 70
1
  9
$FILLMODE
 70
1
  9
$QTEXTMODE
 70
0
  9
$DRAGMODE
 70
2
  9
$LTSCALE
 40
1
  9
$OSMODE
 70
0
  9
$ATTMODE
 70
1
  9
$TEXTSIZE
 40
3.5
  9
$TRACEWID
 40
0.5
  9
$TEXTSTYLE
  7
STANDARD
  9
$CLAYER
  8
0
  9
$CELTYPE
  6
BYLAYER
  9
$CECOLOR
 62
256
  9
$DIMSCALE
 40
1
  9
$DIMASZ
 40
0.18
  9
$DIMEXO
 40
0.0625
  9
$DIMDLI
 40
0.38
  9
$DIMRND
 40
0
  9
$DIMDLE
 40
0
  9
$DIMEXE
 40
0.18
  9
$DIMTP
 40
0
  9
$DIMTM
 40
0
  9
$DIMTXT
 40
0.18
  9
$DIMCEN
 40
0.09
  9
$DIMTSZ
 40
0
  9
$DIMTOL
 70
0
  9
$DIMLIM
 70
0
  9
$DIMTIH
 70
1
  9
$DIMTOH
 70
1
  9
$DIMSE1
 70
0
  9
$DIMSE2
 70
0
  9
$DIMTAD
 70
0
  9
$DIMZIN
 70
0
  9
$DIMBLK
  1

  9
$DIMASO
 70
1
  9
$DIMSHO
 70
1
  9
$DIMPOST
  1

  9
$DIMAPOST
  1

  9
$DIMALT
 70
0
  9
$DIMALTD
 70
2
  9
$DIMALTF
 40
25.4
  9
$DIMLFAC
 40
1
  9
$DIMTOFL
 70
0
  9
$DIMTVP
 40
0
  9
$DIMTIX
 70
0
  9
$DIMSOXD
 70
0
  9
$DIMSAH
 70
0
  9
$DIMBLK1
  1

  9
$DIMBLK2
  1

  9
$DIMSTYLE
  2
*UNNAMED
  9
$DIMCLRD
 70
0
  9
$DIMCLRE
 70
0
  9
$DIMCLRT
 70
0
  9
$DIMTFAC
 40
1
  9
$DIMGAP
 40
0.09
  9
$LUNITS
 70
2
  9
$LUPREC
 70
4
  9
$AXISMODE
 70
0
  9
$AXISUNIT
 10
0
 20
0
  9
$SKETCHINC
 40
0.1
  9
$FILLETRAD
 40
2
  9
$AUNITS
 70
0
  9
$AUPREC
 70
0
  9
$MENU
  1
ACAD
  9
$ELEVATION
 40
0
  9
$THICKNESS
 40
0
  9
$VIEWDIR
 10
0
 20
0
 30
1
  9
$LIMCHECK
 70
0
  9
$BLIPMODE
 70
1
  9
$CHAMFERA
 40
0
  9
$CHAMFERB
 40
0
  9
$FASTZOOM
 70
1
  9
$SKPOLY
 70
0
  9
$ANGBASE
 50
0
  9
$ANGDIR
 70
0
  9
$PDMODE
 70
0
  9
$PDSIZE
 40
0
  9
$PLINEWID
 40
0
  9
$COORDS
 70
2
  0
ENDSEC
  0
SECTION
  2
TABLES
  0
TABLE
  2
DIMSTYLE
 70
0
  0
ENDTAB
  0
TABLE
  2
LTYPE
 70
9
  0
LTYPE
  2
CONTINUOUS
 70
64
  3
Solid line
 72
65
 73
0
 40
0
  0
LTYPE
  2
BORDER
 70
64
  3
__ __ . __ __ .
 72
65
 73
6
 40
21.69078947368421
 49
6.197368421052632
 49
-3.098684210526316
 49
6.197368421052632
 49
-3.098684210526316
 49
0
 49
-3.098684210526316
  0
LTYPE
  2
CENTER
 70
64
  3
____ _ ____ _
 72
65
 73
4
 40
24.78947368421053
 49
15.49342105263158
 49
-3.098684210526316
 49
3.098684210526316
 49
-3.098684210526316
  0
LTYPE
  2
DASHDOT
 70
64
  3
__ . __ . __ .
 72
65
 73
4
 40
12.39473684210526
 49
6.197368421052632
 49
-3.098684210526316
 49
0
 49
-3.098684210526316
  0
LTYPE
  2
DASHED
 70
64
  3
__ __ __ __ __
 72
65
 73
2
 40
9.296052631578949
 49
6.197368421052632
 49
-3.098684210526316
  0
LTYPE
  2
DIVIDE
 70
64
  3
__ . . __ . . 
 72
65
 73
6
 40
15.49342105263158
 49
6.197368421052632
 49
-3.098684210526316
 49
0
 49
-3.098684210526316
 49
0
 49
-3.098684210526316
  0
LTYPE
  2
DOT
 70
64
  3
..............
 72
65
 73
4
 40
6.197368421052632
 49
0
 49
-3.098684210526316
 49
0
 49
-3.098684210526316
  0
LTYPE
  2
HIDDEN
 70
64
  3
_ _ _ _ _ _ _
 72
65
 73
2
 40
4.648026315789474
 49
3.098684210526316
 49
-1.549342105263158
  0
LTYPE
  2
PHANTOM
 70
64
  3
_____ _ _ _____ _ _ 
 72
65
 73
6
 40
30.98684210526316
 49
15.49342105263158
 49
-3.098684210526316
 49
3.098684210526316
 49
-3.098684210526316
 49
3.098684210526316
 49
-3.098684210526316
  0
ENDTAB
  0
TABLE
  2
LAYER
 70
3
  0
LAYER
  2
1
 70
0
 62
7
  6
CONTINUOUS
  0
LAYER
  2
0
 70
0
 62
7
  6
CONTINUOUS
  0
ENDTAB
  0
TABLE
  2
STYLE
 70
4
  0
STYLE
  2
STANDARD
 70
0
 40
0
 41
1
 50
0
 71
0
 42
3.5
  3
txt
  4

  0
STYLE
  2
SIMPLEX
 70
0
 40
0
 41
1
 50
0
 71
0
 42
3.5
  3
simplex
  4

  0
STYLE
  2
COMPLEX
 70
0
 40
0
 41
1
 50
0
 71
0
 42
3.5
  3
complex
  4

  0
STYLE
  2
ITALIC
 70
0
 40
0
 41
1
 50
0
 71
0
 42
3.5
  3
italic
  4

  0
ENDTAB
  0
TABLE
  2
VIEW
 70
0
  0
ENDTAB
  0
ENDSEC
  0
SECTION
  2
BLOCKS
  0
ENDSEC
  0
SECTION
  2
ENTITIES
  0
LINE
  8
1
 62
3
  6
DIVIDE
 10
253
 20
-132.75
 30
0
 11
253
 21
-158.5
 31
0
  0
LINE
  8
1
 62
3
  6
DIVIDE
 10
211
 20
-158.5
 30
0
 11
211
 21
-132.75
 31
0
  0
LINE
  8
1
 62
3
  6
DIVIDE
 10
211
 20
-158.5
 30
0
 11
213.5
 21
-161
 31
0
  0
LINE
  8
1
 62
3
  6
DIVIDE
 10
218
 20
-161
 30
0
 11
213.5
 21
-161
 31
0
  0
LINE
  8
1
 62
3
  6
DIVIDE
 10
218
 20
-161
 30
0
 11
219.5
 21
-159.5
 31
0
  0
LINE
  8
1
 62
3
  6
DIVIDE
 10
219.5
 20
-144.5
 30
0
 11
219.5
 21
-159.5
 31
0
  0
LINE
  8
1
 62
3
  6
DIVIDE
 10
244.5
 20
-144.5
 30
0
 11
219.5
 21
-144.5
 31
0
  0
LINE
  8
1
 62
3
  6
DIVIDE
 10
244.5
 20
-159.5
 30
0
 11
244.5
 21
-144.5
 31
0
  0
LINE
  8
1
 62
3
  6
DIVIDE
 10
244.5
 20
-159.5
 30
0
 11
246
 21
-161
 31
0
  0
LINE
  8
1
 62
3
  6
DIVIDE
 10
250.5
 20
-161
 30
0
 11
246
 21
-161
 31
0
  0
LINE
  8
1
 62
3
  6
DIVIDE
 10
250.5
 20
-161
 30
0
 11
253
 21
-158.5
 31
0
  0
LINE
  8
1
 62
3
  6
DASHDOT
 10
232
 20
-129.75
 30
0
 11
232
 21
-167.5
 31
0
  0
LINE
  8
1
 62
3
  6
DASHDOT
 10
208
 20
-129.75
 30
0
 11
208
 21
-167.5
 31
0
  0
LINE
  8
1
 62
3
  6
DIVIDE
 10
211
 20
-7.25
 30
0
 11
211
 21
18.5
 31
0
  0
LINE
  8
1
 62
3
  6
DIVIDE
 10
219.5
 20
19.5
 30
0
 11
218
 21
21
 31
0
  0
LINE
  8
1
 62
3
  6
DIVIDE
 10
213.5
 20
21
 30
0
 11
211
 21
18.5
 31
0
  0
LINE
  8
1
 62
3
  6
DIVIDE
 10
213.5
 20
21
 30
0
 11
218
 21
21
 31
0
  0
LINE
  8
1
 62
3
  6
DIVIDE
 10
219.5
 20
19.5
 30
0
 11
219.5
 21
4.5
 31
0
  0
LINE
  8
1
 62
3
  6
DIVIDE
 10
219.5
 20
4.5
 30
0
 11
244.5
 21
4.5
 31
0
  0
LINE
  8
1
 62
3
  6
DIVIDE
 10
244.5
 20
4.5
 30
0
 11
244.5
 21
19.5
 31
0
  0
LINE
  8
1
 62
3
  6
DIVIDE
 10
246
 20
21
 30
0
 11
244.5
 21
19.5
 31
0
  0
LINE
  8
1
 62
3
  6
DIVIDE
 10
253
 20
18.5
 30
0
 11
250.5
 21
21
 31
0
  0
LINE
  8
1
 62
3
  6
DIVIDE
 10
246
 20
21
 30
0
 11
250.5
 21
21
 31
0
  0
LINE
  8
1
 62
3
  6
DIVIDE
 10
253
 20
18.5
 30
0
 11
253
 21
-7.25
 31
0
  0
LINE
  8
1
 62
7
 10
156.4000000000001
 20
27
 30
0
 11
156.4000000000001
 21
-9.999999999999996
 31
0
  0
LINE
  8
1
 62
3
  6
DIVIDE
 10
251
 20
-12.25
 30
0
 11
251
 21
-3.25
 31
0
  0
LINE
  8
1
 62
3
  6
DIVIDE
 10
188
 20
-12.25
 30
0
 11
251
 21
-12.25
 31
0
  0
LINE
  8
1
 62
3
  6
DIVIDE
 10
188
 20
-3.25
 30
0
 11
188
 21
-12.25
 31
0
  0
LINE
  8
1
 62
3
  6
DIVIDE
 10
251
 20
-3.25
 30
0
 11
188
 21
-3.25
 31
0
  0
LINE
  8
1
 62
3
  6
DASHDOT
 10
232
 20
27.5
 30
0
 11
232
 21
-10.25
 31
0
  0
LINE
  8
1
 62
3
 10
156.4000000000001
 20
-167
 30
0
 11
122
 21
-123.9
 31
0
  0
LINE
  8
1
 62
3
 10
156.4000000000001
 20
-123.9
 30
0
 11
122
 21
-167
 31
0
  0
LINE
  8
1
 62
7
 10
122
 20
-167
 30
0
 11
122
 21
-123.9
 31
0
  0
LINE
  8
1
 62
7
 10
156.4000000000001
 20
-167
 30
0
 11
156.4000000000001
 21
-123.9
 31
0
  0
LINE
  8
1
 62
7
 10
122
 20
-167
 30
0
 11
156.4000000000001
 21
-167
 31
0
  0
LINE
  8
1
 62
3
 10
122
 20
27
 30
0
 11
156.4000000000001
 21
-9.999999999999996
 31
0
  0
LINE
  8
1
 62
3
 10
156.4000000000001
 20
27
 30
0
 11
122
 21
-9.999999999999996
 31
0
  0
LINE
  8
1
 62
7
 10
156.4000000000001
 20
27
 30
0
 11
122
 21
27
 31
0
  0
LINE
  8
1
 62
7
 10
122
 20
-9.999999999999996
 30
0
 11
122
 21
27
 31
0
  0
LINE
  8
1
 62
7
 10
-150.4965572365387
 20
-158.1420946653059
 30
0
 11
-146.4776586082975
 21
-151.1811580507232
 31
0
  0
LINE
  8
1
 62
7
 10
-189.142094665306
 20
-126.0850145046585
 30
0
 11
-182.1811580507233
 21
-122.0661158764172
 31
0
  0
LINE
  8
1
 62
7
 10
-206.5815717411971
 20
-78.99999999999993
 30
0
 11
-198.5437744847147
 21
-78.99999999999994
 31
0
  0
LINE
  8
1
 62
7
 10
-198.1420946653059
 20
-29.50344276346135
 30
0
 11
-191.1811580507232
 21
-33.5223413917026
 31
0
  0
LINE
  8
1
 62
7
 10
-166.0850145046585
 20
9.142094665305962
 30
0
 11
-162.0661158764172
 21
2.181158050723298
 31
0
  0
LINE
  8
1
 62
7
 10
-119
 20
26.58157174119711
 30
0
 11
-119
 21
18.54377448471465
 31
0
  0
LINE
  8
1
 62
7
 10
-69.50344276346137
 20
18.14209466530596
 30
0
 11
-73.5223413917026
 21
11.18115805072327
 31
0
  0
LINE
  8
1
 62
7
 10
-30.85790533469404
 20
-13.91498549534151
 30
0
 11
-37.81884194927673
 21
-17.93388412358274
 31
0
  0
LINE
  8
1
 62
7
 10
-13.41842825880292
 20
-61.00000000000002
 30
0
 11
-21.45622551528538
 21
-61.00000000000001
 31
0
  0
LINE
  8
1
 62
7
 10
-21.85790533469408
 20
-110.4965572365386
 30
0
 11
-28.81884194927675
 21
-106.4776586082974
 31
0
  0
LINE
  8
1
 62
7
 10
-53.91498549534151
 20
-149.1420946653059
 30
0
 11
-57.93388412358274
 21
-142.1811580507232
 31
0
  0
LINE
  8
1
 62
7
 10
-166.0850145046586
 20
-149.1420946653059
 30
0
 11
-162.0661158764173
 21
-142.1811580507232
 31
0
  0
LINE
  8
1
 62
7
 10
-198.142094665306
 20
-110.4965572365386
 30
0
 11
-191.1811580507233
 21
-106.4776586082973
 31
0
  0
LINE
  8
1
 62
7
 10
-206.5815717411971
 20
-60.99999999999993
 30
0
 11
-198.5437744847147
 21
-60.99999999999994
 31
0
  0
LINE
  8
1
 62
7
 10
-189.1420946653059
 20
-13.91498549534147
 30
0
 11
-182.1811580507232
 21
-17.93388412358271
 31
0
  0
LINE
  8
1
 62
7
 10
-150.4965572365386
 20
18.14209466530593
 30
0
 11
-146.4776586082973
 21
11.18115805072328
 31
0
  0
LINE
  8
1
 62
7
 10
-101
 20
26.58157174119708
 30
0
 11
-101
 21
18.54377448471462
 31
0
  0
LINE
  8
1
 62
7
 10
-53.91498549534148
 20
9.142094665305933
 30
0
 11
-57.93388412358272
 21
2.181158050723241
 31
0
  0
LINE
  8
1
 62
7
 10
-21.85790533469404
 20
-29.50344276346142
 30
0
 11
-28.81884194927673
 21
-33.52234139170265
 31
0
  0
LINE
  8
1
 62
7
 10
-13.41842825880292
 20
-79.00000000000001
 30
0
 11
-21.45622551528538
 21
-79.00000000000001
 31
0
  0
LINE
  8
1
 62
7
 10
-30.85790533469408
 20
-126.0850145046585
 30
0
 11
-37.81884194927675
 21
-122.0661158764173
 31
0
  0
LINE
  8
1
 62
7
 10
-69.50344276346141
 20
-158.1420946653059
 30
0
 11
-73.52234139170264
 21
-151.1811580507232
 31
0
  0
LINE
  8
1
 62
7
 10
-119
 20
-166.5815717411971
 30
0
 11
-119
 21
-158.5437744847146
 31
0
  0
LINE
  8
1
 62
7
 10
-101
 20
-166.5815717411971
 30
0
 11
-101
 21
-158.5437744847146
 31
0
  0
LINE
  8
1
 62
3
  6
DASHDOT
 10
-110
 20
-60
 30
0
 11
-110
 21
-80
 31
0
  0
LINE
  8
1
 62
7
 10
-152.6787692639811
 20
-36.12179676972439
 30
0
 11
-160.6787692639812
 21
-49.97820323027544
 31
0
  0
LINE
  8
1
 62
7
 10
-151.8993464005752
 20
-36.57179676972433
 30
0
 11
-157.4975727583349
 21
-33.33965927508747
 31
0
  0
LINE
  8
1
 62
7
 10
-151.8993464005752
 20
-36.57179676972433
 30
0
 11
-159.8993464005753
 21
-50.42820323027535
 31
0
  0
LINE
  8
1
 62
7
 10
-159.8993464005753
 20
-50.42820323027535
 30
0
 11
-165.4975727583349
 21
-47.19606573563848
 31
0
  0
LINE
  8
1
 62
7
 10
-59.3212307360187
 20
-49.97820323027564
 30
0
 11
-67.32123073601871
 21
-36.12179676972459
 31
0
  0
LINE
  8
1
 62
7
 10
-60.1006535994246
 20
-50.42820323027561
 30
0
 11
-54.50242724166506
 21
-47.19606573563851
 31
0
  0
LINE
  8
1
 62
7
 10
-60.1006535994246
 20
-50.42820323027561
 30
0
 11
-68.10065359942462
 21
-36.57179676972456
 31
0
  0
LINE
  8
1
 62
7
 10
-68.10065359942462
 20
-36.57179676972456
 30
0
 11
-62.50242724166506
 21
-33.3396592750875
 31
0
  0
LINE
  8
1
 62
7
 10
-118.0000000000001
 20
-123.9
 30
0
 11
-102.0000000000001
 21
-123.9
 31
0
  0
LINE
  8
1
 62
7
 10
-79.34120350676486
 20
-96.9384687154332
 30
0
 11
-71.34120350676488
 21
-83.08206225488225
 31
0
  0
LINE
  8
1
 62
7
 10
-42.06243488776429
 20
-118.4613758126711
 30
0
 11
-34.06243488776428
 21
-104.6049693521201
 31
0
  0
LINE
  8
1
 62
7
 10
-72.22500925240691
 20
-82.57179676972449
 30
0
 11
-34.06243488776428
 21
-104.6049693521201
 31
0
  0
LINE
  8
1
 62
7
 10
-72.22500925240691
 20
-82.57179676972449
 30
0
 11
-80.22500925240689
 21
-96.42820323027543
 31
0
  0
LINE
  8
1
 62
7
 10
-80.22500925240689
 20
-96.42820323027543
 30
0
 11
-42.06243488776429
 21
-118.4613758126711
 31
0
  0
LINE
  8
1
 62
7
 10
-148.6587964932351
 20
-83.08206225488223
 30
0
 11
-140.6587964932351
 21
-96.93846871543323
 31
0
  0
LINE
  8
1
 62
7
 10
-185.9375651122358
 20
-104.60496935212
 30
0
 11
-177.9375651122358
 21
-118.461375812671
 31
0
  0
LINE
  8
1
 62
7
 10
-139.7749907475931
 20
-96.4282032302755
 30
0
 11
-177.9375651122358
 21
-118.461375812671
 31
0
  0
LINE
  8
1
 62
7
 10
-139.7749907475931
 20
-96.4282032302755
 30
0
 11
-147.7749907475931
 21
-82.57179676972449
 31
0
  0
LINE
  8
1
 62
7
 10
-147.7749907475931
 20
-82.57179676972449
 30
0
 11
-185.9375651122358
 21
-104.60496935212
 31
0
  0
LINE
  8
1
 62
7
 10
-102
 20
-29.97946902968449
 30
0
 11
-118
 21
-29.97946902968449
 31
0
  0
LINE
  8
1
 62
7
 10
-102
 20
13.0663451647911
 30
0
 11
-118
 21
13.0663451647911
 31
0
  0
LINE
  8
1
 62
3
  6
DASHDOT
 10
-100
 20
-70
 30
0
 11
-120
 21
-70
 31
0
  0
LINE
  8
1
 62
7
 10
184.0000000000001
 20
16.89999999999998
 30
0
 11
185.4000000000001
 21
15.5
 31
0
  0
LINE
  8
1
 62
7
 10
181.4000000000001
 20
-8.499999999999986
 30
0
 11
181.4000000000001
 21
28
 31
0
  0
LINE
  8
1
 62
7
 10
184.0000000000001
 20
10
 30
0
 11
184.0000000000001
 21
28
 31
0
  0
LINE
  8
1
 62
7
 10
184.0000000000001
 20
-2
 30
0
 11
184.0000000000001
 21
6
 31
0
  0
LINE
  8
1
 62
7
 10
184.0000000000001
 20
-2
 30
0
 11
181.4000000000001
 21
-2
 31
0
  0
LINE
  8
1
 62
7
 10
184.0000000000001
 20
28
 30
0
 11
181.4000000000001
 21
28
 31
0
  0
LINE
  8
1
 62
7
 10
181.4000000000001
 20
6
 30
0
 11
185.4000000000001
 21
6
 31
0
  0
LINE
  8
1
 62
7
 10
181.4000000000001
 20
10
 30
0
 11
185.4000000000001
 21
10
 31
0
  0
LINE
  8
1
 62
7
 10
178.4000000000001
 20
4
 30
0
 11
178.4000000000001
 21
2
 31
0
  0
LINE
  8
1
 62
7
 10
167.6000000000001
 20
2
 30
0
 11
167.6000000000001
 21
14
 31
0
  0
LINE
  8
1
 62
7
 10
178.4000000000001
 20
4
 30
0
 11
167.6000000000001
 21
4
 31
0
  0
LINE
  8
1
 62
7
 10
178.4000000000001
 20
12
 30
0
 11
167.6000000000001
 21
12
 31
0
  0
LINE
  8
1
 62
7
 10
156.4000000000001
 20
-158.5
 30
0
 11
182.4000000000001
 21
-158.5
 31
0
  0
LINE
  8
1
 62
7
 10
185.4000000000001
 20
-155.5
 30
0
 11
182.4000000000001
 21
-158.5
 31
0
  0
LINE
  8
1
 62
3
 10
160.4000000000001
 20
-132.5
 30
0
 11
164.4433756729741
 21
-132.5
 31
0
  0
LINE
  8
1
 62
7
 10
160.4000000000001
 20
-131.5
 30
0
 11
163.8660254037844
 21
-131.5
 31
0
  0
LINE
  8
1
 62
7
 10
185.4000000000001
 20
-155.5
 30
0
 11
185.4000000000001
 21
-132.5
 31
0
  0
LINE
  8
1
 62
7
 10
178.4000000000001
 20
4
 30
0
 11
181.4000000000001
 21
4
 31
0
  0
LINE
  8
1
 62
7
 10
178.4000000000001
 20
12
 30
0
 11
181.4000000000001
 21
12
 31
0
  0
LINE
  8
1
 62
7
 10
178.4000000000001
 20
2
 30
0
 11
160.4000000000001
 21
2
 31
0
  0
LINE
  8
1
 62
7
 10
178.4000000000001
 20
14
 30
0
 11
178.4000000000001
 21
12
 31
0
  0
LINE
  8
1
 62
7
 10
160.4000000000001
 20
14
 30
0
 11
178.4000000000001
 21
14
 31
0
  0
LINE
  8
1
 62
3
 10
181.4000000000001
 20
-8.499999999999986
 30
0
 11
186.0000000000001
 21
-8.499999999999986
 31
0
  0
LINE
  8
1
 62
7
 10
181.4000000000001
 20
-7.499999999999998
 30
0
 11
186
 21
-7.499999999999996
 31
0
  0
LINE
  8
1
 62
7
 10
163.8660254037845
 20
-8.499999999999986
 30
0
 11
160.4000000000001
 21
-8.499999999999986
 31
0
  0
LINE
  8
1
 62
3
 10
164.4433756729741
 20
-7.500000000000005
 30
0
 11
160.4000000000001
 21
-7.500000000000005
 31
0
  0
LINE
  8
1
 62
7
 10
185.4000000000001
 20
-7.499999999999996
 30
0
 11
185.4000000000001
 21
15.5
 31
0
  0
LINE
  8
1
 62
7
 10
111.3172249142273
 20
-9.999999999999996
 30
0
 11
163
 21
-9.999999999999996
 31
0
  0
LINE
  8
1
 62
7
 10
113
 20
-158.5
 30
0
 11
110
 21
-155.5
 31
0
  0
LINE
  8
1
 62
7
 10
113
 20
18.5
 30
0
 11
110
 21
15.5
 31
0
  0
LINE
  8
1
 62
7
 10
160.4000000000001
 20
-158.5
 30
0
 11
160.4000000000001
 21
-123.9
 31
0
  0
LINE
  8
1
 62
7
 10
156.4000000000001
 20
-143.5
 30
0
 11
160.4000000000001
 21
-143.5
 31
0
  0
LINE
  8
1
 62
7
 10
160.4000000000001
 20
-152.5
 30
0
 11
156.4000000000001
 21
-152.5
 31
0
  0
LINE
  8
1
 62
7
 10
160.4000000000001
 20
3.5
 30
0
 11
156.4000000000001
 21
3.5
 31
0
  0
LINE
  8
1
 62
7
 10
156.4000000000001
 20
12.5
 30
0
 11
160.4000000000001
 21
12.5
 31
0
  0
LINE
  8
1
 62
7
 10
160.4000000000001
 20
-9.999999999999996
 30
0
 11
160.4000000000001
 21
18.5
 31
0
  0
LINE
  8
1
 62
7
 10
156.4000000000001
 20
18.5
 30
0
 11
181.4000000000001
 21
18.5
 31
0
  0
LINE
  8
1
 62
7
 10
120
 20
-9.999999999999996
 30
0
 11
120
 21
-9
 31
0
  0
LINE
  8
1
 62
7
 10
110
 20
5.281480067421114
 30
0
 11
120
 21
-9
 31
0
  0
LINE
  8
1
 62
7
 10
120
 20
-130
 30
0
 11
95
 21
-130
 31
0
  0
LINE
  8
1
 62
7
 10
120
 20
-131
 30
0
 11
110
 21
-145.2814800674211
 31
0
  0
LINE
  8
1
 62
7
 10
120
 20
-131
 30
0
 11
120
 21
-123.9
 31
0
  0
LINE
  8
1
 62
7
 10
160.4000000000001
 20
-123.9
 30
0
 11
120
 21
-123.9
 31
0
  0
LINE
  8
1
 62
7
 10
113
 20
-158.5
 30
0
 11
122
 21
-158.5
 31
0
  0
LINE
  8
1
 62
7
 10
110
 20
-130
 30
0
 11
110
 21
-155.5
 31
0
  0
LINE
  8
1
 62
7
 10
113
 20
18.5
 30
0
 11
122
 21
18.5
 31
0
  0
LINE
  8
1
 62
7
 10
110
 20
15.5
 30
0
 11
110
 21
-8.184700004959169
 31
0
  0
LINE
  8
1
 62
7
 10
220.5
 20
-159.5
 30
0
 11
222
 21
-161
 31
0
  0
LINE
  8
1
 62
7
 10
194
 20
-161
 30
0
 11
195.5
 21
-159.5
 31
0
  0
LINE
  8
1
 62
7
 10
226.5
 20
-161
 30
0
 11
229
 21
-158.5
 31
0
  0
LINE
  8
1
 62
7
 10
187
 20
-158.5
 30
0
 11
189.5
 21
-161
 31
0
  0
LINE
  8
1
 62
7
 10
229
 20
-132.75
 30
0
 11
229
 21
-158.5
 31
0
  0
LINE
  8
1
 62
7
 10
226.5
 20
-161
 30
0
 11
222
 21
-161
 31
0
  0
LINE
  8
1
 62
7
 10
220.5
 20
-159.5
 30
0
 11
220.5
 21
-144.5
 31
0
  0
LINE
  8
1
 62
7
 10
220.5
 20
-144.5
 30
0
 11
195.5
 21
-144.5
 31
0
  0
LINE
  8
1
 62
7
 10
195.5
 20
-144.5
 30
0
 11
195.5
 21
-159.5
 31
0
  0
LINE
  8
1
 62
7
 10
194
 20
-161
 30
0
 11
189.5
 21
-161
 31
0
  0
LINE
  8
1
 62
7
 10
187
 20
-158.5
 30
0
 11
187
 21
-132.75
 31
0
  0
LINE
  8
1
 62
7
 10
222
 20
21
 30
0
 11
220.5
 21
19.5
 31
0
  0
LINE
  8
1
 62
7
 10
195.5
 20
19.5
 30
0
 11
194
 21
21
 31
0
  0
LINE
  8
1
 62
7
 10
229
 20
18.5
 30
0
 11
226.5
 21
21
 31
0
  0
LINE
  8
1
 62
7
 10
189.5
 20
21
 30
0
 11
187
 21
18.5
 31
0
  0
LINE
  8
1
 62
3
  6
DASHDOT
 10
208
 20
27.5
 30
0
 11
208
 21
-10.25
 31
0
  0
LINE
  8
1
 62
7
 10
229
 20
18.5
 30
0
 11
229
 21
-7.25
 31
0
  0
LINE
  8
1
 62
7
 10
222
 20
21
 30
0
 11
226.5
 21
21
 31
0
  0
LINE
  8
1
 62
7
 10
220.5
 20
4.5
 30
0
 11
220.5
 21
19.5
 31
0
  0
LINE
  8
1
 62
7
 10
195.5
 20
4.5
 30
0
 11
220.5
 21
4.5
 31
0
  0
LINE
  8
1
 62
7
 10
195.5
 20
19.5
 30
0
 11
195.5
 21
4.5
 31
0
  0
LINE
  8
1
 62
7
 10
189.5
 20
21
 30
0
 11
194
 21
21
 31
0
  0
LINE
  8
1
 62
7
 10
187
 20
-7.25
 30
0
 11
187
 21
18.5
 31
0
  0
LINE
  8
1
 62
7
 10
254
 20
-34.99999999999999
 30
0
 11
94
 21
-34.99999999999999
 31
0
  0
LINE
  8
1
 62
7
 10
163.8660254037845
 20
-8.499999999999986
 30
0
 11
181.4000000000001
 21
-8.499999999999986
 31
0
  0
LINE
  8
1
 62
7
 10
163
 20
-9.999999999999996
 30
0
 11
164.4433756729741
 21
-7.500000000000005
 31
0
  0
LINE
  8
1
 62
7
 10
164.4433756729741
 20
-132.5
 30
0
 11
163
 21
-130
 31
0
  0
LINE
  8
1
 62
7
 10
94
 20
-25
 30
0
 11
95
 21
-24
 31
0
  0
LINE
  8
1
 62
7
 10
94
 20
-115
 30
0
 11
95
 21
-116
 31
0
  0
LINE
  8
1
 62
7
 10
254
 20
-105
 30
0
 11
94
 21
-105
 31
0
  0
LINE
  8
1
 62
3
  6
DASHDOT
 10
264
 20
-70
 30
0
 11
254
 21
-70
 31
0
  0
LINE
  8
1
 62
7
 10
190
 20
-31
 30
0
 11
94
 21
-31
 31
0
  0
LINE
  8
1
 62
7
 10
254
 20
-25
 30
0
 11
253
 21
-24
 31
0
  0
LINE
  8
1
 62
7
 10
254
 20
-115
 30
0
 11
253
 21
-116
 31
0
  0
LINE
  8
1
 62
7
 10
254
 20
-25
 30
0
 11
254
 21
-115
 31
0
  0
LINE
  8
1
 62
7
 10
253
 20
-7.25
 30
0
 11
253
 21
-24
 31
0
  0
LINE
  8
1
 62
7
 10
253
 20
-132.75
 30
0
 11
253
 21
-116
 31
0
  0
LINE
  8
1
 62
3
 10
186.0000000000001
 20
-8.499999999999986
 30
0
 11
186
 21
-7.499999999999996
 31
0
  0
LINE
  8
1
 62
3
 10
186
 20
-132.5
 30
0
 11
186.0000000000001
 21
-131.5
 31
0
  0
LINE
  8
1
 62
3
 10
186.0000000000001
 20
-131.5
 30
0
 11
163.8660254037844
 21
-131.5
 31
0
  0
LINE
  8
1
 62
7
 10
-101.0000000000001
 20
-111
 30
0
 11
-119
 21
-111.0000000000001
 31
0
  0
LINE
  8
1
 62
7
 10
-101.0000000000001
 20
-111
 30
0
 11
-101
 21
-103.8230690505756
 31
0
  0
LINE
  8
1
 62
7
 10
-119
 20
-111.0000000000001
 30
0
 11
-119
 21
-103.8230690505756
 31
0
  0
LINE
  8
1
 62
7
 10
-118
 20
-31
 30
0
 11
-118
 21
13.0663451647911
 31
0
  0
LINE
  8
1
 62
7
 10
-118
 20
-31
 30
0
 11
-102
 21
-31.00000000000004
 31
0
  0
LINE
  8
1
 62
7
 10
-102
 20
-31.00000000000004
 30
0
 11
-102
 21
13.0663451647911
 31
0
  0
LINE
  8
1
 62
7
 10
-118.0000000000001
 20
-123.0000000000001
 30
0
 11
-118
 21
-129.464274989274
 31
0
  0
LINE
  8
1
 62
7
 10
-118.0000000000001
 20
-123.0000000000001
 30
0
 11
-102.0000000000001
 21
-123.0000000000001
 31
0
  0
LINE
  8
1
 62
7
 10
-102.0000000000001
 20
-123.0000000000001
 30
0
 11
-102
 21
-129.464274989274
 31
0
  0
LINE
  8
1
 62
7
 10
95
 20
-9.999999999999996
 30
0
 11
95
 21
-24
 31
0
  0
LINE
  8
1
 62
7
 10
95
 20
-9.999999999999996
 30
0
 11
96.7086890783701
 21
-9.999999999999996
 31
0
  0
LINE
  8
1
 62
3
 10
164.4433756729741
 20
-7.500000000000005
 30
0
 11
181.4000000000001
 21
-7.499999999999998
 31
0
  0
LINE
  8
1
 62
7
 10
186
 20
-7.499999999999996
 30
0
 11
186.1443375672974
 21
-7.25
 31
0
  0
LINE
  8
1
 62
7
 10
186.1443375672974
 20
-7.25
 30
0
 11
253
 21
-7.25
 31
0
  0
LINE
  8
1
 62
7
 10
164
 20
-123
 30
0
 11
95
 21
-123
 31
0
  0
LINE
  8
1
 62
7
 10
95
 20
-116
 30
0
 11
95
 21
-130
 31
0
  0
LINE
  8
1
 62
7
 10
94
 20
-115
 30
0
 11
94
 21
-25
 31
0
  0
LINE
  8
1
 62
7
 10
163
 20
-130
 30
0
 11
160.4000000000001
 21
-130
 31
0
  0
LINE
  8
1
 62
7
 10
186
 20
-132.5
 30
0
 11
164.4433756729741
 21
-132.5
 31
0
  0
LINE
  8
1
 62
7
 10
186.1443375672974
 20
-132.75
 30
0
 11
186
 21
-132.5
 31
0
  0
LINE
  8
1
 62
7
 10
253
 20
-132.75
 30
0
 11
186.1443375672974
 21
-132.75
 31
0
  0
LINE
  8
1
 62
3
  6
DASHDOT
 10
94
 20
-70
 30
0
 11
84
 21
-70
 31
0
  0
LINE
  8
1
 62
7
 10
178.4000000000001
 20
12
 30
0
 11
178.0473460385832
 21
14
 31
0
  0
LINE
  8
1
 62
7
 10
178.0473460385832
 20
14
 30
0
 11
175.9314222700816
 21
2
 31
0
  0
LINE
  8
1
 62
7
 10
175.9314222700816
 20
2
 30
0
 11
173.81549850158
 21
14
 31
0
  0
LINE
  8
1
 62
7
 10
173.81549850158
 20
14
 30
0
 11
171.6995747330784
 21
2
 31
0
  0
LINE
  8
1
 62
7
 10
169.5836509645768
 20
14
 30
0
 11
167.6000000000001
 21
2.75015634812949
 31
0
  0
LINE
  8
1
 62
7
 10
171.6995747330784
 20
2
 30
0
 11
169.5836509645768
 21
14
 31
0
  0
LINE
  8
1
 62
3
  6
DIVIDE
 10
120
 20
-34.5
 30
0
 11
156
 21
-34.5
 31
0
  0
LINE
  8
1
 62
3
  6
DIVIDE
 10
156
 20
-34.5
 30
0
 11
156
 21
-105.5
 31
0
  0
LINE
  8
1
 62
3
  6
DIVIDE
 10
156
 20
-105.5
 30
0
 11
120
 21
-105.5
 31
0
  0
LINE
  8
1
 62
3
  6
DIVIDE
 10
120
 20
-105.5
 30
0
 11
120
 21
-34.5
 31
0
  0
LINE
  8
1
 62
3
  6
DIVIDE
 10
138.5
 20
-105.5
 30
0
 11
138.5
 21
-123
 31
0
  0
LINE
  8
1
 62
3
  6
DIVIDE
 10
143.5
 20
-105.5
 30
0
 11
143.5
 21
-123
 31
0
  0
LINE
  8
1
 62
3
  6
DIVIDE
 10
131.5
 20
-105.5
 30
0
 11
131.5
 21
-123
 31
0
  0
LINE
  8
1
 62
3
  6
DIVIDE
 10
126.5
 20
-105.5
 30
0
 11
126.5
 21
-123
 31
0
  0
LINE
  8
1
 62
3
  6
DIVIDE
 10
-107.5
 20
-111
 30
0
 11
-107.5
 21
-123.0000000000001
 31
0
  0
LINE
  8
1
 62
3
  6
DIVIDE
 10
-112.5
 20
-111.0000000000001
 30
0
 11
-112.5
 21
-123.0000000000001
 31
0
  0
LINE
  8
1
 62
3
  6
DIVIDE
 10
-80.5824275496087
 20
-50.12900528091313
 30
0
 11
-65.35065359942468
 21
-41.33493649053887
 31
0
  0
LINE
  8
1
 62
3
  6
DIVIDE
 10
-78.0824275496087
 20
-54.45913229983533
 30
0
 11
-62.85065359942468
 21
-45.66506350946106
 31
0
  0
LINE
  8
1
 62
3
  6
DIVIDE
 10
-141.9175724503913
 20
-54.45913229983531
 30
0
 11
-157.1493464005753
 21
-45.66506350946104
 31
0
  0
LINE
  8
1
 62
3
  6
DIVIDE
 10
-139.4175724503913
 20
-50.12900528091312
 30
0
 11
-154.6493464005753
 21
-41.33493649053885
 31
0
  0
LINE
  8
1
 62
7
 10
254
 20
-111
 30
0
 11
94
 21
-111
 31
0
  0
LINE
  8
1
 62
7
 10
167.9000000000001
 20
-158.5
 30
0
 11
167.9000000000001
 21
-143.5
 31
0
  0
LINE
  8
1
 62
7
 10
167.9000000000001
 20
-143.5
 30
0
 11
177.9000000000001
 21
-143.5
 31
0
  0
LINE
  8
1
 62
7
 10
177.9000000000001
 20
-143.5
 30
0
 11
177.9000000000001
 21
-158.5
 31
0
  0
LINE
  8
1
 62
7
 10
167.9000000000001
 20
-143.5
 30
0
 11
172.9000000000001
 21
-140.6132486540519
 31
0
  0
LINE
  8
1
 62
7
 10
172.9000000000001
 20
-140.6132486540519
 30
0
 11
177.9000000000001
 21
-143.5
 31
0
  0
LINE
  8
1
 62
7
 10
121.2250019218896
 20
-14.87763104055454
 30
0
 11
188.7176611514792
 21
-18.3938720558707
 31
0
  0
LINE
  8
1
 62
7
 10
105.6404669277708
 20
-29.97946902968449
 30
0
 11
209.9259182879736
 21
-23.28658963448004
 31
0
  0
LINE
  8
1
 62
7
 10
100.2890957532957
 20
8.996678795654898
 30
0
 11
95.1730186902339
 21
-18.14785574603165
 31
0
  0
ARC
  8
1
 62
3
  6
DIVIDE
 10
213.5
 20
-135.25
 30
0
 40
2.5
 50
90
 51
180
  0
ARC
  8
1
 62
3
  6
DIVIDE
 10
250.5
 20
-135.25
 30
0
 40
2.5
 50
0
 51
90
  0
ARC
  8
1
 62
3
  6
DIVIDE
 10
213.5
 20
-4.75
 30
0
 40
2.5
 50
180
 51
270
  0
ARC
  8
1
 62
3
  6
DIVIDE
 10
250.5
 20
-4.75
 30
0
 40
2.5
 50
270
 51
0
  0
ARC
  8
1
 62
7
 10
-110
 20
-70
 30
0
 40
89.00000000000001
 50
245.8038757642733
 51
264.1961242357266
  0
ARC
  8
1
 62
7
 10
-110
 20
-70
 30
0
 40
89
 50
215.8038757642734
 51
234.1961242357266
  0
ARC
  8
1
 62
7
 10
-110
 20
-70
 30
0
 40
89.00000000000007
 50
185.8038757642734
 51
204.1961242357265
  0
ARC
  8
1
 62
7
 10
-110
 20
-70
 30
0
 40
88.99999999999997
 50
155.8038757642734
 51
174.1961242357266
  0
ARC
  8
1
 62
7
 10
-110
 20
-70
 30
0
 40
89
 50
125.8038757642734
 51
144.1961242357266
  0
ARC
  8
1
 62
7
 10
-110
 20
-70
 30
0
 40
89.00000000000001
 50
95.80387576427339
 51
114.1961242357266
  0
ARC
  8
1
 62
7
 10
-110
 20
-70
 30
0
 40
89.00000000000003
 50
65.8038757642734
 51
84.1961242357266
  0
ARC
  8
1
 62
7
 10
-110
 20
-70
 30
0
 40
89.00000000000001
 50
35.8038757642734
 51
54.19612423572659
  0
ARC
  8
1
 62
7
 10
-110
 20
-70
 30
0
 40
88.99999999999999
 50
5.803875764273399
 51
24.19612423572659
  0
ARC
  8
1
 62
7
 10
-110
 20
-70
 30
0
 40
89.00000000000001
 50
335.8038757642734
 51
354.1961242357266
  0
ARC
  8
1
 62
7
 10
-110
 20
-70
 30
0
 40
88.99999999999996
 50
305.8038757642734
 51
324.1961242357266
  0
ARC
  8
1
 62
7
 10
-110
 20
-70
 30
0
 40
97.00000000000004
 50
234.6762395190515
 51
245.3237604809484
  0
ARC
  8
1
 62
7
 10
-110
 20
-70
 30
0
 40
97.00000000000004
 50
204.6762395190515
 51
215.3237604809485
  0
ARC
  8
1
 62
7
 10
-110
 20
-70
 30
0
 40
97.00000000000003
 50
174.6762395190515
 51
185.3237604809484
  0
ARC
  8
1
 62
7
 10
-110
 20
-70
 30
0
 40
97
 50
144.6762395190515
 51
155.3237604809484
  0
ARC
  8
1
 62
7
 10
-110
 20
-70
 30
0
 40
96.99999999999999
 50
114.6762395190515
 51
125.3237604809485
  0
ARC
  8
1
 62
7
 10
-110
 20
-70
 30
0
 40
97
 50
84.67623951905154
 51
95.32376048094848
  0
ARC
  8
1
 62
7
 10
-110
 20
-70
 30
0
 40
97
 50
54.67623951905151
 51
65.32376048094845
  0
ARC
  8
1
 62
7
 10
-110
 20
-70
 30
0
 40
97.00000000000001
 50
24.67623951905151
 51
35.32376048094847
  0
ARC
  8
1
 62
7
 10
-110
 20
-70
 30
0
 40
97
 50
354.6762395190515
 51
5.323760480948463
  0
ARC
  8
1
 62
7
 10
-110
 20
-70
 30
0
 40
96.99999999999999
 50
324.6762395190515
 51
335.3237604809485
  0
ARC
  8
1
 62
7
 10
-110
 20
-70
 30
0
 40
96.99999999999997
 50
294.6762395190515
 51
305.3237604809485
  0
ARC
  8
1
 62
7
 10
-110
 20
-70
 30
0
 40
88.99999999999996
 50
275.8038757642734
 51
294.1961242357266
  0
ARC
  8
1
 62
7
 10
-110
 20
-70
 30
0
 40
97.00000000000003
 50
264.6762395190515
 51
275.3237604809485
  0
ARC
  8
1
 62
7
 10
-110
 20
-70
 30
0
 40
61.00000000000001
 50
97.53590934228004
 51
202.4640906577199
  0
ARC
  8
1
 62
7
 10
-110
 20
-70
 30
0
 40
59.99999999999999
 50
157.662255660766
 51
202.337744339234
  0
ARC
  8
1
 62
7
 10
-110
 20
-70
 30
0
 40
61.00000000000001
 50
337.5359093422801
 51
82.46409065771995
  0
ARC
  8
1
 62
7
 10
-110
 20
-70
 30
0
 40
59.99999999999999
 50
37.66225566076604
 51
82.33774433923394
  0
ARC
  8
1
 62
7
 10
-110
 20
-70
 30
0
 40
61
 50
217.53590934228
 51
322.46409065772
  0
ARC
  8
1
 62
7
 10
-110
 20
-70
 30
0
 40
59.99999999999999
 50
277.6622556607661
 51
322.337744339234
  0
ARC
  8
1
 62
7
 10
-110
 20
-70
 30
0
 40
59.99999999999992
 50
97.66225566076606
 51
142.3377443392339
  0
ARC
  8
1
 62
7
 10
-110
 20
-70
 30
0
 40
59.99999999999999
 50
337.6622556607661
 51
22.33774433923392
  0
ARC
  8
1
 62
7
 10
-110
 20
-70
 30
0
 40
59.99999999999997
 50
217.6622556607661
 51
262.337744339234
  0
ARC
  8
1
 62
7
 10
-110
 20
-70
 30
0
 40
75.28148006742109
 50
216.1002169447585
 51
323.8997830552414
  0
ARC
  8
1
 62
7
 10
-110
 20
-70
 30
0
 40
75.28148006742111
 50
96.10021694475853
 51
203.8997830552415
  0
ARC
  8
1
 62
7
 10
-110
 20
-70
 30
0
 40
75.28148006742109
 50
336.1002169447585
 51
83.89978305524149
  0
ARC
  8
1
 62
7
 10
189.5
 20
-135.25
 30
0
 40
2.5
 50
90
 51
180
  0
ARC
  8
1
 62
7
 10
226.5
 20
-135.25
 30
0
 40
2.5
 50
0
 51
90
  0
ARC
  8
1
 62
7
 10
189.5
 20
-4.75
 30
0
 40
2.5
 50
180
 51
270
  0
ARC
  8
1
 62
7
 10
226.5
 20
-4.75
 30
0
 40
2.5
 50
270
 51
0
  0
ARC
  8
1
 62
7
 10
190
 20
31.50000000000001
 30
0
 40
62.50000000000001
 50
270
 51
321.6838655263343
  0
ARC
  8
1
 62
7
 10
-110
 20
-70
 30
0
 40
35.00000000000007
 50
284.9005966878298
 51
255.0994033121701
  0
ARC
  8
1
 62
7
 10
-110
 20
-70
 30
0
 40
44.99999999999997
 50
340.2403483211862
 51
79.75965167881378
  0
ARC
  8
1
 62
7
 10
-110
 20
-70
 30
0
 40
44.99999999999998
 50
220.2403483211863
 51
319.7596516788139
  0
ARC
  8
1
 62
7
 10
-110
 20
-70
 30
0
 40
44.99999999999995
 50
100.2403483211862
 51
199.7596516788138
  0
ARC
  8
1
 62
7
 10
164
 20
-185.5
 30
0
 40
62.5
 50
57.56495192511867
 51
90
  0
ARC
  8
1
 62
3
  6
DIVIDE
 10
-110
 20
-70
 30
0
 40
35.5
 50
18.62771756376566
 51
41.37228243623427
  0
ARC
  8
1
 62
3
  6
DIVIDE
 10
-110
 20
-70
 30
0
 40
35.5
 50
138.6277175637657
 51
161.3722824362344
  0
ARC
  8
1
 62
7
 10
105.2025864081788
 20
8.07060666867072
 30
0
 40
5.000000000000005
 50
16.3657218384137
 51
169.3263658814217
  0
ARC
  8
1
 62
7
 10
121.9533878476254
 20
-0.8965919538775342
 30
0
 40
14.00000000000006
 50
151.8385417609685
 51
267.0176935579661
  0
ARC
  8
1
 62
7
 10
188.9257714159751
 20
-14.39928945967722
 30
0
 40
4.000000000000047
 50
267.0176935579668
 51
36.41370128485432
  0
ARC
  8
1
 62
7
 10
194.5590344960521
 20
-10.24401003818936
 30
0
 40
3.00000000000007
 50
86.37872657606654
 51
216.4137012848532
  0
ARC
  8
1
 62
7
 10
193.4852962410266
 20
-27.21006692126315
 30
0
 40
20.00000000000005
 50
21.51609308045683
 51
86.37872657606498
  0
ARC
  8
1
 62
7
 10
209.765801556031
 20
-20.79172237705892
 30
0
 40
2.499999999999992
 50
273.6721186039707
 51
21.51609308045762
  0
ARC
  8
1
 62
7
 10
105
 20
-20
 30
0
 40
10.00000000000001
 50
169.3263658814217
 51
273.6721186039731
  0
ARC
  8
1
 62
7
 10
105.2025864081788
 20
8.07060666867072
 30
0
 40
4.999999999999865
 50
331.8385417609674
 51
343.6342781615863
  0
CIRCLE
  8
1
 62
7
 10
-110
 20
-70
 30
0
 40
85.5
  0
CIRCLE
  8
1
 62
7
 10
-110
 20
-70
 30
0
 40
88.5
  0
CIRCLE
  8
1
 62
7
 10
105
 20
-20
 30
0
 40
4.000000000000007
  0
TEXT
  8
1
 62
7
 10
-132.6439363282308
 20
57.71360840158738
 30
0
 40
8
  1
OS 708
 41
0.9
  7
SIMPLEX
 72
1
 11
-111.0439363282308
 21
57.71360840158738
 31
0
  0
ENDSEC
  0
EOF
