  0
SECTION
  2
HEADER
  9
$ACADVER
  1
AC1009
  9
$INSBASE
 10
0
 20
0
  9
$EXTMIN
 10
-417.2118786507009
 20
-37.33421336206899
  9
$EXTMAX
 10
78.96414508009889
 20
226.505701136861
  9
$LIMMIN
 10
-417.2118786507009
 20
-37.33421336206899
  9
$LIMMAX
 10
78.96414508009889
 20
226.505701136861
  9
$VIEWCTR
 10
10
 20
10
  9
$VIEWSIZE
 40
10
  9
$SNAPMODE
 70
0
  9
$SNAPUNIT
 10
1
 20
1
  9
$SNAPBASE
 10
0
 20
0
  9
$SNAPANG
 50
0
  9
$SNAPSTYLE
 70
0
  9
$SNAPISOPAIR
 70
0
  9
$GRIDMODE
 70
0
  9
$GRIDUNIT
 10
0
 20
0
  9
$ORTHOMODE
 70
0
  9
$REGENMODE
 70
1
  9
$FILLMODE
 70
1
  9
$QTEXTMODE
 70
0
  9
$DRAGMODE
 70
2
  9
$LTSCALE
 40
1
  9
$OSMODE
 70
0
  9
$ATTMODE
 70
1
  9
$TEXTSIZE
 40
3.5
  9
$TRACEWID
 40
0.5
  9
$TEXTSTYLE
  7
STANDARD
  9
$CLAYER
  8
0
  9
$CELTYPE
  6
BYLAYER
  9
$CECOLOR
 62
256
  9
$DIMSCALE
 40
1
  9
$DIMASZ
 40
0.18
  9
$DIMEXO
 40
0.0625
  9
$DIMDLI
 40
0.38
  9
$DIMRND
 40
0
  9
$DIMDLE
 40
0
  9
$DIMEXE
 40
0.18
  9
$DIMTP
 40
0
  9
$DIMTM
 40
0
  9
$DIMTXT
 40
0.18
  9
$DIMCEN
 40
0.09
  9
$DIMTSZ
 40
0
  9
$DIMTOL
 70
0
  9
$DIMLIM
 70
0
  9
$DIMTIH
 70
1
  9
$DIMTOH
 70
1
  9
$DIMSE1
 70
0
  9
$DIMSE2
 70
0
  9
$DIMTAD
 70
0
  9
$DIMZIN
 70
0
  9
$DIMBLK
  1

  9
$DIMASO
 70
1
  9
$DIMSHO
 70
1
  9
$DIMPOST
  1

  9
$DIMAPOST
  1

  9
$DIMALT
 70
0
  9
$DIMALTD
 70
2
  9
$DIMALTF
 40
25.4
  9
$DIMLFAC
 40
1
  9
$DIMTOFL
 70
0
  9
$DIMTVP
 40
0
  9
$DIMTIX
 70
0
  9
$DIMSOXD
 70
0
  9
$DIMSAH
 70
0
  9
$DIMBLK1
  1

  9
$DIMBLK2
  1

  9
$DIMSTYLE
  2
*UNNAMED
  9
$DIMCLRD
 70
0
  9
$DIMCLRE
 70
0
  9
$DIMCLRT
 70
0
  9
$DIMTFAC
 40
1
  9
$DIMGAP
 40
0.09
  9
$LUNITS
 70
2
  9
$LUPREC
 70
4
  9
$AXISMODE
 70
0
  9
$AXISUNIT
 10
0
 20
0
  9
$SKETCHINC
 40
0.1
  9
$FILLETRAD
 40
2
  9
$AUNITS
 70
0
  9
$AUPREC
 70
0
  9
$MENU
  1
ACAD
  9
$ELEVATION
 40
0
  9
$THICKNESS
 40
0
  9
$VIEWDIR
 10
0
 20
0
 30
1
  9
$LIMCHECK
 70
0
  9
$BLIPMODE
 70
1
  9
$CHAMFERA
 40
0
  9
$CHAMFERB
 40
0
  9
$FASTZOOM
 70
1
  9
$SKPOLY
 70
0
  9
$ANGBASE
 50
0
  9
$ANGDIR
 70
0
  9
$PDMODE
 70
0
  9
$PDSIZE
 40
0
  9
$PLINEWID
 40
0
  9
$COORDS
 70
2
  0
ENDSEC
  0
SECTION
  2
TABLES
  0
TABLE
  2
DIMSTYLE
 70
0
  0
ENDTAB
  0
TABLE
  2
LTYPE
 70
9
  0
LTYPE
  2
CONTINUOUS
 70
64
  3
Solid line
 72
65
 73
0
 40
0
  0
LTYPE
  2
BORDER
 70
64
  3
__ __ . __ __ .
 72
65
 73
6
 40
22.85021161918157
 49
6.528631891194734
 49
-3.264315945597367
 49
6.528631891194734
 49
-3.264315945597367
 49
0
 49
-3.264315945597367
  0
LTYPE
  2
CENTER
 70
64
  3
____ _ ____ _
 72
65
 73
4
 40
26.11452756477894
 49
16.32157972798683
 49
-3.264315945597367
 49
3.264315945597367
 49
-3.264315945597367
  0
LTYPE
  2
DASHDOT
 70
64
  3
__ . __ . __ .
 72
65
 73
4
 40
13.05726378238947
 49
6.528631891194734
 49
-3.264315945597367
 49
0
 49
-3.264315945597367
  0
LTYPE
  2
DASHED
 70
64
  3
__ __ __ __ __
 72
65
 73
2
 40
9.7929478367921
 49
6.528631891194734
 49
-3.264315945597367
  0
LTYPE
  2
DIVIDE
 70
64
  3
__ . . __ . . 
 72
65
 73
6
 40
16.32157972798683
 49
6.528631891194734
 49
-3.264315945597367
 49
0
 49
-3.264315945597367
 49
0
 49
-3.264315945597367
  0
LTYPE
  2
DOT
 70
64
  3
..............
 72
65
 73
4
 40
6.528631891194734
 49
0
 49
-3.264315945597367
 49
0
 49
-3.264315945597367
  0
LTYPE
  2
HIDDEN
 70
64
  3
_ _ _ _ _ _ _
 72
65
 73
2
 40
4.89647391839605
 49
3.264315945597367
 49
-1.632157972798684
  0
LTYPE
  2
PHANTOM
 70
64
  3
_____ _ _ _____ _ _ 
 72
65
 73
6
 40
32.64315945597367
 49
16.32157972798683
 49
-3.264315945597367
 49
3.264315945597367
 49
-3.264315945597367
 49
3.264315945597367
 49
-3.264315945597367
  0
ENDTAB
  0
TABLE
  2
LAYER
 70
3
  0
LAYER
  2
1
 70
0
 62
7
  6
CONTINUOUS
  0
LAYER
  2
0
 70
0
 62
7
  6
CONTINUOUS
  0
ENDTAB
  0
TABLE
  2
STYLE
 70
4
  0
STYLE
  2
STANDARD
 70
0
 40
0
 41
1
 50
0
 71
0
 42
3.5
  3
txt
  4

  0
STYLE
  2
SIMPLEX
 70
0
 40
0
 41
1
 50
0
 71
0
 42
3.5
  3
simplex
  4

  0
STYLE
  2
COMPLEX
 70
0
 40
0
 41
1
 50
0
 71
0
 42
3.5
  3
complex
  4

  0
STYLE
  2
ITALIC
 70
0
 40
0
 41
1
 50
0
 71
0
 42
3.5
  3
italic
  4

  0
ENDTAB
  0
TABLE
  2
VIEW
 70
0
  0
ENDTAB
  0
ENDSEC
  0
SECTION
  2
BLOCKS
  0
ENDSEC
  0
SECTION
  2
ENTITIES
  0
LINE
  8
1
 62
3
  6
DIVIDE
 10
25.9641450800989
 20
-22.33421336206899
 30
0
 11
25.9641450800989
 21
3.415786637931007
 31
0
  0
LINE
  8
1
 62
3
  6
DIVIDE
 10
25.9641450800989
 20
-22.33421336206899
 30
0
 11
28.4641450800989
 21
-24.83421336206899
 31
0
  0
LINE
  8
1
 62
3
  6
DIVIDE
 10
32.9641450800989
 20
-24.83421336206899
 30
0
 11
28.4641450800989
 21
-24.83421336206899
 31
0
  0
LINE
  8
1
 62
3
  6
DIVIDE
 10
32.9641450800989
 20
-24.83421336206899
 30
0
 11
34.4641450800989
 21
-23.33421336206899
 31
0
  0
LINE
  8
1
 62
3
  6
DIVIDE
 10
34.4641450800989
 20
-8.834213362068994
 30
0
 11
34.4641450800989
 21
-23.33421336206899
 31
0
  0
LINE
  8
1
 62
3
  6
DIVIDE
 10
34.4641450800989
 20
-8.834213362068994
 30
0
 11
59.4641450800989
 21
-8.834213362068994
 31
0
  0
LINE
  8
1
 62
3
  6
DIVIDE
 10
59.4641450800989
 20
-8.834213362068994
 30
0
 11
59.4641450800989
 21
-23.33421336206899
 31
0
  0
LINE
  8
1
 62
3
  6
DIVIDE
 10
59.4641450800989
 20
-23.33421336206899
 30
0
 11
60.9641450800989
 21
-24.83421336206899
 31
0
  0
LINE
  8
1
 62
3
  6
DIVIDE
 10
60.9641450800989
 20
-24.83421336206899
 30
0
 11
65.46414508009892
 21
-24.83421336206899
 31
0
  0
LINE
  8
1
 62
3
  6
DIVIDE
 10
65.46414508009892
 20
-24.83421336206899
 30
0
 11
67.96414508009892
 21
-22.33421336206899
 31
0
  0
LINE
  8
1
 62
3
  6
DIVIDE
 10
67.9641450800989
 20
3.415786637931006
 30
0
 11
67.96414508009892
 21
-22.33421336206899
 31
0
  0
LINE
  8
1
 62
3
  6
DASHDOT
 10
22.96414508009889
 20
6.415786637931007
 30
0
 11
22.96414508009889
 21
-27.83421336206899
 31
0
  0
LINE
  8
1
 62
3
  6
DASHDOT
 10
46.9641450800989
 20
6.415786637931007
 30
0
 11
46.9641450800989
 21
-27.83421336206899
 31
0
  0
LINE
  8
1
 62
3
  6
DIVIDE
 10
67.96414508009892
 20
167.665786637931
 30
0
 11
67.9641450800989
 21
141.915786637931
 31
0
  0
LINE
  8
1
 62
3
  6
DIVIDE
 10
67.96414508009892
 20
167.665786637931
 30
0
 11
65.46414508009892
 21
170.165786637931
 31
0
  0
LINE
  8
1
 62
3
  6
DIVIDE
 10
65.46414508009892
 20
170.165786637931
 30
0
 11
60.9641450800989
 21
170.165786637931
 31
0
  0
LINE
  8
1
 62
3
  6
DIVIDE
 10
60.9641450800989
 20
170.165786637931
 30
0
 11
59.4641450800989
 21
168.665786637931
 31
0
  0
LINE
  8
1
 62
3
  6
DIVIDE
 10
59.4641450800989
 20
168.665786637931
 30
0
 11
59.4641450800989
 21
154.165786637931
 31
0
  0
LINE
  8
1
 62
3
  6
DIVIDE
 10
59.4641450800989
 20
154.165786637931
 30
0
 11
34.4641450800989
 21
154.165786637931
 31
0
  0
LINE
  8
1
 62
3
  6
DIVIDE
 10
34.4641450800989
 20
168.665786637931
 30
0
 11
34.4641450800989
 21
154.165786637931
 31
0
  0
LINE
  8
1
 62
3
  6
DIVIDE
 10
34.4641450800989
 20
168.665786637931
 30
0
 11
32.9641450800989
 21
170.165786637931
 31
0
  0
LINE
  8
1
 62
3
  6
DIVIDE
 10
28.4641450800989
 20
170.165786637931
 30
0
 11
32.9641450800989
 21
170.165786637931
 31
0
  0
LINE
  8
1
 62
3
  6
DIVIDE
 10
28.4641450800989
 20
170.165786637931
 30
0
 11
25.9641450800989
 21
167.665786637931
 31
0
  0
LINE
  8
1
 62
3
  6
DIVIDE
 10
25.9641450800989
 20
141.915786637931
 30
0
 11
25.9641450800989
 21
167.665786637931
 31
0
  0
LINE
  8
1
 62
7
 10
0.4641450800988878
 20
170.665786637931
 30
0
 11
0.4641450800988878
 21
140.165786637931
 31
0
  0
LINE
  8
1
 62
3
  6
DASHDOT
 10
46.9641450800989
 20
173.165786637931
 30
0
 11
46.9641450800989
 21
138.915786637931
 31
0
  0
LINE
  8
1
 62
7
 10
-3.535854919901112
 20
142.665786637931
 30
0
 11
0.4641450800988878
 21
142.665786637931
 31
0
  0
LINE
  8
1
 62
3
  6
DASHDOT
 10
68.946327650716
 20
72.66578663793101
 30
0
 11
78.96414508009889
 21
72.66578663793101
 31
0
  0
LINE
  8
1
 62
3
  6
DASHDOT
 10
-101.0358549199011
 20
72.66578663793101
 30
0
 11
-91.03585491990111
 21
72.66578663793101
 31
0
  0
LINE
  8
1
 62
3
  6
DASHDOT
 10
-307.2118786507009
 20
62.66578663793101
 30
0
 11
-307.2118786507009
 21
82.66578663793101
 31
0
  0
LINE
  8
1
 62
7
 10
-224.7789127956085
 20
34.31069591842822
 30
0
 11
-232.7789127956086
 21
20.45428945787717
 31
0
  0
LINE
  8
1
 62
7
 10
-381.6448445057932
 20
20.45428945787717
 30
0
 11
-389.6448445057932
 21
34.31069591842822
 31
0
  0
LINE
  8
1
 62
7
 10
-262.07567197094
 20
55.84398986820651
 30
0
 11
-270.07567197094
 21
41.98758340765545
 31
0
  0
LINE
  8
1
 62
7
 10
-344.3480853304617
 20
41.98758340765545
 30
0
 11
-352.3480853304617
 21
55.84398986820651
 31
0
  0
LINE
  8
1
 62
7
 10
-315.2118786507009
 20
120.165786637931
 30
0
 11
-299.2118786507009
 21
120.165786637931
 31
0
  0
LINE
  8
1
 62
7
 10
-315.2118786507009
 20
163.2323745374876
 30
0
 11
-299.2118786507009
 21
163.2323745374876
 31
0
  0
LINE
  8
1
 62
7
 10
-356.3858384430654
 20
110.2939898682065
 30
0
 11
-364.3858384430654
 21
96.43758340765548
 31
0
  0
LINE
  8
1
 62
7
 10
-250.0379188583364
 20
96.43758340765544
 30
0
 11
-258.0379188583364
 21
110.2939898682065
 31
0
  0
LINE
  8
1
 62
7
 10
-315.2118786507009
 20
11.26578663793101
 30
0
 11
-299.2118786507009
 21
11.26578663793101
 31
0
  0
LINE
  8
1
 62
7
 10
-363.1734028777672
 20
95.73758340765548
 30
0
 11
-369.2565812513689
 21
99.24970807918299
 31
0
  0
LINE
  8
1
 62
7
 10
-355.1734028777672
 20
109.5939898682065
 30
0
 11
-363.1734028777672
 21
95.73758340765548
 31
0
  0
LINE
  8
1
 62
7
 10
-361.2565812513689
 20
113.106114539734
 30
0
 11
-355.1734028777672
 21
109.5939898682065
 31
0
  0
LINE
  8
1
 62
7
 10
-259.2503544236346
 20
109.5939898682065
 30
0
 11
-253.1671760500328
 21
113.1061145397339
 31
0
  0
LINE
  8
1
 62
7
 10
-251.2503544236346
 20
95.73758340765545
 30
0
 11
-259.2503544236346
 21
109.5939898682065
 31
0
  0
LINE
  8
1
 62
7
 10
-245.1671760500329
 20
99.24970807918291
 30
0
 11
-251.2503544236346
 21
95.73758340765545
 31
0
  0
LINE
  8
1
 62
7
 10
-263.3747100766167
 20
56.59398986820651
 30
0
 11
-271.3747100766167
 21
42.73758340765551
 31
0
  0
LINE
  8
1
 62
7
 10
-224.7789127956085
 20
34.31069591842822
 30
0
 11
-263.3747100766167
 21
56.59398986820651
 31
0
  0
LINE
  8
1
 62
7
 10
-271.3747100766167
 20
42.73758340765551
 30
0
 11
-232.7789127956086
 21
20.45428945787717
 31
0
  0
LINE
  8
1
 62
7
 10
-343.0490472247851
 20
42.73758340765545
 30
0
 11
-351.0490472247851
 21
56.59398986820651
 31
0
  0
LINE
  8
1
 62
7
 10
-351.0490472247851
 20
56.59398986820651
 30
0
 11
-389.6448445057932
 21
34.31069591842822
 31
0
  0
LINE
  8
1
 62
7
 10
-381.6448445057932
 20
20.45428945787717
 30
0
 11
-343.0490472247851
 21
42.73758340765545
 31
0
  0
LINE
  8
1
 62
7
 10
-299.2118786507009
 20
118.665786637931
 30
0
 11
-299.2118786507009
 21
163.2323745374876
 31
0
  0
LINE
  8
1
 62
7
 10
-315.2118786507009
 20
118.665786637931
 30
0
 11
-299.2118786507009
 21
118.665786637931
 31
0
  0
LINE
  8
1
 62
7
 10
-315.2118786507009
 20
163.2323745374876
 30
0
 11
-315.2118786507009
 21
118.665786637931
 31
0
  0
LINE
  8
1
 62
7
 10
-299.2118786507009
 20
12.66578663793101
 30
0
 11
-299.2118786507009
 21
5.641537294876073
 31
0
  0
LINE
  8
1
 62
7
 10
-315.2118786507009
 20
12.66578663793101
 30
0
 11
-299.2118786507009
 21
12.66578663793101
 31
0
  0
LINE
  8
1
 62
7
 10
-315.2118786507009
 20
5.641537294876073
 30
0
 11
-315.2118786507009
 21
12.66578663793101
 31
0
  0
LINE
  8
1
 62
7
 10
-260.1905073154088
 20
172.1091908322192
 30
0
 11
-264.4560083728891
 21
164.7211262809246
 31
0
  0
LINE
  8
1
 62
7
 10
-244.602050047289
 20
163.1091908322192
 30
0
 11
-248.8675511047692
 21
155.7211262809247
 31
0
  0
LINE
  8
1
 62
7
 10
-216.7684744564125
 20
135.2756152413426
 30
0
 11
-224.156539007707
 21
131.0101141838624
 31
0
  0
LINE
  8
1
 62
7
 10
-207.7684744564125
 20
119.6871579732227
 30
0
 11
-215.156539007707
 21
115.4216569157425
 31
0
  0
LINE
  8
1
 62
7
 10
-197.5806787119973
 20
81.66578663793075
 30
0
 11
-206.1116808269577
 21
81.66578663793075
 31
0
  0
LINE
  8
1
 62
7
 10
-197.5806787119973
 20
63.66578663793081
 30
0
 11
-206.1116808269577
 21
63.66578663793081
 31
0
  0
LINE
  8
1
 62
7
 10
-207.7684744564127
 20
25.64441530263898
 30
0
 11
-215.1565390077072
 21
29.90991636011918
 31
0
  0
LINE
  8
1
 62
7
 10
-216.7684744564127
 20
10.05595803451912
 30
0
 11
-224.1565390077072
 21
14.32145909199934
 31
0
  0
LINE
  8
1
 62
7
 10
-244.6020500472893
 20
-17.77761755635737
 30
0
 11
-248.8675511047695
 21
-10.38955300506288
 31
0
  0
LINE
  8
1
 62
7
 10
-260.1905073154092
 20
-26.77761755635736
 30
0
 11
-264.4560083728894
 21
-19.38955300506287
 31
0
  0
LINE
  8
1
 62
7
 10
-298.2118786507011
 20
-36.96541330077258
 30
0
 11
-298.2118786507011
 21
-28.43441118581217
 31
0
  0
LINE
  8
1
 62
7
 10
-316.211878650701
 20
-36.96541330077258
 30
0
 11
-316.211878650701
 21
-28.43441118581217
 31
0
  0
LINE
  8
1
 62
7
 10
-354.2332499859929
 20
-26.77761755635726
 30
0
 11
-349.9677489285126
 21
-19.38955300506279
 31
0
  0
LINE
  8
1
 62
7
 10
-369.8217072541127
 20
-17.77761755635726
 30
0
 11
-365.5562061966325
 21
-10.38955300506279
 31
0
  0
LINE
  8
1
 62
7
 10
-397.6552828449892
 20
10.05595803451934
 30
0
 11
-390.2672182936947
 21
14.32145909199954
 31
0
  0
LINE
  8
1
 62
7
 10
-406.6552828449892
 20
25.64441530263923
 30
0
 11
-399.2672182936947
 21
29.90991636011944
 31
0
  0
LINE
  8
1
 62
7
 10
-416.8430785894045
 20
63.66578663793109
 30
0
 11
-408.3120764744441
 21
63.66578663793109
 31
0
  0
LINE
  8
1
 62
7
 10
-416.8430785894045
 20
81.66578663793106
 30
0
 11
-408.312076474444
 21
81.66578663793106
 31
0
  0
LINE
  8
1
 62
7
 10
-406.6552828449891
 20
119.6871579732229
 30
0
 11
-399.2672182936947
 21
115.4216569157427
 31
0
  0
LINE
  8
1
 62
7
 10
-397.6552828449892
 20
135.2756152413428
 30
0
 11
-390.2672182936947
 21
131.0101141838626
 31
0
  0
LINE
  8
1
 62
7
 10
-369.8217072541126
 20
163.1091908322193
 30
0
 11
-365.5562061966324
 21
155.7211262809248
 31
0
  0
LINE
  8
1
 62
7
 10
-354.2332499859927
 20
172.1091908322193
 30
0
 11
-349.9677489285125
 21
164.7211262809248
 31
0
  0
LINE
  8
1
 62
7
 10
-316.2118786507008
 20
182.2969865766346
 30
0
 11
-316.2118786507008
 21
173.7659844616742
 31
0
  0
LINE
  8
1
 62
7
 10
-298.2118786507009
 20
182.2969865766346
 30
0
 11
-298.2118786507009
 21
173.7659844616742
 31
0
  0
LINE
  8
1
 62
3
  6
DASHDOT
 10
-297.2118786507009
 20
72.66578663793101
 30
0
 11
-317.2118786507009
 21
72.66578663793101
 31
0
  0
LINE
  8
1
 62
3
  6
DIVIDE
 10
65.9641450800989
 20
145.915786637931
 30
0
 11
2.964145080098888
 21
145.915786637931
 31
0
  0
LINE
  8
1
 62
3
  6
DIVIDE
 10
2.964145080098888
 20
136.915786637931
 30
0
 11
2.964145080098888
 21
145.915786637931
 31
0
  0
LINE
  8
1
 62
3
  6
DIVIDE
 10
65.9641450800989
 20
136.915786637931
 30
0
 11
2.964145080098888
 21
136.915786637931
 31
0
  0
LINE
  8
1
 62
3
  6
DIVIDE
 10
65.9641450800989
 20
145.915786637931
 30
0
 11
65.9641450800989
 21
136.915786637931
 31
0
  0
LINE
  8
1
 62
7
 10
-88.233277404905
 20
140.165786637931
 30
0
 11
-90.03585491990111
 21
140.165786637931
 31
0
  0
LINE
  8
1
 62
7
 10
-79.50698866011219
 20
120.1797814066457
 30
0
 11
24.846766006819
 21
125.70643382144
 31
0
  0
LINE
  8
1
 62
7
 10
-63.75460380609148
 20
135.1064559540346
 30
0
 11
3.694529883578547
 21
130.8359331204349
 31
0
  0
LINE
  8
1
 62
7
 10
-84.42231045047362
 20
159.2133167890181
 30
0
 11
-89.84151701874224
 21
132.127671140992
 31
0
  0
LINE
  8
1
 62
7
 10
-3.535854919901112
 20
182.665786637931
 30
0
 11
-3.535854919901112
 21
140.853286637931
 31
0
  0
LINE
  8
1
 62
7
 10
-0.9358549199011179
 20
152.665786637931
 30
0
 11
-3.535854919901112
 21
152.665786637931
 31
0
  0
LINE
  8
1
 62
7
 10
-0.9358549199011179
 20
182.665786637931
 30
0
 11
-0.9358549199011179
 21
152.665786637931
 31
0
  0
LINE
  8
1
 62
7
 10
-0.9358549199011179
 20
172.065786637931
 30
0
 11
0.4641450800988878
 21
170.665786637931
 31
0
  0
LINE
  8
1
 62
7
 10
-3.535854919901112
 20
173.665786637931
 30
0
 11
-24.53585491990111
 21
173.665786637931
 31
0
  0
LINE
  8
1
 62
7
 10
-3.535854919901112
 20
182.665786637931
 30
0
 11
-0.9358549199011179
 21
182.665786637931
 31
0
  0
LINE
  8
1
 62
7
 10
-6.535854919901112
 20
156.665786637931
 30
0
 11
-6.535854919901112
 21
158.665786637931
 31
0
  0
LINE
  8
1
 62
7
 10
-6.535854919901112
 20
168.665786637931
 30
0
 11
-6.535854919901112
 21
166.665786637931
 31
0
  0
LINE
  8
1
 62
7
 10
-24.53585491990111
 20
173.665786637931
 30
0
 11
-24.53585491990111
 21
140.165786637931
 31
0
  0
LINE
  8
1
 62
7
 10
-28.53585491990111
 20
157.415786637931
 30
0
 11
-24.53585491990111
 21
157.415786637931
 31
0
  0
LINE
  8
1
 62
7
 10
-28.53585491990111
 20
167.915786637931
 30
0
 11
-24.53585491990111
 21
167.915786637931
 31
0
  0
LINE
  8
1
 62
7
 10
-6.535854919901112
 20
156.665786637931
 30
0
 11
-24.53585491990111
 21
156.665786637931
 31
0
  0
LINE
  8
1
 62
7
 10
-24.53585491990111
 20
168.665786637931
 30
0
 11
-6.535854919901112
 21
168.665786637931
 31
0
  0
LINE
  8
1
 62
7
 10
-3.535854919901112
 20
158.665786637931
 30
0
 11
-17.33585491990111
 21
158.665786637931
 31
0
  0
LINE
  8
1
 62
7
 10
-17.33585491990111
 20
168.665786637931
 30
0
 11
-17.33585491990111
 21
156.665786637931
 31
0
  0
LINE
  8
1
 62
7
 10
-17.33585491990111
 20
166.665786637931
 30
0
 11
-3.535854919901112
 21
166.665786637931
 31
0
  0
LINE
  8
1
 62
7
 10
-91.03585491990111
 20
107.665786637931
 30
0
 11
68.96414508009889
 21
107.665786637931
 31
0
  0
LINE
  8
1
 62
7
 10
4.964145080098888
 20
118.665786637931
 30
0
 11
-90.03585491990111
 21
118.665786637931
 31
0
  0
LINE
  8
1
 62
7
 10
-63.03585491990111
 20
182.665786637931
 30
0
 11
-63.03585491990111
 21
140.165786637931
 31
0
  0
LINE
  8
1
 62
7
 10
-66.03585491990111
 20
141.165786637931
 30
0
 11
-66.03585491990111
 21
140.165786637931
 31
0
  0
LINE
  8
1
 62
3
  6
DASHDOT
 10
22.96414508009889
 20
173.165786637931
 30
0
 11
22.96414508009889
 21
138.915786637931
 31
0
  0
LINE
  8
1
 62
7
 10
-24.53585491990111
 20
140.853286637931
 30
0
 11
-21.63892660983325
 21
140.853286637931
 31
0
  0
LINE
  8
1
 62
3
 10
-21.16982951611667
 20
141.665786637931
 30
0
 11
-24.53585491990111
 21
141.665786637931
 31
0
  0
LINE
  8
1
 62
3
 10
-21.63892660983325
 20
140.853286637931
 30
0
 11
-3.535854919901112
 21
140.853286637931
 31
0
  0
LINE
  8
1
 62
7
 10
-24.53585491990111
 20
173.665786637931
 30
0
 11
-28.53585491990111
 21
173.665786637931
 31
0
  0
LINE
  8
1
 62
7
 10
-22.03585491990111
 20
140.165786637931
 30
0
 11
-73.66644628849696
 21
140.165786637931
 31
0
  0
LINE
  8
1
 62
7
 10
-75.03585491990111
 20
142.150908993072
 30
0
 11
-75.03585491990111
 21
150.165786637931
 31
0
  0
LINE
  8
1
 62
7
 10
-75.03585491990111
 20
170.665786637931
 30
0
 11
-72.03585491990111
 21
173.665786637931
 31
0
  0
LINE
  8
1
 62
7
 10
-63.03585491990111
 20
173.665786637931
 30
0
 11
-72.03585491990111
 21
173.665786637931
 31
0
  0
LINE
  8
1
 62
7
 10
-75.03585491990111
 20
170.665786637931
 30
0
 11
-75.03585491990111
 21
150.165786637931
 31
0
  0
LINE
  8
1
 62
7
 10
-75.03585491990111
 20
150.165786637931
 30
0
 11
-66.03585491990111
 21
141.165786637931
 31
0
  0
LINE
  8
1
 62
3
 10
-28.53585491990111
 20
140.165786637931
 30
0
 11
-63.03585491990111
 21
182.665786637931
 31
0
  0
LINE
  8
1
 62
3
 10
-28.53585491990111
 20
182.665786637931
 30
0
 11
-63.03585491990111
 21
140.165786637931
 31
0
  0
LINE
  8
1
 62
7
 10
-28.53585491990111
 20
140.165786637931
 30
0
 11
-28.53585491990111
 21
182.665786637931
 31
0
  0
LINE
  8
1
 62
7
 10
-28.53585491990111
 20
182.665786637931
 30
0
 11
-63.03585491990111
 21
182.665786637931
 31
0
  0
LINE
  8
1
 62
7
 10
35.46414508009889
 20
168.665786637931
 30
0
 11
35.46414508009889
 21
154.165786637931
 31
0
  0
LINE
  8
1
 62
7
 10
10.46414508009889
 20
168.665786637931
 30
0
 11
10.46414508009889
 21
154.165786637931
 31
0
  0
LINE
  8
1
 62
7
 10
35.46414508009889
 20
154.165786637931
 30
0
 11
10.46414508009889
 21
154.165786637931
 31
0
  0
LINE
  8
1
 62
7
 10
36.96414508009889
 20
170.165786637931
 30
0
 11
35.46414508009889
 21
168.665786637931
 31
0
  0
LINE
  8
1
 62
7
 10
10.46414508009889
 20
168.665786637931
 30
0
 11
8.964145080098888
 21
170.165786637931
 31
0
  0
LINE
  8
1
 62
7
 10
43.9641450800989
 20
167.665786637931
 30
0
 11
41.4641450800989
 21
170.165786637931
 31
0
  0
LINE
  8
1
 62
7
 10
4.464145080098888
 20
170.165786637931
 30
0
 11
1.964145080098888
 21
167.665786637931
 31
0
  0
LINE
  8
1
 62
7
 10
1.964145080098888
 20
141.915786637931
 30
0
 11
1.964145080098888
 21
167.665786637931
 31
0
  0
LINE
  8
1
 62
7
 10
4.464145080098888
 20
170.165786637931
 30
0
 11
8.964145080098888
 21
170.165786637931
 31
0
  0
LINE
  8
1
 62
7
 10
41.4641450800989
 20
170.165786637931
 30
0
 11
36.96414508009889
 21
170.165786637931
 31
0
  0
LINE
  8
1
 62
7
 10
43.9641450800989
 20
167.665786637931
 30
0
 11
43.9641450800989
 21
141.915786637931
 31
0
  0
LINE
  8
1
 62
7
 10
-90.03585491990111
 20
140.165786637931
 30
0
 11
-90.03585491990111
 21
118.665786637931
 31
0
  0
LINE
  8
1
 62
7
 10
-90.03585491990111
 20
118.665786637931
 30
0
 11
-91.03585491990111
 21
117.665786637931
 31
0
  0
LINE
  8
1
 62
7
 10
-1.035854919901112
 20
141.665786637931
 30
0
 11
-21.16982951611667
 21
141.665786637931
 31
0
  0
LINE
  8
1
 62
7
 10
-21.16982951611667
 20
141.665786637931
 30
0
 11
-22.03585491990111
 21
140.165786637931
 31
0
  0
LINE
  8
1
 62
7
 10
-1.035854919901112
 20
141.665786637931
 30
0
 11
-1.035854919901112
 21
140.165786637931
 31
0
  0
LINE
  8
1
 62
7
 10
0.9641450800988878
 20
141.915786637931
 30
0
 11
0.9641450800988878
 21
140.165786637931
 31
0
  0
LINE
  8
1
 62
7
 10
0.9641450800988878
 20
140.165786637931
 30
0
 11
-1.035854919901112
 21
140.165786637931
 31
0
  0
LINE
  8
1
 62
7
 10
67.9641450800989
 20
141.915786637931
 30
0
 11
0.9641450800988878
 21
141.915786637931
 31
0
  0
LINE
  8
1
 62
7
 10
67.9641450800989
 20
141.915786637931
 30
0
 11
67.9641450800989
 21
118.665786637931
 31
0
  0
LINE
  8
1
 62
7
 10
67.9641450800989
 20
118.665786637931
 30
0
 11
68.96414508009889
 21
117.665786637931
 31
0
  0
LINE
  8
1
 62
7
 10
68.96414508009889
 20
37.66578663793101
 30
0
 11
-91.03585491990111
 21
37.66578663793101
 31
0
  0
LINE
  8
1
 62
7
 10
-91.03585491990111
 20
31.66578663793101
 30
0
 11
68.96414508009889
 21
31.66578663793101
 31
0
  0
LINE
  8
1
 62
7
 10
-12.03585491990111
 20
-10.44746201612087
 30
0
 11
-7.035854919901112
 21
-13.33421336206899
 31
0
  0
LINE
  8
1
 62
7
 10
-17.03585491990111
 20
-13.33421336206899
 30
0
 11
-12.03585491990111
 21
-10.44746201612087
 31
0
  0
LINE
  8
1
 62
7
 10
-7.035854919901112
 20
-13.33421336206899
 30
0
 11
-7.035854919901112
 21
-28.33421336206899
 31
0
  0
LINE
  8
1
 62
7
 10
-17.03585491990111
 20
-13.33421336206899
 30
0
 11
-7.035854919901112
 21
-13.33421336206899
 31
0
  0
LINE
  8
1
 62
7
 10
-17.03585491990111
 20
-28.33421336206899
 30
0
 11
-17.03585491990111
 21
-13.33421336206899
 31
0
  0
LINE
  8
1
 62
7
 10
0.4641450800988878
 20
-25.33421336206899
 30
0
 11
-2.535854919901112
 21
-28.33421336206899
 31
0
  0
LINE
  8
1
 62
7
 10
-21.63892660983325
 20
4.478286637931006
 30
0
 11
-24.53585491990111
 21
4.478286637931006
 31
0
  0
LINE
  8
1
 62
3
 10
-24.53585491990111
 20
3.665786637931006
 30
0
 11
-21.16982951611667
 21
3.665786637931006
 31
0
  0
LINE
  8
1
 62
3
 10
-3.535854919901112
 20
4.478286637931006
 30
0
 11
-21.63892660983325
 21
4.478286637931006
 31
0
  0
LINE
  8
1
 62
7
 10
-3.535854919901112
 20
4.478286637931006
 30
0
 11
-3.535854919901112
 21
2.665786637931006
 31
0
  0
LINE
  8
1
 62
7
 10
0.4641450800988878
 20
5.165786637931006
 30
0
 11
0.4641450800988878
 21
-25.33421336206899
 31
0
  0
LINE
  8
1
 62
7
 10
-3.535854919901112
 20
2.665786637931006
 30
0
 11
0.4641450800988878
 21
2.665786637931006
 31
0
  0
LINE
  8
1
 62
7
 10
-28.53585491990111
 20
-28.33421336206899
 30
0
 11
-2.535854919901112
 21
-28.33421336206899
 31
0
  0
LINE
  8
1
 62
7
 10
-24.53585491990111
 20
5.165786637931004
 30
0
 11
-22.03585491990111
 21
5.165786637931006
 31
0
  0
LINE
  8
1
 62
7
 10
-24.53585491990111
 20
11.26578663793101
 30
0
 11
-24.53585491990111
 21
-28.33421336206899
 31
0
  0
LINE
  8
1
 62
7
 10
-75.03585491990111
 20
-4.834213362068992
 30
0
 11
-75.03585491990111
 21
5.165786637931005
 31
0
  0
LINE
  8
1
 62
7
 10
-72.03585491990111
 20
-28.33421336206899
 30
0
 11
-75.03585491990111
 21
-25.33421336206899
 31
0
  0
LINE
  8
1
 62
7
 10
-72.03585491990111
 20
-28.33421336206899
 30
0
 11
-63.03585491990111
 21
-28.33421336206899
 31
0
  0
LINE
  8
1
 62
7
 10
-75.03585491990111
 20
-4.834213362068992
 30
0
 11
-75.03585491990111
 21
-25.33421336206899
 31
0
  0
LINE
  8
1
 62
7
 10
-66.03585491990111
 20
4.165786637931006
 30
0
 11
-75.03585491990111
 21
-4.834213362068992
 31
0
  0
LINE
  8
1
 62
7
 10
-66.03585491990111
 20
11.26578663793101
 30
0
 11
-66.03585491990111
 21
4.165786637931006
 31
0
  0
LINE
  8
1
 62
3
 10
-63.03585491990111
 20
-37.33421336206899
 30
0
 11
-28.53585491990111
 21
11.26578663793101
 31
0
  0
LINE
  8
1
 62
3
 10
-63.03585491990111
 20
11.26578663793101
 30
0
 11
-28.53585491990111
 21
-37.33421336206899
 31
0
  0
LINE
  8
1
 62
7
 10
-66.03585491990111
 20
11.26578663793101
 30
0
 11
-24.53585491990111
 21
11.26578663793101
 31
0
  0
LINE
  8
1
 62
7
 10
-28.53585491990111
 20
-37.33421336206899
 30
0
 11
-28.53585491990111
 21
11.26578663793101
 31
0
  0
LINE
  8
1
 62
7
 10
-63.03585491990111
 20
11.26578663793101
 30
0
 11
-63.03585491990111
 21
-37.33421336206899
 31
0
  0
LINE
  8
1
 62
7
 10
-63.03585491990111
 20
-37.33421336206899
 30
0
 11
-28.53585491990111
 21
-37.33421336206899
 31
0
  0
LINE
  8
1
 62
7
 10
35.46414508009889
 20
-8.834213362068994
 30
0
 11
35.46414508009889
 21
-23.33421336206899
 31
0
  0
LINE
  8
1
 62
7
 10
10.46414508009889
 20
-8.834213362068994
 30
0
 11
10.46414508009889
 21
-23.33421336206899
 31
0
  0
LINE
  8
1
 62
7
 10
10.46414508009889
 20
-8.834213362068994
 30
0
 11
35.46414508009889
 21
-8.834213362068994
 31
0
  0
LINE
  8
1
 62
7
 10
35.46414508009889
 20
-23.33421336206899
 30
0
 11
36.96414508009889
 21
-24.83421336206899
 31
0
  0
LINE
  8
1
 62
7
 10
8.964145080098888
 20
-24.83421336206899
 30
0
 11
10.46414508009889
 21
-23.33421336206899
 31
0
  0
LINE
  8
1
 62
7
 10
41.4641450800989
 20
-24.83421336206899
 30
0
 11
43.9641450800989
 21
-22.33421336206899
 31
0
  0
LINE
  8
1
 62
7
 10
1.964145080098888
 20
-22.33421336206899
 30
0
 11
4.464145080098888
 21
-24.83421336206899
 31
0
  0
LINE
  8
1
 62
7
 10
1.964145080098888
 20
-22.33421336206899
 30
0
 11
1.964145080098888
 21
3.415786637931006
 31
0
  0
LINE
  8
1
 62
7
 10
8.964145080098888
 20
-24.83421336206899
 30
0
 11
4.464145080098888
 21
-24.83421336206899
 31
0
  0
LINE
  8
1
 62
7
 10
36.96414508009889
 20
-24.83421336206899
 30
0
 11
41.4641450800989
 21
-24.83421336206899
 31
0
  0
LINE
  8
1
 62
7
 10
43.9641450800989
 20
3.415786637931006
 30
0
 11
43.9641450800989
 21
-22.33421336206899
 31
0
  0
LINE
  8
1
 62
7
 10
-21.03585491990111
 20
12.66578663793101
 30
0
 11
-90.03585491990111
 21
12.66578663793101
 31
0
  0
LINE
  8
1
 62
7
 10
-90.03585491990111
 20
5.165786637931007
 30
0
 11
-66.03585491990111
 21
5.165786637931006
 31
0
  0
LINE
  8
1
 62
7
 10
-90.03585491990111
 20
26.66578663793101
 30
0
 11
-90.03585491990111
 21
5.165786637931007
 31
0
  0
LINE
  8
1
 62
7
 10
-91.03585491990111
 20
27.66578663793101
 30
0
 11
-90.03585491990111
 21
26.66578663793101
 31
0
  0
LINE
  8
1
 62
7
 10
-91.03585491990111
 20
117.665786637931
 30
0
 11
-91.03585491990111
 21
27.66578663793101
 31
0
  0
LINE
  8
1
 62
7
 10
-21.16982951611667
 20
3.665786637931006
 30
0
 11
-1.035854919901112
 21
3.665786637931006
 31
0
  0
LINE
  8
1
 62
7
 10
-22.03585491990111
 20
5.165786637931006
 30
0
 11
-21.16982951611667
 21
3.665786637931006
 31
0
  0
LINE
  8
1
 62
7
 10
-1.035854919901112
 20
5.165786637931006
 30
0
 11
-1.035854919901112
 21
3.665786637931006
 31
0
  0
LINE
  8
1
 62
7
 10
0.9641450800988878
 20
5.165786637931006
 30
0
 11
0.9641450800988878
 21
3.415786637931006
 31
0
  0
LINE
  8
1
 62
7
 10
-1.035854919901112
 20
5.165786637931006
 30
0
 11
0.9641450800988878
 21
5.165786637931006
 31
0
  0
LINE
  8
1
 62
7
 10
0.9641450800988878
 20
3.415786637931006
 30
0
 11
67.9641450800989
 21
3.415786637931006
 31
0
  0
LINE
  8
1
 62
7
 10
67.9641450800989
 20
26.66578663793101
 30
0
 11
67.9641450800989
 21
3.415786637931006
 31
0
  0
LINE
  8
1
 62
7
 10
68.96414508009889
 20
27.66578663793101
 30
0
 11
67.9641450800989
 21
26.66578663793101
 31
0
  0
LINE
  8
1
 62
7
 10
68.96414508009889
 20
117.665786637931
 30
0
 11
68.96414508009889
 21
27.66578663793101
 31
0
  0
LINE
  8
1
 62
7
 10
-316.2118786507009
 20
38.84271758735548
 30
0
 11
-316.2118786507009
 21
31.66578663793101
 31
0
  0
LINE
  8
1
 62
7
 10
-316.2118786507009
 20
31.66578663793101
 30
0
 11
-298.2118786507009
 21
31.66578663793101
 31
0
  0
LINE
  8
1
 62
7
 10
-298.2118786507009
 20
31.66578663793101
 30
0
 11
-298.2118786507009
 21
38.84271758735548
 31
0
  0
LINE
  8
1
 62
3
  6
DIVIDE
 10
-65.03585491990111
 20
108.165786637931
 30
0
 11
-29.03585491990111
 21
108.165786637931
 31
0
  0
LINE
  8
1
 62
3
  6
DIVIDE
 10
-29.03585491990111
 20
108.165786637931
 30
0
 11
-29.03585491990111
 21
37.16578663793101
 31
0
  0
LINE
  8
1
 62
3
  6
DIVIDE
 10
-29.03585491990111
 20
37.16578663793101
 30
0
 11
-65.03585491990111
 21
37.16578663793101
 31
0
  0
LINE
  8
1
 62
3
  6
DIVIDE
 10
-65.03585491990111
 20
37.16578663793101
 30
0
 11
-65.03585491990111
 21
108.165786637931
 31
0
  0
LINE
  8
1
 62
3
  6
DIVIDE
 10
-41.53585491990111
 20
37.16578663793101
 30
0
 11
-41.53585491990111
 21
12.66578663793101
 31
0
  0
LINE
  8
1
 62
3
  6
DIVIDE
 10
-46.53585491990111
 20
12.66578663793101
 30
0
 11
-46.53585491990111
 21
37.16578663793101
 31
0
  0
LINE
  8
1
 62
3
  6
DIVIDE
 10
-53.53585491990111
 20
12.66578663793101
 30
0
 11
-53.53585491990111
 21
37.16578663793101
 31
0
  0
LINE
  8
1
 62
3
  6
DIVIDE
 10
-58.53585491990111
 20
12.66578663793101
 30
0
 11
-58.53585491990111
 21
37.16578663793101
 31
0
  0
LINE
  8
1
 62
3
  6
DIVIDE
 10
-304.7118786507009
 20
31.66578663793101
 30
0
 11
-304.7118786507009
 21
12.66578663793101
 31
0
  0
LINE
  8
1
 62
3
  6
DIVIDE
 10
-309.7118786507009
 20
31.66578663793101
 30
0
 11
-309.7118786507009
 21
12.66578663793101
 31
0
  0
LINE
  8
1
 62
3
  6
DIVIDE
 10
-275.2943062003096
 20
88.20665433809565
 30
0
 11
-254.0003544236346
 21
100.5007231284699
 31
0
  0
LINE
  8
1
 62
3
  6
DIVIDE
 10
-277.7943062003096
 20
92.53678135701784
 30
0
 11
-256.5003544236346
 21
104.8308501473921
 31
0
  0
LINE
  8
1
 62
3
  6
DIVIDE
 10
-336.6294511010922
 20
92.53678135701787
 30
0
 11
-357.9234028777672
 21
104.8308501473921
 31
0
  0
LINE
  8
1
 62
3
  6
DIVIDE
 10
-339.1294511010922
 20
88.20665433809565
 30
0
 11
-360.4234028777672
 21
100.5007231284699
 31
0
  0
LINE
  8
1
 62
7
 10
-6.535854919901112
 20
166.665786637931
 30
0
 11
-6.888508881318042
 21
168.665786637931
 31
0
  0
LINE
  8
1
 62
7
 10
-6.888508881318042
 20
168.665786637931
 30
0
 11
-9.004432649819622
 21
156.665786637931
 31
0
  0
LINE
  8
1
 62
7
 10
-9.004432649819622
 20
156.665786637931
 30
0
 11
-11.1203564183212
 21
168.665786637931
 31
0
  0
LINE
  8
1
 62
7
 10
-11.1203564183212
 20
168.665786637931
 30
0
 11
-13.23628018682278
 21
156.665786637931
 31
0
  0
LINE
  8
1
 62
7
 10
-13.23628018682278
 20
156.665786637931
 30
0
 11
-15.35220395532436
 21
168.665786637931
 31
0
  0
LINE
  8
1
 62
7
 10
-15.35220395532436
 20
168.665786637931
 30
0
 11
-17.33585491990111
 21
157.4159429860598
 31
0
  0
ARC
  8
1
 62
3
  6
DIVIDE
 10
28.4641450800989
 20
0.9157866379310065
 30
0
 40
2.5
 50
90
 51
180
  0
ARC
  8
1
 62
3
  6
DIVIDE
 10
65.46414508009892
 20
0.9157866379310065
 30
0
 40
2.5
 50
0
 51
90
  0
ARC
  8
1
 62
3
  6
DIVIDE
 10
65.46414508009892
 20
144.415786637931
 30
0
 40
2.5
 50
270
 51
0
  0
ARC
  8
1
 62
3
  6
DIVIDE
 10
28.4641450800989
 20
144.415786637931
 30
0
 40
2.5
 50
180
 51
270
  0
ARC
  8
1
 62
7
 10
-307.2118786507009
 20
72.66578663793101
 30
0
 40
77.5
 50
215.9249572859845
 51
324.0750427140155
  0
ARC
  8
1
 62
7
 10
-307.2118786507009
 20
72.66578663793101
 30
0
 40
68.5
 50
216.7067834442498
 51
323.2932165557502
  0
ARC
  8
1
 62
7
 10
-307.2118786507009
 20
72.66578663793101
 30
0
 40
68.49999999999997
 50
336.7067834442498
 51
83.29321655575022
  0
ARC
  8
1
 62
7
 10
-307.2118786507009
 20
72.66578663793101
 30
0
 40
68.49999999999999
 50
96.70678344424979
 51
203.2932165557502
  0
ARC
  8
1
 62
7
 10
-307.2118786507009
 20
72.66578663793101
 30
0
 40
77.50000000000003
 50
95.92495728598452
 51
204.0750427140155
  0
ARC
  8
1
 62
7
 10
-307.2118786507009
 20
72.66578663793101
 30
0
 40
77.49999999999997
 50
335.9249572859846
 51
84.07504271401548
  0
ARC
  8
1
 62
7
 10
-307.2118786507009
 20
72.66578663793101
 30
0
 40
67.50000000000007
 50
96.80660978532958
 51
143.1933902146704
  0
ARC
  8
1
 62
7
 10
-307.2118786507009
 20
72.66578663793101
 30
0
 40
67.50000000000006
 50
336.8066097853296
 51
23.19339021467038
  0
ARC
  8
1
 62
7
 10
-307.2118786507009
 20
72.66578663793101
 30
0
 40
67.5
 50
276.8066097853296
 51
323.1933902146704
  0
ARC
  8
1
 62
7
 10
-307.2118786507009
 20
72.66578663793101
 30
0
 40
67.49999999999999
 50
36.80660978532951
 51
83.19339021467042
  0
ARC
  8
1
 62
7
 10
-307.2118786507009
 20
72.66578663793101
 30
0
 40
67.5000000000001
 50
216.8066097853296
 51
263.1933902146704
  0
ARC
  8
1
 62
7
 10
-307.2118786507009
 20
72.66578663793101
 30
0
 40
67.49999999999999
 50
156.8066097853296
 51
203.1933902146704
  0
ARC
  8
1
 62
7
 10
-307.2118786507009
 20
72.66578663793101
 30
0
 40
101.5
 50
35.08709495258881
 51
54.912905047411
  0
ARC
  8
1
 62
7
 10
-307.2118786507009
 20
72.66578663793101
 30
0
 40
101.5
 50
5.087094952588743
 51
24.91290504741102
  0
ARC
  8
1
 62
7
 10
-307.2118786507009
 20
72.66578663793101
 30
0
 40
101.5
 50
335.0870949525888
 51
354.912905047411
  0
ARC
  8
1
 62
7
 10
-307.2118786507009
 20
72.66578663793101
 30
0
 40
101.5
 50
305.0870949525888
 51
324.912905047411
  0
ARC
  8
1
 62
7
 10
-307.2118786507009
 20
72.66578663793101
 30
0
 40
101.5
 50
275.0870949525888
 51
294.912905047411
  0
ARC
  8
1
 62
7
 10
-307.2118786507009
 20
72.66578663793101
 30
0
 40
101.5
 50
245.0870949525888
 51
264.9129050474111
  0
ARC
  8
1
 62
7
 10
-307.2118786507009
 20
72.66578663793101
 30
0
 40
101.5
 50
215.0870949525888
 51
234.9129050474111
  0
ARC
  8
1
 62
7
 10
-307.2118786507009
 20
72.66578663793101
 30
0
 40
101.5
 50
185.0870949525889
 51
204.9129050474111
  0
ARC
  8
1
 62
7
 10
-307.2118786507009
 20
72.66578663793101
 30
0
 40
101.5000000000001
 50
155.0870949525889
 51
174.9129050474111
  0
ARC
  8
1
 62
7
 10
-307.2118786507009
 20
72.66578663793101
 30
0
 40
101.5
 50
125.0870949525889
 51
144.9129050474111
  0
ARC
  8
1
 62
7
 10
-307.2118786507009
 20
72.66578663793101
 30
0
 40
101.5
 50
95.08709495258883
 51
114.9129050474111
  0
ARC
  8
1
 62
7
 10
-307.2118786507009
 20
72.66578663793101
 30
0
 40
101.4999999999999
 50
65.08709495258876
 51
84.9129050474111
  0
ARC
  8
1
 62
7
 10
-307.2118786507009
 20
72.66578663793101
 30
0
 40
110
 50
55.30691744497429
 51
64.6930825550255
  0
ARC
  8
1
 62
7
 10
-307.2118786507009
 20
72.66578663793101
 30
0
 40
110
 50
25.30691744497429
 51
34.69308255502552
  0
ARC
  8
1
 62
7
 10
-307.2118786507009
 20
72.66578663793101
 30
0
 40
110
 50
355.3069174449743
 51
4.693082555025482
  0
ARC
  8
1
 62
7
 10
-307.2118786507009
 20
72.66578663793101
 30
0
 40
110
 50
325.3069174449743
 51
334.6930825550255
  0
ARC
  8
1
 62
7
 10
-307.2118786507009
 20
72.66578663793101
 30
0
 40
110
 50
295.3069174449743
 51
304.6930825550255
  0
ARC
  8
1
 62
7
 10
-307.2118786507009
 20
72.66578663793101
 30
0
 40
110
 50
265.3069174449744
 51
274.6930825550255
  0
ARC
  8
1
 62
7
 10
-307.2118786507009
 20
72.66578663793101
 30
0
 40
110
 50
235.3069174449744
 51
244.6930825550255
  0
ARC
  8
1
 62
7
 10
-307.2118786507009
 20
72.66578663793101
 30
0
 40
110
 50
205.3069174449744
 51
214.6930825550256
  0
ARC
  8
1
 62
7
 10
-307.2118786507009
 20
72.66578663793101
 30
0
 40
110.0000000000001
 50
175.3069174449744
 51
184.6930825550256
  0
ARC
  8
1
 62
7
 10
-307.2118786507009
 20
72.66578663793101
 30
0
 40
110
 50
145.3069174449744
 51
154.6930825550256
  0
ARC
  8
1
 62
7
 10
-307.2118786507009
 20
72.66578663793101
 30
0
 40
110
 50
115.3069174449744
 51
124.6930825550256
  0
ARC
  8
1
 62
7
 10
-307.2118786507009
 20
72.66578663793101
 30
0
 40
110
 50
85.3069174449744
 51
94.69308255502556
  0
ARC
  8
1
 62
7
 10
8.371380483754322
 20
121.9458728468138
 30
0
 40
20
 50
20.94958928631132
 51
86.85688100350873
  0
ARC
  8
1
 62
7
 10
9.626645657750785
 20
138.9199850685454
 30
0
 40
3.000000000000018
 50
93.03159480886977
 51
215.7731774897527
  0
ARC
  8
1
 62
7
 10
3.947282647841632
 20
134.8279396384854
 30
0
 40
4.000000000000026
 50
266.3771697628649
 51
35.77317748975271
  0
ARC
  8
1
 62
7
 10
24.71454944187175
 20
128.2029351292613
 30
0
 40
2.499999999999987
 50
273.0315948088723
 51
20.94958928631033
  0
ARC
  8
1
 62
7
 10
-79.51947940105305
 20
158.2323745374875
 30
0
 40
5.000000000000084
 50
26.26914596320152
 51
168.6858420863187
  0
ARC
  8
1
 62
7
 10
-62.86996913117073
 20
149.0784787672112
 30
0
 40
14.00000000000002
 50
151.1980179658672
 51
266.3771697628651
  0
ARC
  8
1
 62
7
 10
-80.03585491990111
 20
130.165786637931
 30
0
 40
10.00000000000001
 50
168.6858420863201
 51
273.0315948088719
  0
ARC
  8
1
 62
7
 10
4.964145080098888
 20
168.665786637931
 30
0
 40
50
 50
270
 51
327.6560885867666
  0
ARC
  8
1
 62
7
 10
4.464145080098888
 20
144.415786637931
 30
0
 40
2.5
 50
180
 51
270
  0
ARC
  8
1
 62
7
 10
41.4641450800989
 20
144.415786637931
 30
0
 40
2.5
 50
270
 51
0
  0
ARC
  8
1
 62
7
 10
4.464145080098888
 20
0.9157866379310065
 30
0
 40
2.5
 50
90
 51
180
  0
ARC
  8
1
 62
7
 10
41.4641450800989
 20
0.9157866379310065
 30
0
 40
2.5
 50
0
 51
90
  0
ARC
  8
1
 62
7
 10
-21.03585491990111
 20
-37.33421336206899
 30
0
 40
50
 50
54.58736188894044
 51
90
  0
ARC
  8
1
 62
7
 10
-307.2118786507009
 20
72.66578663793101
 30
0
 40
35
 50
284.9005966878299
 51
255.0994033121701
  0
ARC
  8
1
 62
3
  6
DIVIDE
 10
-307.2118786507009
 20
72.66578663793101
 30
0
 40
35.49999999999996
 50
15.00000000000002
 51
45.00000000000003
  0
ARC
  8
1
 62
3
  6
DIVIDE
 10
-307.2118786507009
 20
72.66578663793101
 30
0
 40
35.49999999999999
 50
135
 51
165
  0
CIRCLE
  8
1
 62
7
 10
-307.2118786507009
 20
72.66578663793101
 30
0
 40
45.00000000000011
  0
CIRCLE
  8
1
 62
7
 10
-307.2118786507009
 20
72.66578663793101
 30
0
 40
98
  0
CIRCLE
  8
1
 62
7
 10
-307.2118786507009
 20
72.66578663793101
 30
0
 40
101
  0
CIRCLE
  8
1
 62
7
 10
-80.03585491990111
 20
130.165786637931
 30
0
 40
4
  0
CIRCLE
  8
1
 62
7
 10
-307.2118786507009
 20
72.66578663793101
 30
0
 40
46
  0
POLYLINE
  8
1
 62
7
 66
1
  0
VERTEX
  8
1
 10
-0.9358549199011179
 20
165.665786637931
 30
0
 42
-0.03697900467520925
  0
VERTEX
  8
1
 10
-0.38417733003606
 20
164.8086437807882
 30
0
 42
-0.04435933990425603
  0
VERTEX
  8
1
 10
-0.01639227012602153
 20
163.9515009236453
 30
0
 42
-0.05060894846783663
  0
VERTEX
  8
1
 10
0.1675002598289976
 20
163.0943580665024
 30
0
 42
-0.05350721698164659
  0
VERTEX
  8
1
 10
0.1675002598289977
 20
162.2372152093596
 30
0
 42
-0.05172983070189527
  0
VERTEX
  8
1
 10
-0.01639227012602151
 20
161.3800723522167
 30
0
 42
-0.04611170986953133
  0
VERTEX
  8
1
 10
-0.3841773300360603
 20
160.5229294950739
 30
0
 42
-0.03882490217847988
  0
VERTEX
  8
1
 10
-0.9358549199011179
 20
159.665786637931
 30
0
  0
SEQEND
  8
1
  0
TEXT
  8
1
 62
7
 10
-336.630484821759
 20
216.505701136861
 30
0
 40
10
  1
OS 808
 41
0.9
  7
SIMPLEX
 72
1
 11
-309.630484821759
 21
216.505701136861
 31
0
  0
ENDSEC
  0
EOF
