  0
SECTION
  2
HEADER
  9
$ACADVER
  1
AC1009
  9
$INSBASE
 10
0
 20
0
  9
$EXTMIN
 10
-450.6879118835107
 20
-165.0078619543715
  9
$EXTMAX
 10
664.9534263383049
 20
308.079731256201
  9
$LIMMIN
 10
-450.6879118835107
 20
-165.0078619543715
  9
$LIMMAX
 10
664.9534263383049
 20
308.079731256201
  9
$VIEWCTR
 10
10
 20
10
  9
$VIEWSIZE
 40
10
  9
$SNAPMODE
 70
0
  9
$SNAPUNIT
 10
1
 20
1
  9
$SNAPBASE
 10
0
 20
0
  9
$SNAPANG
 50
0
  9
$SNAPSTYLE
 70
0
  9
$SNAPISOPAIR
 70
0
  9
$GRIDMODE
 70
0
  9
$GRIDUNIT
 10
0
 20
0
  9
$ORTHOMODE
 70
0
  9
$REGENMODE
 70
1
  9
$FILLMODE
 70
1
  9
$QTEXTMODE
 70
0
  9
$DRAGMODE
 70
2
  9
$LTSCALE
 40
1
  9
$OSMODE
 70
0
  9
$ATTMODE
 70
1
  9
$TEXTSIZE
 40
3.5
  9
$TRACEWID
 40
0.5
  9
$TEXTSTYLE
  7
STANDARD
  9
$CLAYER
  8
0
  9
$CELTYPE
  6
BYLAYER
  9
$CECOLOR
 62
256
  9
$DIMSCALE
 40
1
  9
$DIMASZ
 40
0.18
  9
$DIMEXO
 40
0.0625
  9
$DIMDLI
 40
0.38
  9
$DIMRND
 40
0
  9
$DIMDLE
 40
0
  9
$DIMEXE
 40
0.18
  9
$DIMTP
 40
0
  9
$DIMTM
 40
0
  9
$DIMTXT
 40
0.18
  9
$DIMCEN
 40
0.09
  9
$DIMTSZ
 40
0
  9
$DIMTOL
 70
0
  9
$DIMLIM
 70
0
  9
$DIMTIH
 70
1
  9
$DIMTOH
 70
1
  9
$DIMSE1
 70
0
  9
$DIMSE2
 70
0
  9
$DIMTAD
 70
0
  9
$DIMZIN
 70
0
  9
$DIMBLK
  1

  9
$DIMASO
 70
1
  9
$DIMSHO
 70
1
  9
$DIMPOST
  1

  9
$DIMAPOST
  1

  9
$DIMALT
 70
0
  9
$DIMALTD
 70
2
  9
$DIMALTF
 40
25.4
  9
$DIMLFAC
 40
1
  9
$DIMTOFL
 70
0
  9
$DIMTVP
 40
0
  9
$DIMTIX
 70
0
  9
$DIMSOXD
 70
0
  9
$DIMSAH
 70
0
  9
$DIMBLK1
  1

  9
$DIMBLK2
  1

  9
$DIMSTYLE
  2
*UNNAMED
  9
$DIMCLRD
 70
0
  9
$DIMCLRE
 70
0
  9
$DIMCLRT
 70
0
  9
$DIMTFAC
 40
1
  9
$DIMGAP
 40
0.09
  9
$LUNITS
 70
2
  9
$LUPREC
 70
4
  9
$AXISMODE
 70
0
  9
$AXISUNIT
 10
0
 20
0
  9
$SKETCHINC
 40
0.1
  9
$FILLETRAD
 40
2
  9
$AUNITS
 70
0
  9
$AUPREC
 70
0
  9
$MENU
  1
ACAD
  9
$ELEVATION
 40
0
  9
$THICKNESS
 40
0
  9
$VIEWDIR
 10
0
 20
0
 30
1
  9
$LIMCHECK
 70
0
  9
$BLIPMODE
 70
1
  9
$CHAMFERA
 40
0
  9
$CHAMFERB
 40
0
  9
$FASTZOOM
 70
1
  9
$SKPOLY
 70
0
  9
$ANGBASE
 50
0
  9
$ANGDIR
 70
0
  9
$PDMODE
 70
0
  9
$PDSIZE
 40
0
  9
$PLINEWID
 40
0
  9
$COORDS
 70
2
  0
ENDSEC
  0
SECTION
  2
TABLES
  0
TABLE
  2
DIMSTYLE
 70
0
  0
ENDTAB
  0
TABLE
  2
LTYPE
 70
9
  0
LTYPE
  2
CONTINUOUS
 70
64
  3
Solid line
 72
65
 73
0
 40
0
  0
LTYPE
  2
BORDER
 70
64
  3
__ __ . __ __ .
 72
65
 73
6
 40
51.37821952337309
 49
14.67949129239231
 49
-7.339745646196156
 49
14.67949129239231
 49
-7.339745646196156
 49
0
 49
-7.339745646196156
  0
LTYPE
  2
CENTER
 70
64
  3
____ _ ____ _
 72
65
 73
4
 40
58.71796516956925
 49
36.69872823098078
 49
-7.339745646196156
 49
7.339745646196156
 49
-7.339745646196156
  0
LTYPE
  2
DASHDOT
 70
64
  3
__ . __ . __ .
 72
65
 73
4
 40
29.35898258478462
 49
14.67949129239231
 49
-7.339745646196156
 49
0
 49
-7.339745646196156
  0
LTYPE
  2
DASHED
 70
64
  3
__ __ __ __ __
 72
65
 73
2
 40
22.01923693858847
 49
14.67949129239231
 49
-7.339745646196156
  0
LTYPE
  2
DIVIDE
 70
64
  3
__ . . __ . . 
 72
65
 73
6
 40
36.69872823098078
 49
14.67949129239231
 49
-7.339745646196156
 49
0
 49
-7.339745646196156
 49
0
 49
-7.339745646196156
  0
LTYPE
  2
DOT
 70
64
  3
..............
 72
65
 73
4
 40
14.67949129239231
 49
0
 49
-7.339745646196156
 49
0
 49
-7.339745646196156
  0
LTYPE
  2
HIDDEN
 70
64
  3
_ _ _ _ _ _ _
 72
65
 73
2
 40
11.00961846929423
 49
7.339745646196156
 49
-3.669872823098078
  0
LTYPE
  2
PHANTOM
 70
64
  3
_____ _ _ _____ _ _ 
 72
65
 73
6
 40
73.39745646196155
 49
36.69872823098078
 49
-7.339745646196156
 49
7.339745646196156
 49
-7.339745646196156
 49
7.339745646196156
 49
-7.339745646196156
  0
ENDTAB
  0
TABLE
  2
LAYER
 70
3
  0
LAYER
  2
1
 70
0
 62
7
  6
CONTINUOUS
  0
LAYER
  2
0
 70
0
 62
7
  6
CONTINUOUS
  0
ENDTAB
  0
TABLE
  2
STYLE
 70
4
  0
STYLE
  2
STANDARD
 70
0
 40
0
 41
1
 50
0
 71
0
 42
3.5
  3
txt
  4

  0
STYLE
  2
SIMPLEX
 70
0
 40
0
 41
1
 50
0
 71
0
 42
3.5
  3
simplex
  4

  0
STYLE
  2
COMPLEX
 70
0
 40
0
 41
1
 50
0
 71
0
 42
3.5
  3
complex
  4

  0
STYLE
  2
ITALIC
 70
0
 40
0
 41
1
 50
0
 71
0
 42
3.5
  3
italic
  4

  0
ENDTAB
  0
TABLE
  2
VIEW
 70
0
  0
ENDTAB
  0
ENDSEC
  0
SECTION
  2
BLOCKS
  0
ENDSEC
  0
SECTION
  2
ENTITIES
  0
LINE
  8
1
 62
3
  6
DASHED
 10
149.362900080556
 20
46.49213804562851
 30
0
 11
131.362900080556
 21
46.49213804562851
 31
0
  0
LINE
  8
1
 62
7
 10
482.3289428760506
 20
32.99213804562851
 30
0
 11
480.3534263383048
 21
32.99213804562851
 31
0
  0
LINE
  8
1
 62
3
 10
498.9534263383048
 20
35.59213804562851
 30
0
 11
495.9534263383048
 21
35.59213804562851
 31
0
  0
LINE
  8
1
 62
3
 10
495.9534263383048
 20
40.39213804562851
 30
0
 11
498.9534263383048
 21
40.39213804562851
 31
0
  0
LINE
  8
1
 62
7
 10
498.9534263383048
 20
34.99213804562851
 30
0
 11
495.9534263383048
 21
34.99213804562851
 31
0
  0
LINE
  8
1
 62
7
 10
495.9534263383048
 20
40.99213804562851
 30
0
 11
498.9534263383048
 21
40.99213804562851
 31
0
  0
LINE
  8
1
 62
7
 10
449.0840916823818
 20
117.8580576430229
 30
0
 11
380.677929321124
 21
189.2166447758708
 31
0
  0
LINE
  8
1
 62
7
 10
539.5090742623191
 20
38.93974116033553
 30
0
 11
536.448729108945
 21
41.50767564980697
 31
0
  0
LINE
  8
1
 62
7
 10
539.6626671573778
 20
45.33789786540183
 30
0
 11
542.7230123107519
 21
42.76996337593039
 31
0
  0
LINE
  8
1
 62
7
 10
554.4509247738484
 20
74.99213804562845
 30
0
 11
550.4559279027611
 21
74.99213804562845
 31
0
  0
LINE
  8
1
 62
7
 10
550.4559279027611
 20
79.99213804562845
 30
0
 11
554.4509247738484
 21
79.99213804562845
 31
0
  0
LINE
  8
1
 62
7
 10
542.723012310752
 20
112.2143127153265
 30
0
 11
539.6626671573778
 21
109.646378225855
 31
0
  0
LINE
  8
1
 62
7
 10
536.4487291089451
 20
113.47660044145
 30
0
 11
539.5090742623193
 21
116.0445349309214
 31
0
  0
LINE
  8
1
 62
7
 10
458.4581235676645
 20
41.50767564980697
 30
0
 11
455.3977784142904
 21
38.93974116033553
 31
0
  0
LINE
  8
1
 62
7
 10
452.1838403658577
 20
42.76996337593039
 30
0
 11
455.2441855192318
 21
45.33789786540183
 31
0
  0
LINE
  8
1
 62
7
 10
440.4559279027611
 20
79.99213804562845
 30
0
 11
444.4509247738484
 21
79.99213804562845
 31
0
  0
LINE
  8
1
 62
7
 10
444.4509247738484
 20
74.99213804562845
 30
0
 11
440.4559279027611
 21
74.99213804562845
 31
0
  0
LINE
  8
1
 62
7
 10
455.2441855192318
 20
109.646378225855
 30
0
 11
452.1838403658576
 21
112.2143127153265
 31
0
  0
LINE
  8
1
 62
7
 10
455.3977784142903
 20
116.0445349309214
 30
0
 11
458.4581235676644
 21
113.47660044145
 31
0
  0
LINE
  8
1
 62
7
 10
498.9534263383048
 20
30.51608031405632
 30
0
 11
498.9534263383048
 21
49.53234548559689
 31
0
  0
LINE
  8
1
 62
7
 10
495.9534263383048
 20
49.53234548559689
 30
0
 11
495.9534263383048
 21
30.51608031405632
 31
0
  0
LINE
  8
1
 62
3
  6
DASHED
 10
53.86290008055602
 20
-80.50786195437149
 30
0
 11
44.86290008055602
 21
-80.50786195437149
 31
0
  0
LINE
  8
1
 62
3
  6
DASHED
 10
53.86290008055602
 20
-83.25786195437149
 30
0
 11
64.86290008055602
 21
-83.25786195437149
 31
0
  0
LINE
  8
1
 62
3
  6
DASHED
 10
53.86290008055602
 20
-66.75786195437149
 30
0
 11
53.86290008055602
 21
-83.25786195437149
 31
0
  0
LINE
  8
1
 62
3
  6
DASHED
 10
64.86290008055602
 20
-66.75786195437149
 30
0
 11
53.86290008055602
 21
-66.75786195437149
 31
0
  0
LINE
  8
1
 62
3
  6
DASHDOT
 10
-273.1879118835107
 20
77.49213804562851
 30
0
 11
-293.1879118835107
 21
77.49213804562851
 31
0
  0
LINE
  8
1
 62
7
 10
614.2289233554855
 20
189.216644775871
 30
0
 11
545.8227609942279
 21
117.858057643023
 31
0
  0
LINE
  8
1
 62
7
 10
527.9883453280288
 20
116.4372246781156
 30
0
 11
609.1779330685473
 21
194.2676350628092
 31
0
  0
LINE
  8
1
 62
3
  6
DASHDOT
 10
-430.5466973190609
 20
138.5301455078603
 30
0
 11
-417.6123838639029
 21
133.1725774547491
 31
0
  0
LINE
  8
1
 62
3
  6
DASHDOT
 10
-303.1879118835107
 20
-64.11318105397569
 30
0
 11
-303.1879118835107
 21
-84.02934307090699
 31
0
  0
LINE
  8
1
 62
3
  6
DASHDOT
 10
-263.1879118835107
 20
237.174974373037
 30
0
 11
-263.1879118835107
 21
220.174974373037
 31
0
  0
LINE
  8
1
 62
7
 10
-311.6879118835107
 20
71.49213804562851
 30
0
 11
-307.4572340825339
 21
71.49213804562851
 31
0
  0
LINE
  8
1
 62
7
 10
-311.6879118835107
 20
83.49213804562851
 30
0
 11
-311.6879118835107
 21
71.49213804562851
 31
0
  0
LINE
  8
1
 62
7
 10
-307.4572340825339
 20
83.49213804562851
 30
0
 11
-311.6879118835107
 21
83.49213804562851
 31
0
  0
LINE
  8
1
 62
3
  6
DASHDOT
 10
-283.1879118835107
 20
87.49213804562851
 30
0
 11
-283.1879118835107
 21
67.49213804562851
 31
0
  0
LINE
  8
1
 62
7
 10
480.3534263383048
 20
32.99213804562851
 30
0
 11
480.3534263383048
 21
33.71326186087475
 31
0
  0
LINE
  8
1
 62
7
 10
479.9534263383048
 20
33.68495836865607
 30
0
 11
479.9534263383048
 21
33.8716153527492
 31
0
  0
LINE
  8
1
 62
7
 10
480.3534263383048
 20
32.99213804562851
 30
0
 11
479.9534263383048
 21
33.68495836865607
 31
0
  0
LINE
  8
1
 62
7
 10
385.728919608062
 20
194.2676350628091
 30
0
 11
466.9185073485808
 21
116.4372246781156
 31
0
  0
LINE
  8
1
 62
3
  6
DASHED
 10
35.86290008055602
 20
102.4921380456285
 30
0
 11
111.862900080556
 21
102.4921380456285
 31
0
  0
LINE
  8
1
 62
3
  6
DASHED
 10
111.862900080556
 20
102.4921380456285
 30
0
 11
111.862900080556
 21
52.49213804562851
 31
0
  0
LINE
  8
1
 62
3
  6
DASHED
 10
111.862900080556
 20
99.99213804562851
 30
0
 11
178.862900080556
 21
99.99213804562851
 31
0
  0
LINE
  8
1
 62
3
  6
DASHDOT
 10
42.73107448180309
 20
229.9921380456285
 30
0
 11
67.39948724297722
 21
229.9921380456285
 31
0
  0
LINE
  8
1
 62
3
  6
DASHED
 10
44.86290008055602
 20
235.4921380456285
 30
0
 11
64.86290008055602
 21
235.4921380456285
 31
0
  0
LINE
  8
1
 62
3
  6
DASHED
 10
64.86290008055602
 20
224.4921380456285
 30
0
 11
44.86290008055602
 21
224.4921380456285
 31
0
  0
LINE
  8
1
 62
3
  6
DASHED
 10
111.862900080556
 20
52.49213804562851
 30
0
 11
35.86290008055602
 21
52.49213804562851
 31
0
  0
LINE
  8
1
 62
3
  6
DASHED
 10
178.862900080556
 20
54.99213804562851
 30
0
 11
111.862900080556
 21
54.99213804562851
 31
0
  0
LINE
  8
1
 62
3
  6
DASHED
 10
134.362900080556
 20
48.99213804562851
 30
0
 11
134.362900080556
 21
46.49213804562851
 31
0
  0
LINE
  8
1
 62
3
  6
DASHED
 10
146.362900080556
 20
48.99213804562851
 30
0
 11
134.362900080556
 21
48.99213804562851
 31
0
  0
LINE
  8
1
 62
3
  6
DASHED
 10
146.362900080556
 20
46.49213804562851
 30
0
 11
146.362900080556
 21
48.99213804562851
 31
0
  0
LINE
  8
1
 62
3
  6
DASHED
 10
136.362900080556
 20
54.99213804562851
 30
0
 11
136.362900080556
 21
48.99213804562851
 31
0
  0
LINE
  8
1
 62
3
  6
DASHED
 10
144.362900080556
 20
54.99213804562851
 30
0
 11
144.362900080556
 21
48.99213804562851
 31
0
  0
LINE
  8
1
 62
3
  6
DASHDOT
 10
67.39948724297722
 20
-75.00786195437149
 30
0
 11
42.73107448180309
 21
-75.00786195437149
 31
0
  0
LINE
  8
1
 62
3
  6
DASHED
 10
44.86290008055602
 20
-69.50786195437149
 30
0
 11
53.86290008055602
 21
-69.50786195437149
 31
0
  0
LINE
  8
1
 62
3
  6
DASHED
 10
33.86290008055602
 20
83.49213804562851
 30
0
 11
100.257348805092
 21
83.49213804562851
 31
0
  0
LINE
  8
1
 62
3
  6
DASHED
 10
33.86290008055602
 20
71.49213804562851
 30
0
 11
100.257348805092
 21
71.49213804562851
 31
0
  0
LINE
  8
1
 62
3
  6
DASHED
 10
109.362900080556
 20
-115.0078619543715
 30
0
 11
117.362900080556
 21
-115.0078619543715
 31
0
  0
LINE
  8
1
 62
3
  6
DASHDOT
 10
120.348947669919
 20
-127.5078619543715
 30
0
 11
106.362900080556
 21
-127.5078619543715
 31
0
  0
LINE
  8
1
 62
3
  6
DASHED
 10
109.362900080556
 20
-140.0078619543715
 30
0
 11
117.362900080556
 21
-140.0078619543715
 31
0
  0
LINE
  8
1
 62
7
 10
564.9534263383049
 20
-100.0078619543715
 30
0
 11
429.9534263383048
 21
-100.0078619543715
 31
0
  0
LINE
  8
1
 62
7
 10
404.9534263383048
 20
-125.0078619543715
 30
0
 11
404.9534263383048
 21
-155.0078619543715
 31
0
  0
LINE
  8
1
 62
7
 10
394.9534263383048
 20
-165.0078619543715
 30
0
 11
339.9534263383048
 21
-165.0078619543715
 31
0
  0
LINE
  8
1
 62
7
 10
329.9534263383048
 20
-155.0078619543715
 30
0
 11
329.9534263383048
 21
77.49213804562851
 31
0
  0
LINE
  8
1
 62
3
  6
DASHDOT
 10
382.9534263383048
 20
-127.5078619543715
 30
0
 11
351.9534263383048
 21
-127.5078619543715
 31
0
  0
LINE
  8
1
 62
3
  6
DASHDOT
 10
367.4534263383048
 20
-112.0078619543715
 30
0
 11
367.4534263383048
 21
-143.0078619543715
 31
0
  0
LINE
  8
1
 62
7
 10
589.9534263383049
 20
-155.0078619543715
 30
0
 11
589.9534263383049
 21
-125.0078619543715
 31
0
  0
LINE
  8
1
 62
7
 10
654.9534263383049
 20
-165.0078619543715
 30
0
 11
599.9534263383049
 21
-165.0078619543715
 31
0
  0
LINE
  8
1
 62
7
 10
664.9534263383049
 20
77.49213804562851
 30
0
 11
664.9534263383049
 21
-155.0078619543715
 31
0
  0
LINE
  8
1
 62
3
  6
DASHDOT
 10
642.9534263383049
 20
-127.5078619543715
 30
0
 11
611.9534263383049
 21
-127.5078619543715
 31
0
  0
LINE
  8
1
 62
3
  6
DASHDOT
 10
627.4534263383049
 20
-143.0078619543715
 30
0
 11
627.4534263383049
 21
-112.0078619543715
 31
0
  0
LINE
  8
1
 62
7
 10
467.2424086830374
 20
41.48804921903655
 30
0
 11
458.8215242090478
 21
31.45242989433847
 31
0
  0
LINE
  8
1
 62
7
 10
449.5713944159635
 20
117.6699333716838
 30
0
 11
448.2680687283998
 21
110.2784060947626
 31
0
  0
LINE
  8
1
 62
7
 10
448.2680687283998
 20
110.2784060947626
 30
0
 11
454.0176562791974
 21
105.453929301467
 31
0
  0
LINE
  8
1
 62
7
 10
454.0176562791974
 20
105.453929301467
 30
0
 11
461.0705695175585
 21
108.0209797850926
 31
0
  0
LINE
  8
1
 62
7
 10
461.0705695175585
 20
108.0209797850926
 30
0
 11
462.3738952051222
 21
115.4125070620138
 31
0
  0
LINE
  8
1
 62
7
 10
462.3738952051222
 20
115.4125070620138
 30
0
 11
456.6243076543249
 21
120.2369838553094
 31
0
  0
LINE
  8
1
 62
7
 10
456.6243076543249
 20
120.2369838553094
 30
0
 11
449.5713944159635
 21
117.6699333716838
 31
0
  0
LINE
  8
1
 62
7
 10
434.9478728388397
 20
77.49213804562851
 30
0
 11
438.7006495885721
 21
70.99213804562851
 31
0
  0
LINE
  8
1
 62
7
 10
438.7006495885721
 20
70.99213804562851
 30
0
 11
446.2062030880375
 21
70.99213804562851
 31
0
  0
LINE
  8
1
 62
7
 10
446.2062030880375
 20
70.99213804562851
 30
0
 11
449.9589798377699
 21
77.49213804562851
 31
0
  0
LINE
  8
1
 62
7
 10
449.9589798377699
 20
77.49213804562851
 30
0
 11
446.2062030880375
 21
83.99213804562851
 31
0
  0
LINE
  8
1
 62
7
 10
446.2062030880375
 20
83.99213804562851
 30
0
 11
438.7006495885721
 21
83.99213804562851
 31
0
  0
LINE
  8
1
 62
7
 10
438.7006495885721
 20
83.99213804562851
 30
0
 11
434.9478728388397
 21
77.49213804562851
 31
0
  0
LINE
  8
1
 62
7
 10
449.5713944159636
 20
37.31434271957323
 30
0
 11
456.6243076543249
 21
34.74729223594767
 31
0
  0
LINE
  8
1
 62
7
 10
456.6243076543249
 20
34.74729223594767
 30
0
 11
462.3738952051222
 21
39.57176902924328
 31
0
  0
LINE
  8
1
 62
7
 10
462.3738952051222
 20
39.57176902924328
 30
0
 11
461.0705695175585
 21
46.96329630616447
 31
0
  0
LINE
  8
1
 62
7
 10
461.0705695175585
 20
46.96329630616447
 30
0
 11
454.0176562791974
 21
49.53034678979002
 31
0
  0
LINE
  8
1
 62
7
 10
454.0176562791974
 20
49.53034678979002
 30
0
 11
448.2680687283998
 21
44.70586999649441
 31
0
  0
LINE
  8
1
 62
7
 10
448.2680687283998
 20
44.70586999649441
 30
0
 11
449.5713944159636
 21
37.31434271957323
 31
0
  0
LINE
  8
1
 62
7
 10
454.7056130569448
 20
31.21444947260249
 30
0
 11
458.8215242090478
 21
31.45242989433847
 31
0
  0
LINE
  8
1
 62
7
 10
454.7056130569448
 20
123.7698266186545
 30
0
 11
458.69559424464
 21
123.6819236844167
 31
0
  0
LINE
  8
1
 62
7
 10
458.69559424464
 20
123.6819236844167
 30
0
 11
467.2424086830374
 21
113.4962268722205
 31
0
  0
LINE
  8
1
 62
7
 10
546.6387839482097
 20
110.2784060947626
 30
0
 11
545.3354582606461
 21
117.6699333716838
 31
0
  0
LINE
  8
1
 62
7
 10
540.8891963974122
 20
105.453929301467
 30
0
 11
546.6387839482097
 21
110.2784060947626
 31
0
  0
LINE
  8
1
 62
7
 10
533.8362831590512
 20
108.0209797850926
 30
0
 11
540.8891963974122
 21
105.453929301467
 31
0
  0
LINE
  8
1
 62
7
 10
532.5329574714874
 20
115.4125070620138
 30
0
 11
533.8362831590512
 21
108.0209797850926
 31
0
  0
LINE
  8
1
 62
7
 10
538.2825450222848
 20
120.2369838553094
 30
0
 11
532.5329574714874
 21
115.4125070620138
 31
0
  0
LINE
  8
1
 62
7
 10
545.3354582606461
 20
117.6699333716838
 30
0
 11
538.2825450222848
 21
120.2369838553094
 31
0
  0
LINE
  8
1
 62
7
 10
536.2112584319696
 20
123.6819236844167
 30
0
 11
540.2012396196648
 21
123.7698266186545
 31
0
  0
LINE
  8
1
 62
7
 10
527.6644439935722
 20
113.4962268722205
 30
0
 11
536.2112584319696
 21
123.6819236844167
 31
0
  0
LINE
  8
1
 62
7
 10
556.2062030880375
 20
70.99213804562851
 30
0
 11
559.9589798377699
 21
77.49213804562851
 31
0
  0
LINE
  8
1
 62
7
 10
548.7006495885721
 20
70.99213804562851
 30
0
 11
556.2062030880375
 21
70.99213804562851
 31
0
  0
LINE
  8
1
 62
7
 10
544.9478728388397
 20
77.49213804562851
 30
0
 11
548.7006495885721
 21
70.99213804562851
 31
0
  0
LINE
  8
1
 62
7
 10
548.7006495885721
 20
83.99213804562851
 30
0
 11
544.9478728388397
 21
77.49213804562851
 31
0
  0
LINE
  8
1
 62
7
 10
556.2062030880375
 20
83.99213804562851
 30
0
 11
548.7006495885721
 21
83.99213804562851
 31
0
  0
LINE
  8
1
 62
7
 10
559.9589798377699
 20
77.49213804562851
 30
0
 11
556.2062030880375
 21
83.99213804562851
 31
0
  0
LINE
  8
1
 62
7
 10
536.0853284675619
 20
31.45242989433847
 30
0
 11
527.6644439935722
 21
41.48804921903655
 31
0
  0
LINE
  8
1
 62
7
 10
538.2825450222848
 20
34.74729223594767
 30
0
 11
545.335458260646
 21
37.31434271957323
 31
0
  0
LINE
  8
1
 62
7
 10
532.5329574714874
 20
39.57176902924328
 30
0
 11
538.2825450222848
 21
34.74729223594767
 31
0
  0
LINE
  8
1
 62
7
 10
533.8362831590512
 20
46.96329630616447
 30
0
 11
532.5329574714874
 21
39.57176902924328
 31
0
  0
LINE
  8
1
 62
7
 10
540.8891963974122
 20
49.53034678979002
 30
0
 11
533.8362831590512
 21
46.96329630616447
 31
0
  0
LINE
  8
1
 62
7
 10
546.6387839482097
 20
44.70586999649441
 30
0
 11
540.8891963974122
 21
49.53034678979002
 31
0
  0
LINE
  8
1
 62
7
 10
545.335458260646
 20
37.31434271957323
 30
0
 11
546.6387839482097
 21
44.70586999649441
 31
0
  0
LINE
  8
1
 62
7
 10
536.0853284675619
 20
31.45242989433847
 30
0
 11
540.2012396196648
 21
31.21444947260249
 31
0
  0
LINE
  8
1
 62
7
 10
466.9185073485808
 20
38.5470514131414
 30
0
 11
385.7289196080627
 21
-39.2833589715525
 31
0
  0
LINE
  8
1
 62
7
 10
542.7217199296158
 20
232.6361476078944
 30
0
 11
522.3851380484571
 21
149.7770538004844
 31
0
  0
LINE
  8
1
 62
7
 10
342.3094167760388
 20
122.7604316369393
 30
0
 11
438.3108471918794
 21
99.19825082311161
 31
0
  0
LINE
  8
1
 62
7
 10
340.4606260167512
 20
39.12362550054286
 30
0
 11
435.3813939634271
 21
66.71889355512619
 31
0
  0
LINE
  8
1
 62
7
 10
380.6779293211246
 20
-34.23236868461447
 30
0
 11
449.0840916823818
 21
37.12621844823406
 31
0
  0
LINE
  8
1
 62
7
 10
609.1779330685481
 20
-39.28335897155137
 30
0
 11
527.9883453280288
 21
38.54705141314137
 31
0
  0
LINE
  8
1
 62
7
 10
652.5974359005706
 20
32.22384445431732
 30
0
 11
556.5960054847302
 21
55.78602526814539
 31
0
  0
LINE
  8
1
 62
7
 10
654.4462266598584
 20
115.8606505907136
 30
0
 11
559.5254587131825
 21
88.26538253613049
 31
0
  0
LINE
  8
1
 62
7
 10
556.59600548473
 20
99.19825082311191
 30
0
 11
652.5974359005706
 21
122.7604316369396
 31
0
  0
LINE
  8
1
 62
7
 10
559.5254587131825
 20
66.71889355512658
 30
0
 11
654.4462266598586
 21
39.12362550054326
 31
0
  0
LINE
  8
1
 62
7
 10
545.8227609942278
 20
37.12621844823395
 30
0
 11
614.2289233554862
 21
-34.23236868461316
 31
0
  0
LINE
  8
1
 62
7
 10
438.3108471918794
 20
55.7860252681455
 30
0
 11
342.3094167760391
 21
32.22384445431698
 31
0
  0
LINE
  8
1
 62
7
 10
435.3813939634271
 20
88.26538253613052
 30
0
 11
340.4606260167511
 21
115.8606505907134
 31
0
  0
LINE
  8
1
 62
7
 10
514.0673556689712
 20
159.6546543855939
 30
0
 11
535.8219388833899
 21
234.4849383671822
 31
0
  0
LINE
  8
1
 62
7
 10
511.1866229289942
 20
157.4921380456285
 30
0
 11
483.7202297476154
 21
157.4921380456285
 31
0
  0
LINE
  8
1
 62
7
 10
519.4716084841061
 20
147.4921380456285
 30
0
 11
517.4534263383048
 21
147.4921380456285
 31
0
  0
LINE
  8
1
 62
7
 10
514.4534263383048
 20
144.4921380456285
 30
0
 11
514.4534263383048
 21
123.3178949951869
 31
0
  0
LINE
  8
1
 62
7
 10
472.5217146281526
 20
149.7770538004844
 30
0
 11
452.1851327469935
 21
232.6361476078943
 31
0
  0
LINE
  8
1
 62
7
 10
459.0849137932195
 20
234.4849383671822
 30
0
 11
480.8394970076383
 21
159.6546543855939
 31
0
  0
LINE
  8
1
 62
7
 10
477.4534263383047
 20
147.4921380456285
 30
0
 11
475.4352441925034
 21
147.4921380456285
 31
0
  0
LINE
  8
1
 62
7
 10
480.4534263383047
 20
123.3178949951869
 30
0
 11
480.4534263383047
 21
144.4921380456285
 31
0
  0
LINE
  8
1
 62
7
 10
475.4352441925034
 20
7.492138045628522
 30
0
 11
477.4534263383047
 21
7.492138045628522
 31
0
  0
LINE
  8
1
 62
7
 10
480.4534263383047
 20
10.49213804562852
 30
0
 11
480.4534263383047
 21
31.66638109607011
 31
0
  0
LINE
  8
1
 62
7
 10
452.1851327469944
 20
-77.65187151663753
 30
0
 11
472.5217146281526
 21
5.207222290772663
 31
0
  0
LINE
  8
1
 62
7
 10
480.8394970076383
 20
-4.670378294336885
 30
0
 11
459.0849137932204
 21
-79.50066227592527
 31
0
  0
LINE
  8
1
 62
7
 10
483.7202297476154
 20
-2.507861954371478
 30
0
 11
511.1866229289942
 21
-2.507861954371478
 31
0
  0
LINE
  8
1
 62
7
 10
535.8219388833909
 20
-79.50066227592487
 30
0
 11
514.0673556689712
 21
-4.670378294336885
 31
0
  0
LINE
  8
1
 62
7
 10
522.3851380484571
 20
5.207222290772663
 30
0
 11
542.7217199296168
 21
-77.65187151663702
 31
0
  0
LINE
  8
1
 62
7
 10
517.4534263383048
 20
7.492138045628522
 30
0
 11
519.4716084841061
 21
7.492138045628522
 31
0
  0
LINE
  8
1
 62
7
 10
514.4534263383048
 20
31.66638109607011
 30
0
 11
514.4534263383048
 21
10.49213804562852
 31
0
  0
LINE
  8
1
 62
3
  6
DASHDOT
 10
507.4534263383048
 20
77.49213804562851
 30
0
 11
487.4534263383048
 21
77.49213804562851
 31
0
  0
LINE
  8
1
 62
3
  6
DASHDOT
 10
497.4534263383048
 20
87.49213804562851
 30
0
 11
497.4534263383048
 21
67.49213804562851
 31
0
  0
LINE
  8
1
 62
7
 10
162.862900080556
 20
119.4921380456285
 30
0
 11
159.862900080556
 21
119.4921380456285
 31
0
  0
LINE
  8
1
 62
7
 10
162.862900080556
 20
140.4921380456285
 30
0
 11
159.862900080556
 21
140.4921380456285
 31
0
  0
LINE
  8
1
 62
7
 10
172.362900080556
 20
129.2921380456285
 30
0
 11
171.562900080556
 21
128.4921380456285
 31
0
  0
LINE
  8
1
 62
7
 10
172.362900080556
 20
135.6921380456285
 30
0
 11
171.562900080556
 21
136.4921380456285
 31
0
  0
LINE
  8
1
 62
3
 10
172.362900080556
 20
129.2921380456285
 30
0
 11
167.862900080556
 21
129.2921380456285
 31
0
  0
LINE
  8
1
 62
3
 10
172.362900080556
 20
135.6921380456285
 30
0
 11
167.862900080556
 21
135.6921380456285
 31
0
  0
LINE
  8
1
 62
3
  6
DASHDOT
 10
188.862900080556
 20
77.49213804562851
 30
0
 11
178.862900080556
 21
77.49213804562851
 31
0
  0
LINE
  8
1
 62
7
 10
33.86290008055599
 20
114.9921380456285
 30
0
 11
36.36290008055599
 21
116.4355137186026
 31
0
  0
LINE
  8
1
 62
7
 10
36.36290008055599
 20
151.4921380456285
 30
0
 11
40.36290008055599
 21
196.9921380456285
 31
0
  0
LINE
  8
1
 62
7
 10
40.36290008055599
 20
196.9921380456285
 30
0
 11
44.86290008055599
 21
196.9921380456285
 31
0
  0
LINE
  8
1
 62
7
 10
44.86290008055599
 20
-87.50786195437149
 30
0
 11
44.86290008055599
 21
242.4921380456285
 31
0
  0
LINE
  8
1
 62
7
 10
44.86290008055599
 20
242.4921380456285
 30
0
 11
64.86290008055596
 21
242.4921380456285
 31
0
  0
LINE
  8
1
 62
7
 10
64.86290008055596
 20
242.4921380456285
 30
0
 11
64.86290008055596
 21
-87.50786195437149
 31
0
  0
LINE
  8
1
 62
7
 10
67.56438892349297
 20
217.2219891613348
 30
0
 11
84.86290008055596
 21
215.4921380456285
 31
0
  0
LINE
  8
1
 62
7
 10
84.86290008055596
 20
215.4921380456285
 30
0
 11
84.86290008055596
 21
-60.50786195437148
 31
0
  0
LINE
  8
1
 62
7
 10
101.662900080556
 20
244.9921380456285
 30
0
 11
106.862900080556
 21
244.9921380456285
 31
0
  0
LINE
  8
1
 62
7
 10
90.16290008055603
 20
196.4921380456285
 30
0
 11
90.16290008055603
 21
-41.50786195437148
 31
0
  0
LINE
  8
1
 62
7
 10
106.862900080556
 20
244.9921380456285
 30
0
 11
106.862900080556
 21
-90.00786195437149
 31
0
  0
LINE
  8
1
 62
7
 10
109.362900080556
 20
244.9921380456285
 30
0
 11
117.362900080556
 21
244.9921380456285
 31
0
  0
LINE
  8
1
 62
7
 10
119.862900080556
 20
244.9921380456285
 30
0
 11
119.862900080556
 21
-90.00786195437149
 31
0
  0
LINE
  8
1
 62
7
 10
119.862900080556
 20
244.9921380456285
 30
0
 11
123.9638859319783
 21
244.9921380456285
 31
0
  0
LINE
  8
1
 62
7
 10
151.362900080556
 20
142.4921380456285
 30
0
 11
159.862900080556
 21
142.4921380456285
 31
0
  0
LINE
  8
1
 62
7
 10
123.9962334138893
 20
242.4921380456285
 30
0
 11
126.5425322186945
 21
242.4921380456285
 31
0
  0
LINE
  8
1
 62
7
 10
128.381685977065
 20
241.2779582878414
 30
0
 11
151.362900080556
 21
187.4921380456285
 31
0
  0
LINE
  8
1
 62
7
 10
178.862900080556
 20
124.4921380456285
 30
0
 11
163.012900080556
 21
124.4921380456285
 31
0
  0
LINE
  8
1
 62
7
 10
162.862900080556
 20
140.4921380456285
 30
0
 11
162.862900080556
 21
119.4921380456285
 31
0
  0
LINE
  8
1
 62
7
 10
163.012900080556
 20
118.9921380456285
 30
0
 11
159.862900080556
 21
118.9921380456285
 31
0
  0
LINE
  8
1
 62
7
 10
33.86290008055599
 20
39.99213804562851
 30
0
 11
33.86290008055599
 21
114.9921380456285
 31
0
  0
LINE
  8
1
 62
7
 10
36.36290008055599
 20
38.54876237265444
 30
0
 11
33.86290008055599
 21
39.99213804562851
 31
0
  0
LINE
  8
1
 62
7
 10
36.36290008055599
 20
151.4921380456285
 30
0
 11
36.36290008055599
 21
3.492138045628522
 31
0
  0
LINE
  8
1
 62
7
 10
40.36290008055599
 20
-42.00786195437148
 30
0
 11
36.36290008055599
 21
3.492138045628522
 31
0
  0
LINE
  8
1
 62
7
 10
44.86290008055599
 20
-42.00786195437148
 30
0
 11
40.36290008055599
 21
-42.00786195437148
 31
0
  0
LINE
  8
1
 62
7
 10
64.86290008055596
 20
-87.50786195437149
 30
0
 11
44.86290008055599
 21
-87.50786195437149
 31
0
  0
LINE
  8
1
 62
7
 10
84.86290008055596
 20
-60.50786195437148
 30
0
 11
67.56438892349297
 21
-62.23771307007779
 31
0
  0
LINE
  8
1
 62
7
 10
159.862900080556
 20
142.4921380456285
 30
0
 11
159.862900080556
 21
12.49213804562862
 31
0
  0
LINE
  8
1
 62
7
 10
123.9638859319783
 20
-90.00786195437149
 30
0
 11
119.862900080556
 21
-90.00786195437149
 31
0
  0
LINE
  8
1
 62
7
 10
126.5425322186945
 20
-87.50786195437149
 30
0
 11
123.9962334138893
 21
-87.50786195437149
 31
0
  0
LINE
  8
1
 62
7
 10
151.362900080556
 20
-32.50786195437148
 30
0
 11
128.381685977065
 21
-86.29368219658439
 31
0
  0
LINE
  8
1
 62
7
 10
163.012900080556
 20
30.49213804562852
 30
0
 11
178.862900080556
 21
30.49213804562852
 31
0
  0
LINE
  8
1
 62
7
 10
178.862900080556
 20
124.4921380456285
 30
0
 11
178.862900080556
 21
30.49213804562852
 31
0
  0
LINE
  8
1
 62
7
 10
159.862900080556
 20
35.99213804562851
 30
0
 11
163.012900080556
 21
35.99213804562851
 31
0
  0
LINE
  8
1
 62
7
 10
167.862900080556
 20
138.1171380456285
 30
0
 11
167.862900080556
 21
126.8671380456285
 31
0
  0
LINE
  8
1
 62
7
 10
167.141212244069
 20
139.9921380456285
 30
0
 11
163.5845879170431
 21
139.9921380456285
 31
0
  0
LINE
  8
1
 62
7
 10
167.141212244069
 20
136.2421380456285
 30
0
 11
163.5845879170431
 21
136.2421380456285
 31
0
  0
LINE
  8
1
 62
7
 10
167.141212244069
 20
128.7421380456285
 30
0
 11
163.5845879170431
 21
128.7421380456285
 31
0
  0
LINE
  8
1
 62
7
 10
167.141212244069
 20
124.9921380456285
 30
0
 11
163.5845879170431
 21
124.9921380456285
 31
0
  0
LINE
  8
1
 62
7
 10
167.862900080556
 20
136.4921380456285
 30
0
 11
171.562900080556
 21
136.4921380456285
 31
0
  0
LINE
  8
1
 62
7
 10
172.362900080556
 20
135.6921380456285
 30
0
 11
172.362900080556
 21
129.2921380456285
 31
0
  0
LINE
  8
1
 62
7
 10
171.562900080556
 20
128.4921380456285
 30
0
 11
167.862900080556
 21
128.4921380456285
 31
0
  0
LINE
  8
1
 62
7
 10
172.362900080556
 20
135.6921380456285
 30
0
 11
178.362900080556
 21
135.6921380456285
 31
0
  0
LINE
  8
1
 62
7
 10
178.362900080556
 20
135.6921380456285
 30
0
 11
178.362900080556
 21
129.2921380456285
 31
0
  0
LINE
  8
1
 62
7
 10
178.362900080556
 20
129.2921380456285
 30
0
 11
172.362900080556
 21
129.2921380456285
 31
0
  0
LINE
  8
1
 62
7
 10
172.362900080556
 20
134.4896364811723
 30
0
 11
178.362900080556
 21
134.4896364811723
 31
0
  0
LINE
  8
1
 62
3
 10
172.362900080556
 20
134.4896364811723
 30
0
 11
178.362900080556
 21
130.4946396100847
 31
0
  0
LINE
  8
1
 62
3
 10
178.362900080556
 20
134.4896364811723
 30
0
 11
172.362900080556
 21
130.4946396100847
 31
0
  0
LINE
  8
1
 62
7
 10
172.362900080556
 20
130.4946396100847
 30
0
 11
178.362900080556
 21
130.4946396100847
 31
0
  0
LINE
  8
1
 62
7
 10
163.012900080556
 20
124.4921380456285
 30
0
 11
163.012900080556
 21
30.49213804562852
 31
0
  0
LINE
  8
1
 62
7
 10
151.3629000805561
 20
12.49213804562845
 30
0
 11
159.862900080556
 21
12.49213804562862
 31
0
  0
LINE
  8
1
 62
7
 10
151.362900080556
 20
-32.50786195437148
 30
0
 11
151.362900080556
 21
187.4921380456285
 31
0
  0
LINE
  8
1
 62
7
 10
109.362900080556
 20
244.9921380456285
 30
0
 11
109.362900080556
 21
-165.0078619543715
 31
0
  0
LINE
  8
1
 62
7
 10
117.362900080556
 20
244.9921380456285
 30
0
 11
117.362900080556
 21
-165.0078619543715
 31
0
  0
LINE
  8
1
 62
7
 10
117.362900080556
 20
-165.0078619543715
 30
0
 11
109.362900080556
 21
-165.0078619543715
 31
0
  0
LINE
  8
1
 62
7
 10
84.86290008055596
 20
-41.50786195437149
 30
0
 11
90.79427031235537
 21
-41.50786195437146
 31
0
  0
LINE
  8
1
 62
7
 10
171.562900080556
 20
136.4921380456285
 30
0
 11
171.562900080556
 21
128.4921380456285
 31
0
  0
LINE
  8
1
 62
7
 10
84.86290008055596
 20
196.4921380456285
 30
0
 11
90.79427031235537
 21
196.4921380456285
 31
0
  0
LINE
  8
1
 62
7
 10
97.91983241713103
 20
240.7719668890822
 30
0
 11
91.78443391226847
 21
197.3522236239017
 31
0
  0
LINE
  8
1
 62
7
 10
99.90015961695724
 20
242.4921380456285
 30
0
 11
101.662900080556
 21
242.4921380456285
 31
0
  0
LINE
  8
1
 62
7
 10
91.78443391226847
 20
-42.36794753264462
 30
0
 11
97.91983241713103
 21
-85.78769079782515
 31
0
  0
LINE
  8
1
 62
7
 10
101.662900080556
 20
-87.50786195437146
 30
0
 11
99.90015961695724
 21
-87.50786195437146
 31
0
  0
LINE
  8
1
 62
7
 10
106.862900080556
 20
-90.00786195437149
 30
0
 11
101.662900080556
 21
-90.00786195437146
 31
0
  0
LINE
  8
1
 62
7
 10
119.862900080556
 20
244.4921380456285
 30
0
 11
117.362900080556
 21
244.4921380456285
 31
0
  0
LINE
  8
1
 62
7
 10
109.362900080556
 20
244.4921380456285
 30
0
 11
106.862900080556
 21
244.4921380456285
 31
0
  0
LINE
  8
1
 62
7
 10
117.362900080556
 20
-89.50786195437149
 30
0
 11
119.862900080556
 21
-89.50786195437149
 31
0
  0
LINE
  8
1
 62
7
 10
106.862900080556
 20
-89.50786195437149
 30
0
 11
109.362900080556
 21
-89.50786195437149
 31
0
  0
LINE
  8
1
 62
3
  6
DASHDOT
 10
33.86290008055599
 20
77.49213804562851
 30
0
 11
23.86290008055599
 21
77.49213804562851
 31
0
  0
LINE
  8
1
 62
7
 10
-215.6879118835105
 20
-100.0078619543715
 30
0
 11
-350.6879118835107
 21
-100.0078619543715
 31
0
  0
LINE
  8
1
 62
7
 10
-375.6879118835107
 20
-125.0078619543715
 30
0
 11
-375.6879118835107
 21
-155.0078619543715
 31
0
  0
LINE
  8
1
 62
7
 10
-385.6879118835107
 20
-165.0078619543715
 30
0
 11
-440.6879118835107
 21
-165.0078619543715
 31
0
  0
LINE
  8
1
 62
3
  6
DASHDOT
 10
-397.6879118835107
 20
-127.5078619543715
 30
0
 11
-428.6879118835107
 21
-127.5078619543715
 31
0
  0
LINE
  8
1
 62
3
  6
DASHDOT
 10
-413.1879118835107
 20
-112.0078619543715
 30
0
 11
-413.1879118835107
 21
-143.0078619543715
 31
0
  0
LINE
  8
1
 62
7
 10
-190.6879118835105
 20
-155.0078619543715
 30
0
 11
-190.6879118835105
 21
-125.0078619543715
 31
0
  0
LINE
  8
1
 62
7
 10
-125.6879118835105
 20
-165.0078619543715
 30
0
 11
-180.6879118835105
 21
-165.0078619543715
 31
0
  0
LINE
  8
1
 62
3
  6
DASHDOT
 10
-137.6879118835105
 20
-127.5078619543715
 30
0
 11
-168.6879118835105
 21
-127.5078619543715
 31
0
  0
LINE
  8
1
 62
3
  6
DASHDOT
 10
-153.1879118835105
 20
-143.0078619543715
 30
0
 11
-153.1879118835105
 21
-112.0078619543715
 31
0
  0
LINE
  8
1
 62
7
 10
-115.6879118835105
 20
77.49213804562851
 30
0
 11
-115.6879118835105
 21
-155.0078619543715
 31
0
  0
LINE
  8
1
 62
7
 10
-450.6879118835107
 20
-155.0078619543715
 30
0
 11
-450.6879118835107
 21
77.49213804562851
 31
0
  0
LINE
  8
1
 62
7
 10
101.662900080556
 20
244.9921380456285
 30
0
 11
101.662900080556
 21
-90.00786195437146
 31
0
  0
LINE
  8
1
 62
7
 10
123.9638859319783
 20
-90.00786195437149
 30
0
 11
123.9638859319783
 21
244.9921380456285
 31
0
  0
LINE
  8
1
 62
3
  6
DASHDOT
 10
-283.1879118835107
 20
237.4921380456285
 30
0
 11
-283.1879118835107
 21
222.4921380456285
 31
0
  0
LINE
  8
1
 62
3
  6
DASHDOT
 10
-396.3249968733583
 20
190.6292230354761
 30
0
 11
-385.7183951555601
 21
180.0226213176779
 31
0
  0
LINE
  8
1
 62
3
  6
DASHDOT
 10
-443.1879118835107
 20
77.49213804562851
 30
0
 11
-428.1879118835107
 21
77.49213804562857
 31
0
  0
LINE
  8
1
 62
3
  6
DASHDOT
 10
-396.3249968733583
 20
-35.64494694421904
 30
0
 11
-385.7183951555602
 21
-25.03834522642083
 31
0
  0
LINE
  8
1
 62
3
  6
DASHDOT
 10
-283.1879118835107
 20
-82.50786195437144
 30
0
 11
-283.1879118835108
 21
-67.50786195437149
 31
0
  0
LINE
  8
1
 62
3
  6
DASHDOT
 10
-170.0508268936632
 20
-35.64494694421904
 30
0
 11
-180.6574286114614
 21
-25.03834522642094
 31
0
  0
LINE
  8
1
 62
3
  6
DASHDOT
 10
-123.1879118835108
 20
77.49213804562851
 30
0
 11
-138.1879118835107
 21
77.49213804562839
 31
0
  0
LINE
  8
1
 62
3
  6
DASHDOT
 10
-170.0508268936632
 20
190.6292230354761
 30
0
 11
-180.6574286114613
 21
180.0226213176778
 31
0
  0
LINE
  8
1
 62
3
  6
DASHDOT
 10
-135.8291264479605
 20
16.45413058339673
 30
0
 11
-148.7634399031185
 21
21.81169863650794
 31
0
  0
LINE
  8
1
 62
7
 10
-337.0514816539935
 20
174.8940854376303
 30
0
 11
-319.8761051118196
 21
146.0060051224198
 31
0
  0
LINE
  8
1
 62
7
 10
-306.5816628051177
 20
112.1215951311105
 30
0
 11
-318.5259833319191
 21
133.4353611426322
 31
0
  0
LINE
  8
1
 62
7
 10
-300.4896829188086
 20
187.4424551130025
 30
0
 11
-294.2304136927199
 21
154.4222144655019
 31
0
  0
LINE
  8
1
 62
7
 10
-299.1229901815615
 20
153.5595212253393
 30
0
 11
-304.5347885171998
 21
186.7291938561912
 31
0
  0
LINE
  8
1
 62
7
 10
-324.1785646693678
 20
143.5219789386918
 30
0
 11
-340.6086878178182
 21
172.8403315013831
 31
0
  0
LINE
  8
1
 62
7
 10
-313.9671285308921
 20
136.0674171892015
 30
0
 11
-301.4810259779976
 21
115.0664491762868
 31
0
  0
LINE
  8
1
 62
7
 10
-344.2900614735946
 20
125.520263343676
 30
0
 11
-369.7567941003613
 21
147.4510698263453
 31
0
  0
LINE
  8
1
 62
7
 10
-367.116538933232
 20
150.5976034071371
 30
0
 11
-341.0966589675199
 21
129.32601225289
 31
0
  0
LINE
  8
1
 62
7
 10
-387.0585651356593
 20
117.4835233322857
 30
0
 11
-355.3325632828039
 21
106.3940891674542
 31
0
  0
LINE
  8
1
 62
7
 10
-357.0317372655707
 20
101.725647018078
 30
0
 11
-388.4634155669211
 21
113.6237284946827
 31
0
  0
LINE
  8
1
 62
7
 10
-323.3679507254369
 20
88.98262797768705
 30
0
 11
-346.2180557997892
 21
97.63225875199888
 31
0
  0
LINE
  8
1
 62
7
 10
-344.4176234272115
 20
102.5789060409111
 30
0
 11
-321.353551920228
 21
94.51714320877453
 31
0
  0
LINE
  8
1
 62
7
 10
-321.353551920228
 20
60.46713288248253
 30
0
 11
-344.4176234272115
 21
52.40537005034576
 31
0
  0
LINE
  8
1
 62
7
 10
-346.2180557997891
 20
57.35201733925804
 30
0
 11
-323.3679507254368
 21
66.00164811357
 31
0
  0
LINE
  8
1
 62
7
 10
-355.332563282804
 20
48.59018692380277
 30
0
 11
-387.0585651356593
 21
37.50075275897134
 31
0
  0
LINE
  8
1
 62
7
 10
-388.4634155669211
 20
41.36054759657438
 30
0
 11
-357.0317372655707
 21
53.25862907317904
 31
0
  0
LINE
  8
1
 62
7
 10
-360.8667578976767
 20
75.00811186190042
 30
0
 11
-394.4722575883011
 21
75.43838410938135
 31
0
  0
LINE
  8
1
 62
7
 10
-394.4722575883011
 20
79.54589198187576
 30
0
 11
-360.8667578976767
 21
79.97616422935667
 31
0
  0
LINE
  8
1
 62
7
 10
-318.525983331919
 20
21.54891494862477
 30
0
 11
-306.5816628051177
 21
42.86268096014653
 31
0
  0
LINE
  8
1
 62
7
 10
-301.4810259779976
 20
39.91782691497016
 30
0
 11
-313.967128530892
 21
18.91685890205542
 31
0
  0
LINE
  8
1
 62
7
 10
-319.8761051118195
 20
8.978270968837226
 30
0
 11
-337.0514816539936
 21
-19.90980934637325
 31
0
  0
LINE
  8
1
 62
7
 10
-340.6086878178183
 20
-17.85605541012602
 30
0
 11
-324.1785646693677
 21
11.46229715256514
 31
0
  0
LINE
  8
1
 62
7
 10
-341.0966589675199
 20
25.65826383836708
 30
0
 11
-367.116538933232
 21
4.386672684119903
 31
0
  0
LINE
  8
1
 62
7
 10
-369.7567941003613
 20
7.53320626491172
 30
0
 11
-344.2900614735947
 21
29.46401274758104
 31
0
  0
LINE
  8
1
 62
7
 10
-294.2304136927199
 20
0.5620616257550998
 30
0
 11
-300.4896829188087
 21
-32.45817902174539
 31
0
  0
LINE
  8
1
 62
7
 10
-304.5347885171998
 20
-31.74491776493419
 30
0
 11
-299.1229901815615
 21
1.424754865917789
 31
0
  0
LINE
  8
1
 62
7
 10
-265.8861408482129
 20
-32.45817902174545
 30
0
 11
-272.1454100743013
 21
0.5620616257550786
 31
0
  0
LINE
  8
1
 62
7
 10
-267.2528335854601
 20
1.424754865917767
 30
0
 11
-261.8410352498215
 21
-31.7449177649342
 31
0
  0
LINE
  8
1
 62
7
 10
-229.3243421130279
 20
-19.90980934637322
 30
0
 11
-246.4997186552021
 21
8.978270968837196
 31
0
  0
LINE
  8
1
 62
7
 10
-242.1972590976535
 20
11.46229715256528
 30
0
 11
-225.7671359492032
 21
-17.85605541012599
 31
0
  0
LINE
  8
1
 62
7
 10
-199.2592848337894
 20
4.386672684119853
 30
0
 11
-225.2791647995013
 21
25.65826383836718
 31
0
  0
LINE
  8
1
 62
7
 10
-222.0857622934268
 20
29.46401274758084
 30
0
 11
-196.6190296666601
 21
7.53320626491176
 31
0
  0
LINE
  8
1
 62
7
 10
-179.3172586313622
 20
37.50075275897132
 30
0
 11
-211.0432604842175
 21
48.59018692380258
 31
0
  0
LINE
  8
1
 62
7
 10
-209.3440865014507
 20
53.25862907317919
 30
0
 11
-177.9124082001003
 21
41.36054759657431
 31
0
  0
LINE
  8
1
 62
7
 10
-171.9035661787204
 20
75.43838410938123
 30
0
 11
-205.5090658693449
 21
75.00811186190059
 31
0
  0
LINE
  8
1
 62
7
 10
-205.5090658693447
 20
79.97616422935646
 30
0
 11
-171.9035661787204
 21
79.54589198187573
 31
0
  0
LINE
  8
1
 62
7
 10
-177.9124082001003
 20
113.6237284946826
 30
0
 11
-209.3440865014507
 21
101.7256470180777
 31
0
  0
LINE
  8
1
 62
7
 10
-211.0432604842175
 20
106.3940891674544
 30
0
 11
-179.3172586313622
 21
117.4835233322856
 31
0
  0
LINE
  8
1
 62
7
 10
-225.2791647995014
 20
129.3260122528899
 30
0
 11
-199.2592848337894
 21
150.5976034071371
 31
0
  0
LINE
  8
1
 62
7
 10
-196.6190296666601
 20
147.4510698263452
 30
0
 11
-222.0857622934269
 21
125.5202633436762
 31
0
  0
LINE
  8
1
 62
7
 10
-225.7671359492031
 20
172.840331501383
 30
0
 11
-242.1972590976535
 21
143.5219789386917
 31
0
  0
LINE
  8
1
 62
7
 10
-246.499718655202
 20
146.0060051224198
 30
0
 11
-229.3243421130279
 21
174.8940854376302
 31
0
  0
LINE
  8
1
 62
7
 10
-261.8410352498215
 20
186.7291938561912
 30
0
 11
-267.2528335854601
 21
153.5595212253394
 31
0
  0
LINE
  8
1
 62
7
 10
-272.1454100743013
 20
154.4222144655019
 30
0
 11
-265.8861408482128
 21
187.4424551130025
 31
0
  0
LINE
  8
1
 62
7
 10
-264.8947977890237
 20
115.0664491762868
 30
0
 11
-252.4086952361292
 21
136.0674171892015
 31
0
  0
LINE
  8
1
 62
7
 10
-247.8498404351023
 20
133.4353611426321
 30
0
 11
-259.7941609619036
 21
112.1215951311104
 31
0
  0
LINE
  8
1
 62
7
 10
-245.0222718467933
 20
94.5171432087745
 30
0
 11
-221.9582003398099
 21
102.5789060409111
 31
0
  0
LINE
  8
1
 62
7
 10
-220.1577679672323
 20
97.63225875199883
 30
0
 11
-243.0078730415846
 21
88.98262797768702
 31
0
  0
LINE
  8
1
 62
7
 10
-243.0078730415846
 20
66.00164811357004
 30
0
 11
-220.1577679672323
 21
57.3520173392581
 31
0
  0
LINE
  8
1
 62
7
 10
-221.95820033981
 20
52.40537005034582
 30
0
 11
-245.0222718467933
 21
60.46713288248254
 31
0
  0
LINE
  8
1
 62
7
 10
-259.7941609619036
 20
42.86268096014659
 30
0
 11
-247.8498404351023
 21
21.54891494862483
 31
0
  0
LINE
  8
1
 62
7
 10
-252.4086952361293
 20
18.91685890205547
 30
0
 11
-264.8947977890238
 21
39.91782691497019
 31
0
  0
LINE
  8
1
 62
7
 10
-273.1879118835107
 20
141.5754071775884
 30
0
 11
-293.1879118835107
 21
141.5754071775884
 31
0
  0
LINE
  8
1
 62
7
 10
-273.1879118835107
 20
121.5754071775884
 30
0
 11
-293.1879118835107
 21
121.5754071775884
 31
0
  0
LINE
  8
1
 62
7
 10
-293.1879118835107
 20
33.4088689136687
 30
0
 11
-273.1879118835107
 21
33.4088689136687
 31
0
  0
LINE
  8
1
 62
7
 10
-293.1879118835107
 20
13.4088689136687
 30
0
 11
-273.1879118835107
 21
13.4088689136687
 31
0
  0
LINE
  8
1
 62
7
 10
-331.9322231201535
 20
117.3491457948202
 30
0
 11
-319.736949565454
 21
107.1160962529658
 31
0
  0
LINE
  8
1
 62
7
 10
-318.7084893899555
 20
108.3417673619562
 30
0
 11
-330.903762944655
 21
118.5748169038106
 31
0
  0
LINE
  8
1
 62
7
 10
-346.1478113803636
 20
76.69213804562851
 30
0
 11
-330.2280123866577
 21
76.69213804562851
 31
0
  0
LINE
  8
1
 62
7
 10
-330.2280123866577
 20
78.29213804562851
 30
0
 11
-346.1478113803636
 21
78.29213804562853
 31
0
  0
LINE
  8
1
 62
7
 10
-319.7369495654539
 20
47.86817983829124
 30
0
 11
-331.9322231201535
 21
37.6351302964369
 31
0
  0
LINE
  8
1
 62
7
 10
-330.903762944655
 20
36.40945918744649
 30
0
 11
-318.7084893899555
 21
46.64250872930086
 31
0
  0
LINE
  8
1
 62
7
 10
-247.6673343770659
 20
46.64250872930086
 30
0
 11
-235.4720608223664
 21
36.40945918744649
 31
0
  0
LINE
  8
1
 62
7
 10
-234.4436006468679
 20
37.6351302964369
 30
0
 11
-246.6388742015675
 21
47.86817983829124
 31
0
  0
LINE
  8
1
 62
7
 10
-236.1478113803637
 20
76.69213804562851
 30
0
 11
-220.2280123866578
 21
76.69213804562851
 31
0
  0
LINE
  8
1
 62
7
 10
-220.2280123866578
 20
78.29213804562853
 30
0
 11
-236.1478113803637
 21
78.29213804562851
 31
0
  0
LINE
  8
1
 62
7
 10
-246.6388742015674
 20
107.1160962529658
 30
0
 11
-234.4436006468679
 21
117.3491457948202
 31
0
  0
LINE
  8
1
 62
7
 10
-235.4720608223664
 20
118.5748169038106
 30
0
 11
-247.6673343770659
 21
108.3417673619562
 31
0
  0
LINE
  8
1
 62
7
 10
556.2021472277031
 20
182.9590435005927
 30
0
 11
558.9148061655344
 21
181.9717163915059
 31
0
  0
LINE
  8
1
 62
7
 10
558.9148061655344
 20
181.9717163915059
 30
0
 11
559.4160852761359
 21
179.1288212849977
 31
0
  0
LINE
  8
1
 62
7
 10
559.4160852761359
 20
179.1288212849977
 30
0
 11
557.2047054489062
 21
177.2732532875764
 31
0
  0
LINE
  8
1
 62
7
 10
557.2047054489062
 20
177.2732532875764
 30
0
 11
554.4920465110749
 21
178.2605803966632
 31
0
  0
LINE
  8
1
 62
7
 10
554.4920465110749
 20
178.2605803966632
 30
0
 11
553.9907674004735
 21
181.1034755031711
 31
0
  0
LINE
  8
1
 62
7
 10
553.9907674004735
 20
181.1034755031711
 30
0
 11
556.2021472277031
 21
182.9590435005927
 31
0
  0
LINE
  8
1
 62
3
  6
DASHED
 10
35.86290008055602
 20
52.49213804562851
 30
0
 11
33.86290008055602
 21
50.49213804562851
 31
0
  0
LINE
  8
1
 62
3
  6
DASHED
 10
35.86290008055602
 20
102.4921380456285
 30
0
 11
33.86290008055602
 21
104.4921380456285
 31
0
  0
LINE
  8
1
 62
3
  6
DASHED
 10
35.86290008055602
 20
102.4921380456285
 30
0
 11
35.86290008055602
 21
83.49213804562851
 31
0
  0
LINE
  8
1
 62
3
  6
DASHED
 10
35.86290008055602
 20
71.49213804562851
 30
0
 11
35.86290008055602
 21
52.49213804562851
 31
0
  0
ARC
  8
1
 62
7
 10
-283.1879118835107
 20
77.49213804562851
 30
0
 40
27.00000000000004
 50
192.8395884069041
 51
167.1604115930959
  0
ARC
  8
1
 62
7
 10
539.5858707098486
 20
112.8454565783882
 30
0
 40
3.199999999999892
 50
348.6248328730515
 51
91.37516712694999
  0
ARC
  8
1
 62
3
 10
539.5858707098486
 20
112.8454565783882
 30
0
 40
3.199999999999953
 50
91.37516712694999
 51
168.6248328730494
  0
ARC
  8
1
 62
7
 10
539.5858707098486
 20
112.8454565783882
 30
0
 40
3.199999999999914
 50
168.6248328730494
 51
271.375167126948
  0
ARC
  8
1
 62
3
 10
539.5858707098486
 20
112.8454565783882
 30
0
 40
3.199999999999936
 50
271.375167126948
 51
348.6248328730515
  0
ARC
  8
1
 62
7
 10
552.4534263383048
 20
77.49213804562851
 30
0
 40
3.199999999999947
 50
308.6248328730501
 51
51.37516712694858
  0
ARC
  8
1
 62
3
 10
552.4534263383048
 20
77.49213804562851
 30
0
 40
3.199999999999858
 50
51.37516712694858
 51
128.6248328730514
  0
ARC
  8
1
 62
7
 10
552.4534263383048
 20
77.49213804562851
 30
0
 40
3.199999999999858
 50
128.6248328730514
 51
231.3751671269498
  0
ARC
  8
1
 62
3
 10
552.4534263383048
 20
77.49213804562851
 30
0
 40
3.199999999999947
 50
231.3751671269498
 51
308.6248328730501
  0
ARC
  8
1
 62
7
 10
539.5858707098486
 20
42.13881951286885
 30
0
 40
3.200000000000069
 50
268.624832873048
 51
11.37516712694622
  0
ARC
  8
1
 62
3
 10
539.5858707098486
 20
42.13881951286885
 30
0
 40
3.199999999999749
 50
11.37516712694622
 51
88.62483287305196
  0
ARC
  8
1
 62
7
 10
539.5858707098486
 20
42.13881951286885
 30
0
 40
3.199999999999723
 50
88.62483287305196
 51
191.3751671269514
  0
ARC
  8
1
 62
3
 10
539.5858707098486
 20
42.13881951286885
 30
0
 40
3.200000000000039
 50
191.3751671269514
 51
268.624832873048
  0
ARC
  8
1
 62
3
 10
455.320981966761
 20
42.13881951286885
 30
0
 40
3.199999999999723
 50
91.37516712694804
 51
168.6248328730538
  0
ARC
  8
1
 62
7
 10
455.320981966761
 20
42.13881951286885
 30
0
 40
3.199999999999749
 50
168.6248328730538
 51
271.375167126952
  0
ARC
  8
1
 62
7
 10
455.320981966761
 20
42.13881951286885
 30
0
 40
3.199999999999984
 50
348.6248328730484
 51
91.37516712694804
  0
ARC
  8
1
 62
3
 10
455.320981966761
 20
42.13881951286885
 30
0
 40
3.200000000000069
 50
271.375167126952
 51
348.6248328730484
  0
ARC
  8
1
 62
7
 10
442.4534263383048
 20
77.49213804562851
 30
0
 40
3.199999999999911
 50
308.6248328730493
 51
51.37516712694938
  0
ARC
  8
1
 62
3
 10
442.4534263383048
 20
77.49213804562851
 30
0
 40
3.199999999999823
 50
51.37516712694938
 51
128.6248328730514
  0
ARC
  8
1
 62
7
 10
442.4534263383048
 20
77.49213804562851
 30
0
 40
3.199999999999858
 50
128.6248328730514
 51
231.3751671269498
  0
ARC
  8
1
 62
3
 10
442.4534263383048
 20
77.49213804562851
 30
0
 40
3.199999999999947
 50
231.3751671269498
 51
308.6248328730493
  0
ARC
  8
1
 62
7
 10
455.320981966761
 20
112.8454565783882
 30
0
 40
3.199999999999953
 50
88.62483287305003
 51
191.3751671269486
  0
ARC
  8
1
 62
3
 10
455.320981966761
 20
112.8454565783882
 30
0
 40
3.199999999999892
 50
191.3751671269486
 51
268.6248328730521
  0
ARC
  8
1
 62
3
 10
455.320981966761
 20
112.8454565783882
 30
0
 40
3.199999999999914
 50
11.37516712695056
 51
88.62483287305003
  0
ARC
  8
1
 62
7
 10
455.320981966761
 20
112.8454565783882
 30
0
 40
3.199999999999936
 50
268.6248328730521
 51
11.37516712695056
  0
ARC
  8
1
 62
7
 10
497.4534263383048
 20
77.49213804562851
 30
0
 40
165.0000000000003
 50
344.9743250574131
 51
345.0256749425878
  0
ARC
  8
1
 62
7
 10
497.4534263383048
 20
77.49213804562851
 30
0
 40
165.0000000000004
 50
314.974325057413
 51
315.0256749425878
  0
ARC
  8
1
 62
7
 10
497.4534263383048
 20
77.49213804562851
 30
0
 40
165.0000000000003
 50
284.974325057413
 51
285.0256749425877
  0
ARC
  8
1
 62
7
 10
497.4534263383048
 20
77.49213804562851
 30
0
 40
165.0000000000003
 50
254.9743250574129
 51
255.0256749425877
  0
ARC
  8
1
 62
7
 10
497.4534263383048
 20
77.49213804562851
 30
0
 40
165.0000000000003
 50
224.9743250574128
 51
225.0256749425876
  0
ARC
  8
1
 62
7
 10
497.4534263383048
 20
77.49213804562851
 30
0
 40
165.0000000000003
 50
194.9743250574128
 51
195.0256749425876
  0
ARC
  8
1
 62
7
 10
497.4534263383048
 20
77.49213804562851
 30
0
 40
165.0000000000003
 50
164.9743250574127
 51
165.0256749425875
  0
ARC
  8
1
 62
7
 10
497.4534263383048
 20
77.49213804562851
 30
0
 40
165.0000000000002
 50
134.9743250574127
 51
135.0256749425874
  0
ARC
  8
1
 62
7
 10
497.4534263383048
 20
77.49213804562851
 30
0
 40
165.0000000000002
 50
104.9743250574126
 51
105.0256749425874
  0
ARC
  8
1
 62
7
 10
497.4534263383048
 20
77.49213804562851
 30
0
 40
165.0000000000002
 50
74.97432505741261
 51
75.02567494258744
  0
ARC
  8
1
 62
7
 10
497.4534263383048
 20
77.49213804562851
 30
0
 40
165.0000000000001
 50
44.97432505741259
 51
45.02567494258741
  0
ARC
  8
1
 62
7
 10
497.4534263383048
 20
77.49213804562851
 30
0
 40
165
 50
14.97432505741257
 51
15.02567494258736
  0
ARC
  8
1
 62
7
 10
497.4534263383048
 20
77.49213804562851
 30
0
 40
47.00000000000003
 50
271.8288992715844
 51
268.1711007284155
  0
ARC
  8
1
 62
7
 10
497.4534263383048
 20
77.49213804562851
 30
0
 40
110
 50
312.5703798174824
 51
317.4296201825175
  0
ARC
  8
1
 62
7
 10
497.4534263383048
 20
77.49213804562851
 30
0
 40
109.9999999999999
 50
342.5703798174821
 51
347.4296201825176
  0
ARC
  8
1
 62
7
 10
497.4534263383048
 20
77.49213804562851
 30
0
 40
109.9999999999999
 50
12.5703798174819
 51
17.42962018251805
  0
ARC
  8
1
 62
7
 10
497.4534263383048
 20
77.49213804562851
 30
0
 40
110
 50
282.5703798174823
 51
287.4296201825177
  0
ARC
  8
1
 62
7
 10
497.4534263383048
 20
77.49213804562851
 30
0
 40
110
 50
252.5703798174823
 51
257.4296201825177
  0
ARC
  8
1
 62
7
 10
497.4534263383048
 20
77.49213804562851
 30
0
 40
110
 50
222.5703798174824
 51
227.4296201825176
  0
ARC
  8
1
 62
7
 10
497.4534263383048
 20
77.49213804562851
 30
0
 40
110
 50
192.5703798174824
 51
197.4296201825181
  0
ARC
  8
1
 62
7
 10
497.4534263383048
 20
77.49213804562851
 30
0
 40
109.9999999999999
 50
162.5703798174821
 51
167.4296201825182
  0
ARC
  8
1
 62
7
 10
497.4534263383048
 20
77.49213804562851
 30
0
 40
110
 50
132.5703798174824
 51
137.4296201825181
  0
ARC
  8
1
 62
7
 10
497.4534263383048
 20
77.49213804562851
 30
0
 40
110
 50
102.5703798174824
 51
107.4296201825177
  0
ARC
  8
1
 62
7
 10
497.4534263383048
 20
77.49213804562851
 30
0
 40
110
 50
72.57037981748226
 51
77.42962018251765
  0
ARC
  8
1
 62
3
  6
DASHDOT
 10
-283.1879118835107
 20
77.49213804562851
 30
0
 40
152.5
 50
87.18189072212198
 51
92.81810927787801
  0
ARC
  8
1
 62
7
 10
-283.1879118835107
 20
77.49213804562851
 30
0
 40
24.99999999999999
 50
193.886540362629
 51
166.113459637371
  0
ARC
  8
1
 62
7
 10
497.4534263383048
 20
77.49213804562851
 30
0
 40
62.99999999999999
 50
132.7294026367787
 51
227.2705973632213
  0
ARC
  8
1
 62
7
 10
497.4534263383048
 20
77.49213804562851
 30
0
 40
62.99999999999999
 50
312.7294026367787
 51
47.2705973632213
  0
ARC
  8
1
 62
7
 10
497.4534263383048
 20
77.49213804562851
 30
0
 40
130
 50
76.86906653776045
 51
103.1309334622396
  0
ARC
  8
1
 62
7
 10
497.4534263383048
 20
77.49213804562851
 30
0
 40
130
 50
46.8690665377605
 51
73.13093346223953
  0
ARC
  8
1
 62
7
 10
497.4534263383048
 20
77.49213804562851
 30
0
 40
130
 50
16.86906653776062
 51
43.13093346223943
  0
ARC
  8
1
 62
7
 10
497.4534263383048
 20
77.49213804562851
 30
0
 40
130
 50
346.8690665377607
 51
13.13093346223929
  0
ARC
  8
1
 62
7
 10
497.4534263383048
 20
77.49213804562851
 30
0
 40
129.9999999999999
 50
106.8690665377605
 51
133.1309334622396
  0
ARC
  8
1
 62
7
 10
497.4534263383048
 20
77.49213804562851
 30
0
 40
130.0000000000001
 50
136.8690665377605
 51
163.1309334622397
  0
ARC
  8
1
 62
7
 10
497.4534263383048
 20
77.49213804562851
 30
0
 40
130
 50
166.8690665377606
 51
193.1309334622396
  0
ARC
  8
1
 62
7
 10
497.4534263383048
 20
77.49213804562851
 30
0
 40
130.0000000000001
 50
196.8690665377602
 51
223.1309334622395
  0
ARC
  8
1
 62
7
 10
497.4534263383048
 20
77.49213804562851
 30
0
 40
130.0000000000001
 50
226.8690665377604
 51
253.1309334622395
  0
ARC
  8
1
 62
7
 10
497.4534263383048
 20
77.49213804562851
 30
0
 40
130
 50
316.8690665377604
 51
343.1309334622395
  0
ARC
  8
1
 62
7
 10
497.4534263383048
 20
77.49213804562851
 30
0
 40
130
 50
286.8690665377605
 51
313.1309334622395
  0
ARC
  8
1
 62
7
 10
497.4534263383048
 20
77.49213804562851
 30
0
 40
130.0000000000001
 50
256.8690665377606
 51
283.1309334622394
  0
ARC
  8
1
 62
7
 10
497.4534263383048
 20
77.49213804562851
 30
0
 40
28.99999999999998
 50
267.0351021528252
 51
272.9648978471748
  0
ARC
  8
1
 62
3
 10
497.4534263383048
 20
77.49213804562851
 30
0
 40
28.99999999999998
 50
272.9648978471748
 51
267.0351021528252
  0
ARC
  8
1
 62
3
 10
497.4534263383048
 20
77.49213804562851
 30
0
 40
27.99999999999999
 50
266.9291131889251
 51
273.0708868110749
  0
ARC
  8
1
 62
7
 10
497.4534263383048
 20
77.49213804562851
 30
0
 40
27.99999999999999
 50
273.0708868110749
 51
266.9291131889251
  0
ARC
  8
1
 62
7
 10
165.0663597141689
 20
138.1171380456285
 30
0
 40
2.796540366387172
 50
317.8965511292528
 51
42.10344887074727
  0
ARC
  8
1
 62
7
 10
157.7592703697376
 20
132.4921380456285
 30
0
 40
10.10362971081844
 50
338.2132107017382
 51
21.78678929826184
  0
ARC
  8
1
 62
7
 10
165.0663597141689
 20
126.8671380456285
 30
0
 40
2.796540366387172
 50
317.8965511292528
 51
42.10344887074749
  0
ARC
  8
1
 62
7
 10
165.6594404469433
 20
138.1171380456285
 30
0
 40
2.796540366387236
 50
137.8965511292539
 51
222.1034488707461
  0
ARC
  8
1
 62
7
 10
172.9665297913744
 20
132.4921380456285
 30
0
 40
10.10362971081833
 50
158.2132107017379
 51
201.7867892982621
  0
ARC
  8
1
 62
7
 10
165.6594404469433
 20
126.8671380456285
 30
0
 40
2.796540366387245
 50
137.8965511292537
 51
222.1034488707461
  0
ARC
  8
1
 62
3
  6
DASHDOT
 10
-283.1879118835107
 20
77.49213804562851
 30
0
 40
152.5
 50
79.2701418728897
 51
85.65803944255025
  0
ARC
  8
1
 62
3
  6
DASHDOT
 10
-283.1879118835107
 20
77.49213804562851
 30
0
 40
152.4999999999999
 50
154.8697988529589
 51
160.1302011470411
  0
ARC
  8
1
 62
3
  6
DASHDOT
 10
-283.1879118835107
 20
77.49213804562851
 30
0
 40
152.5
 50
132.181890722122
 51
137.818109277878
  0
ARC
  8
1
 62
3
  6
DASHDOT
 10
-283.1879118835107
 20
77.49213804562851
 30
0
 40
152.4999999999999
 50
177.181890722122
 51
182.818109277878
  0
ARC
  8
1
 62
3
  6
DASHDOT
 10
-283.1879118835107
 20
77.49213804562851
 30
0
 40
152.5
 50
222.181890722122
 51
227.8181092778781
  0
ARC
  8
1
 62
3
  6
DASHDOT
 10
-283.1879118835107
 20
77.49213804562851
 30
0
 40
152.5
 50
267.181890722122
 51
272.8181092778781
  0
ARC
  8
1
 62
3
  6
DASHDOT
 10
-283.1879118835107
 20
77.49213804562851
 30
0
 40
152.5
 50
312.1818907221219
 51
317.818109277878
  0
ARC
  8
1
 62
3
  6
DASHDOT
 10
-283.1879118835107
 20
77.49213804562851
 30
0
 40
152.5
 50
357.1818907221219
 51
2.818109277878029
  0
ARC
  8
1
 62
3
  6
DASHDOT
 10
-283.1879118835107
 20
77.49213804562851
 30
0
 40
152.5
 50
42.18189072212196
 51
47.81810927787802
  0
ARC
  8
1
 62
3
  6
DASHDOT
 10
-283.1879118835107
 20
77.49213804562851
 30
0
 40
152.5
 50
259.2701418728897
 51
265.6580394425503
  0
ARC
  8
1
 62
3
  6
DASHDOT
 10
-283.1879118835107
 20
77.49213804562851
 30
0
 40
152.4999999999999
 50
334.8697988529588
 51
340.1302011470411
  0
ARC
  8
1
 62
7
 10
-273.1879118835107
 20
131.5754071775884
 30
0
 40
10
 50
270
 51
90
  0
ARC
  8
1
 62
7
 10
-293.1879118835107
 20
131.5754071775884
 30
0
 40
10
 50
90
 51
270
  0
ARC
  8
1
 62
7
 10
-273.1879118835107
 20
23.4088689136687
 30
0
 40
10
 50
270
 51
90
  0
ARC
  8
1
 62
7
 10
-293.1879118835107
 20
23.4088689136687
 30
0
 40
9.999999999999996
 50
90
 51
270
  0
ARC
  8
1
 62
7
 10
-283.1879118835107
 20
77.49213804562851
 30
0
 40
115.5
 50
103.1121648142766
 51
116.8878351857234
  0
ARC
  8
1
 62
7
 10
-283.1879118835107
 20
77.49213804562851
 30
0
 40
115.5000000000001
 50
123.1121648142765
 51
136.8878351857234
  0
ARC
  8
1
 62
7
 10
-283.1879118835107
 20
77.49213804562851
 30
0
 40
115.5
 50
143.1121648142765
 51
156.8878351857235
  0
ARC
  8
1
 62
7
 10
-283.1879118835107
 20
77.49213804562851
 30
0
 40
115.5
 50
163.1121648142766
 51
176.8878351857234
  0
ARC
  8
1
 62
7
 10
-283.1879118835107
 20
77.49213804562851
 30
0
 40
73.99999999999994
 50
184.7681756016702
 51
195.2318243983299
  0
ARC
  8
1
 62
7
 10
-283.1879118835107
 20
77.49213804562851
 30
0
 40
115.5
 50
183.1121648142765
 51
196.8878351857235
  0
ARC
  8
1
 62
7
 10
-283.1879118835107
 20
77.49213804562851
 30
0
 40
74
 50
164.7681756016701
 51
175.2318243983298
  0
ARC
  8
1
 62
7
 10
-283.1879118835107
 20
77.49213804562851
 30
0
 40
73.99999999999997
 50
144.7681756016702
 51
155.23182439833
  0
ARC
  8
1
 62
7
 10
-283.1879118835107
 20
77.49213804562851
 30
0
 40
70.50000000000003
 50
165.7233485932073
 51
194.2766514067928
  0
ARC
  8
1
 62
7
 10
-283.1879118835107
 20
77.49213804562851
 30
0
 40
115.5000000000001
 50
203.1121648142765
 51
216.8878351857235
  0
ARC
  8
1
 62
7
 10
-283.1879118835107
 20
77.49213804562851
 30
0
 40
74.00000000000009
 50
204.7681756016701
 51
215.2318243983297
  0
ARC
  8
1
 62
7
 10
-283.1879118835107
 20
77.49213804562851
 30
0
 40
74.00000000000003
 50
224.7681756016702
 51
235.23182439833
  0
ARC
  8
1
 62
7
 10
-283.1879118835107
 20
77.49213804562851
 30
0
 40
115.5
 50
223.1121648142766
 51
236.8878351857235
  0
ARC
  8
1
 62
7
 10
-283.1879118835107
 20
77.49213804562851
 30
0
 40
70.49999999999997
 50
205.7233485932073
 51
234.2766514067928
  0
ARC
  8
1
 62
7
 10
-283.1879118835107
 20
77.49213804562851
 30
0
 40
70.49999999999994
 50
125.7233485932072
 51
154.2766514067928
  0
ARC
  8
1
 62
7
 10
-283.1879118835107
 20
77.49213804562851
 30
0
 40
73.99999999999999
 50
124.7681756016701
 51
135.2318243983297
  0
ARC
  8
1
 62
7
 10
-283.1879118835107
 20
77.49213804562851
 30
0
 40
74.00000000000007
 50
104.7681756016702
 51
115.23182439833
  0
ARC
  8
1
 62
7
 10
-283.1879118835107
 20
77.49213804562851
 30
0
 40
70.50000000000001
 50
65.72334859320708
 51
114.2766514067928
  0
ARC
  8
1
 62
7
 10
-283.1879118835107
 20
77.49213804562851
 30
0
 40
74.00000000000006
 50
84.76817560167018
 51
95.23182439832974
  0
ARC
  8
1
 62
7
 10
-283.1879118835107
 20
77.49213804562851
 30
0
 40
115.5
 50
83.1121648142766
 51
96.88783518572346
  0
ARC
  8
1
 62
7
 10
-283.1879118835107
 20
77.49213804562851
 30
0
 40
115.5
 50
63.1121648142765
 51
76.88783518572339
  0
ARC
  8
1
 62
7
 10
-283.1879118835107
 20
77.49213804562851
 30
0
 40
74.00000000000007
 50
64.76817560167019
 51
75.23182439832995
  0
ARC
  8
1
 62
7
 10
-283.1879118835107
 20
77.49213804562851
 30
0
 40
70.49999999999997
 50
25.72334859320713
 51
54.27665140679265
  0
ARC
  8
1
 62
7
 10
-283.1879118835107
 20
77.49213804562851
 30
0
 40
74.00000000000003
 50
44.76817560167013
 51
55.23182439832974
  0
ARC
  8
1
 62
7
 10
-283.1879118835107
 20
77.49213804562851
 30
0
 40
115.4999999999999
 50
43.11216481427654
 51
56.88783518572345
  0
ARC
  8
1
 62
7
 10
-283.1879118835107
 20
77.49213804562851
 30
0
 40
74.00000000000004
 50
24.76817560167023
 51
35.23182439832997
  0
ARC
  8
1
 62
7
 10
-283.1879118835107
 20
77.49213804562851
 30
0
 40
70.49999999999997
 50
345.7233485932072
 51
14.27665140679271
  0
ARC
  8
1
 62
7
 10
-283.1879118835107
 20
77.49213804562851
 30
0
 40
74.00000000000007
 50
4.768175601670086
 51
15.23182439832972
  0
ARC
  8
1
 62
7
 10
-283.1879118835107
 20
77.49213804562851
 30
0
 40
115.4999999999999
 50
343.1121648142765
 51
356.8878351857234
  0
ARC
  8
1
 62
7
 10
-283.1879118835107
 20
77.49213804562851
 30
0
 40
115.4999999999998
 50
3.112164814276545
 51
16.88783518572342
  0
ARC
  8
1
 62
7
 10
-283.1879118835107
 20
77.49213804562851
 30
0
 40
115.4999999999999
 50
23.11216481427653
 51
36.8878351857234
  0
ARC
  8
1
 62
7
 10
-283.1879118835107
 20
77.49213804562851
 30
0
 40
70.49999999999997
 50
305.7233485932072
 51
334.2766514067927
  0
ARC
  8
1
 62
7
 10
-283.1879118835107
 20
77.49213804562851
 30
0
 40
73.99999999999999
 50
324.7681756016701
 51
335.2318243983298
  0
ARC
  8
1
 62
7
 10
-283.1879118835107
 20
77.49213804562851
 30
0
 40
74.00000000000003
 50
304.7681756016702
 51
315.2318243983299
  0
ARC
  8
1
 62
7
 10
-283.1879118835107
 20
77.49213804562851
 30
0
 40
115.5
 50
303.1121648142765
 51
316.8878351857234
  0
ARC
  8
1
 62
7
 10
-283.1879118835107
 20
77.49213804562851
 30
0
 40
115.4999999999999
 50
283.1121648142766
 51
296.8878351857235
  0
ARC
  8
1
 62
7
 10
-283.1879118835107
 20
77.49213804562851
 30
0
 40
115.4999999999999
 50
323.1121648142765
 51
336.8878351857234
  0
ARC
  8
1
 62
7
 10
-283.1879118835107
 20
77.49213804562851
 30
0
 40
115.4999999999999
 50
263.1121648142765
 51
276.8878351857234
  0
ARC
  8
1
 62
7
 10
-283.1879118835107
 20
77.49213804562851
 30
0
 40
74.00000000000004
 50
264.7681756016703
 51
275.2318243983299
  0
ARC
  8
1
 62
7
 10
-283.1879118835107
 20
77.49213804562851
 30
0
 40
73.99999999999996
 50
284.7681756016701
 51
295.2318243983297
  0
ARC
  8
1
 62
7
 10
-283.1879118835107
 20
77.49213804562851
 30
0
 40
115.5
 50
243.1121648142765
 51
256.8878351857234
  0
ARC
  8
1
 62
7
 10
-283.1879118835107
 20
77.49213804562851
 30
0
 40
74.00000000000003
 50
244.7681756016701
 51
255.2318243983298
  0
ARC
  8
1
 62
7
 10
-283.1879118835107
 20
77.49213804562851
 30
0
 40
70.49999999999997
 50
245.7233485932073
 51
294.2766514067928
  0
ARC
  8
1
 62
7
 10
-283.1879118835107
 20
77.49213804562851
 30
0
 40
74
 50
344.7681756016701
 51
355.2318243983299
  0
CIRCLE
  8
1
 62
7
 10
-263.1879118835107
 20
228.674974373037
 30
0
 40
5.5
  0
CIRCLE
  8
1
 62
3
 10
-424.0795405914819
 20
135.8513614813047
 30
0
 40
4
  0
CIRCLE
  8
1
 62
7
 10
-424.0795405914819
 20
135.8513614813047
 30
0
 40
3.200000000000046
  0
CIRCLE
  8
1
 62
7
 10
-283.1879118835107
 20
-75.00786195437139
 30
0
 40
4.5
  0
CIRCLE
  8
1
 62
7
 10
-391.0216960144591
 20
-30.34164608531992
 30
0
 40
4.499999999999973
  0
CIRCLE
  8
1
 62
7
 10
-435.6879118835107
 20
77.49213804562852
 30
0
 40
4.5
  0
CIRCLE
  8
1
 62
7
 10
-391.0216960144592
 20
185.325922176577
 30
0
 40
4.500000000000036
  0
CIRCLE
  8
1
 62
7
 10
-283.1879118835107
 20
229.9921380456285
 30
0
 40
4.5
  0
CIRCLE
  8
1
 62
7
 10
627.3572369059706
 20
2.492138045628284
 30
0
 40
7.999999999999969
  0
CIRCLE
  8
1
 62
7
 10
572.4534263383048
 20
-52.41167252203749
 30
0
 40
7.999999999999967
  0
CIRCLE
  8
1
 62
7
 10
497.4534263383047
 20
-72.50786195437159
 30
0
 40
8
  0
CIRCLE
  8
1
 62
7
 10
422.4534263383046
 20
-52.41167252203732
 30
0
 40
8.000000000000071
  0
CIRCLE
  8
1
 62
7
 10
367.5496157706389
 20
2.492138045628533
 30
0
 40
7.99999999999992
  0
CIRCLE
  8
1
 62
7
 10
347.4534263383048
 20
77.49213804562858
 30
0
 40
8
  0
CIRCLE
  8
1
 62
7
 10
367.5496157706389
 20
152.4921380456286
 30
0
 40
8.000000000000016
  0
CIRCLE
  8
1
 62
7
 10
422.4534263383048
 20
207.3959486132943
 30
0
 40
8.000000000000066
  0
CIRCLE
  8
1
 62
7
 10
497.4534263383048
 20
227.4921380456285
 30
0
 40
8
  0
CIRCLE
  8
1
 62
7
 10
572.4534263383048
 20
207.3959486132943
 30
0
 40
7.999999999999893
  0
CIRCLE
  8
1
 62
7
 10
627.3572369059706
 20
152.4921380456285
 30
0
 40
7.999999999999967
  0
CIRCLE
  8
1
 62
7
 10
647.4534263383048
 20
77.49213804562851
 30
0
 40
8
  0
CIRCLE
  8
1
 62
7
 10
534.4086076387562
 20
62.18480075102488
 30
0
 40
2.750000000000103
  0
CIRCLE
  8
1
 62
7
 10
460.4982450378534
 20
62.18480075102474
 30
0
 40
2.75
  0
CIRCLE
  8
1
 62
7
 10
460.4982450378533
 20
92.79947534023194
 30
0
 40
2.750000000000022
  0
CIRCLE
  8
1
 62
7
 10
482.1460890437011
 20
114.4473193460799
 30
0
 40
2.75
  0
CIRCLE
  8
1
 62
7
 10
512.7607636329083
 20
114.44731934608
 30
0
 40
2.750000000000002
  0
CIRCLE
  8
1
 62
7
 10
534.4086076387563
 20
92.79947534023211
 30
0
 40
2.75
  0
CIRCLE
  8
1
 62
3
  6
DASHED
 10
103.862900080556
 20
77.49213804562851
 30
0
 40
7
  0
CIRCLE
  8
1
 62
7
 10
497.4534263383048
 20
77.49213804562851
 30
0
 40
22.5
  0
CIRCLE
  8
1
 62
7
 10
497.4534263383048
 20
77.49213804562851
 30
0
 40
167.5
  0
CIRCLE
  8
1
 62
7
 10
367.4534263383048
 20
-127.5078619543715
 30
0
 40
12.5
  0
CIRCLE
  8
1
 62
7
 10
627.4534263383049
 20
-127.5078619543715
 30
0
 40
12.5
  0
CIRCLE
  8
1
 62
7
 10
455.320981966761
 20
112.8454565783882
 30
0
 40
6.5
  0
CIRCLE
  8
1
 62
7
 10
455.320981966761
 20
112.8454565783882
 30
0
 40
4
  0
CIRCLE
  8
1
 62
7
 10
442.4534263383048
 20
77.49213804562851
 30
0
 40
6.5
  0
CIRCLE
  8
1
 62
7
 10
442.4534263383048
 20
77.49213804562851
 30
0
 40
4
  0
CIRCLE
  8
1
 62
7
 10
455.320981966761
 20
42.13881951286885
 30
0
 40
6.5
  0
CIRCLE
  8
1
 62
7
 10
455.320981966761
 20
42.13881951286885
 30
0
 40
4
  0
CIRCLE
  8
1
 62
7
 10
539.5858707098486
 20
112.8454565783882
 30
0
 40
6.5
  0
CIRCLE
  8
1
 62
7
 10
539.5858707098486
 20
112.8454565783882
 30
0
 40
4
  0
CIRCLE
  8
1
 62
7
 10
552.4534263383048
 20
77.49213804562851
 30
0
 40
6.5
  0
CIRCLE
  8
1
 62
7
 10
552.4534263383048
 20
77.49213804562851
 30
0
 40
4
  0
CIRCLE
  8
1
 62
7
 10
539.5858707098486
 20
42.13881951286885
 30
0
 40
6.5
  0
CIRCLE
  8
1
 62
7
 10
539.5858707098486
 20
42.13881951286885
 30
0
 40
4
  0
CIRCLE
  8
1
 62
7
 10
-413.1879118835107
 20
-127.5078619543715
 30
0
 40
12.5
  0
CIRCLE
  8
1
 62
7
 10
-153.1879118835105
 20
-127.5078619543715
 30
0
 40
12.5
  0
CIRCLE
  8
1
 62
7
 10
-283.1879118835107
 20
77.49213804562851
 30
0
 40
167.5
  0
CIRCLE
  8
1
 62
7
 10
-303.1879118835107
 20
-73.69069828178009
 30
0
 40
5.5
  0
CIRCLE
  8
1
 62
7
 10
-175.3541277525623
 20
-30.34164608531998
 30
0
 40
4.500000000000117
  0
CIRCLE
  8
1
 62
3
 10
-142.2962831755395
 20
19.13291460995231
 30
0
 40
4
  0
CIRCLE
  8
1
 62
7
 10
-142.2962831755395
 20
19.13291460995231
 30
0
 40
3.199999999999989
  0
CIRCLE
  8
1
 62
7
 10
-130.6879118835107
 20
77.49213804562849
 30
0
 40
4.5
  0
CIRCLE
  8
1
 62
7
 10
-175.3541277525623
 20
185.3259221765769
 30
0
 40
4.499999999999976
  0
CIRCLE
  8
1
 62
7
 10
-391.0216960144592
 20
185.325922176577
 30
0
 40
4.500000000000036
  0
CIRCLE
  8
1
 62
3
 10
-283.1879118835107
 20
77.49213804562851
 30
0
 40
130
  0
CIRCLE
  8
1
 62
7
 10
-283.1879118835107
 20
77.49213804562851
 30
0
 40
123
  0
CIRCLE
  8
1
 62
7
 10
-283.1879118835107
 20
77.49213804562851
 30
0
 40
165
  0
CIRCLE
  8
1
 62
7
 10
-283.1879118835107
 20
77.49213804562851
 30
0
 40
119.5
  0
CIRCLE
  8
1
 62
7
 10
-325.3203562550545
 20
112.8454565783882
 30
0
 40
14
  0
CIRCLE
  8
1
 62
7
 10
-338.1879118835107
 20
77.49213804562852
 30
0
 40
14
  0
CIRCLE
  8
1
 62
7
 10
-325.3203562550544
 20
42.13881951286891
 30
0
 40
14.00000000000005
  0
CIRCLE
  8
1
 62
7
 10
-241.0554675119668
 20
112.8454565783882
 30
0
 40
14
  0
CIRCLE
  8
1
 62
7
 10
-228.1879118835107
 20
77.49213804562852
 30
0
 40
14.00000000000007
  0
CIRCLE
  8
1
 62
7
 10
-241.0554675119669
 20
42.13881951286891
 30
0
 40
14.00000000000004
  0
CIRCLE
  8
1
 62
7
 10
-283.1879118835107
 20
77.49213804562851
 30
0
 40
37.5
  0
CIRCLE
  8
1
 62
7
 10
-325.3203562550545
 20
112.8454565783882
 30
0
 40
8
  0
CIRCLE
  8
1
 62
7
 10
-325.3203562550545
 20
112.8454565783882
 30
0
 40
11.5
  0
CIRCLE
  8
1
 62
7
 10
-338.1879118835107
 20
77.49213804562852
 30
0
 40
11.49999999999995
  0
CIRCLE
  8
1
 62
7
 10
-338.1879118835107
 20
77.49213804562852
 30
0
 40
7.999999999999963
  0
CIRCLE
  8
1
 62
7
 10
-325.3203562550544
 20
42.13881951286891
 30
0
 40
8.00000000000005
  0
CIRCLE
  8
1
 62
7
 10
-325.3203562550544
 20
42.13881951286891
 30
0
 40
14.00000000000005
  0
CIRCLE
  8
1
 62
7
 10
-325.3203562550544
 20
42.13881951286891
 30
0
 40
11.50000000000003
  0
CIRCLE
  8
1
 62
7
 10
-241.0554675119669
 20
42.13881951286891
 30
0
 40
8.000000000000011
  0
CIRCLE
  8
1
 62
7
 10
-241.0554675119669
 20
42.13881951286891
 30
0
 40
11.50000000000001
  0
CIRCLE
  8
1
 62
7
 10
-228.1879118835107
 20
77.49213804562852
 30
0
 40
11.49999999999997
  0
CIRCLE
  8
1
 62
7
 10
-228.1879118835107
 20
77.49213804562852
 30
0
 40
7.999999999999985
  0
CIRCLE
  8
1
 62
7
 10
-241.0554675119668
 20
112.8454565783882
 30
0
 40
11.49999999999992
  0
CIRCLE
  8
1
 62
7
 10
-241.0554675119668
 20
112.8454565783882
 30
0
 40
7.999999999999915
  0
CIRCLE
  8
1
 62
3
 10
556.7034263383048
 20
180.1161483940845
 30
0
 40
4.278000000000068
  0
CIRCLE
  8
1
 62
7
 10
556.7034263383048
 20
180.1161483940845
 30
0
 40
4.863999999999862
  0
CIRCLE
  8
1
 62
7
 10
556.7034263383048
 20
180.1161483940845
 30
0
 40
2.886751345948008
  0
CIRCLE
  8
1
 62
7
 10
-283.1879118835107
 20
77.49213804562851
 30
0
 40
22.5
  0
ARC
  8
1
 62
7
 10
653.4691623898186
 20
35.76277063723825
 30
0
 40
3.4999999999998
 50
345.0256749425822
 51
73.78984991396759
  0
ARC
  8
1
 62
7
 10
653.4317008532391
 20
35.62296227939459
 30
0
 40
3.499999999999939
 50
256.2101500860353
 51
344.9743250574143
  0
ARC
  8
1
 62
7
 10
611.7023334448481
 20
-36.65442223964885
 30
0
 40
3.499999999999843
 50
315.0256749425828
 51
43.78984991396683
  0
ARC
  8
1
 62
7
 10
611.5999866235837
 20
-36.75676906091314
 30
0
 40
3.499999999999948
 50
226.2101500860353
 51
314.9743250574147
  0
ARC
  8
1
 62
7
 10
539.3226021045409
 20
-78.48613646930528
 30
0
 40
3.499999999999878
 50
285.0256749425836
 51
13.78984991396674
  0
ARC
  8
1
 62
7
 10
539.1827937466973
 20
-78.52359800588454
 30
0
 40
3.499999999999933
 50
196.2101500860351
 51
284.9743250574154
  0
ARC
  8
1
 62
7
 10
455.724058929914
 20
-78.52359800588505
 30
0
 40
3.499999999999937
 50
255.0256749425847
 51
343.7898499139667
  0
ARC
  8
1
 62
7
 10
455.5842505720704
 20
-78.48613646930568
 30
0
 40
3.499999999999988
 50
166.2101500860355
 51
254.9743250574136
  0
ARC
  8
1
 62
7
 10
383.3068660530271
 20
-36.75676906091445
 30
0
 40
3.499999999999929
 50
225.0256749425853
 51
313.7898499139667
  0
ARC
  8
1
 62
7
 10
383.2045192317628
 20
-36.6544222396501
 30
0
 40
3.499999999999902
 50
136.2101500860346
 51
224.9743250574147
  0
ARC
  8
1
 62
7
 10
341.4751518233709
 20
35.62296227939282
 30
0
 40
3.499999999999961
 50
195.025674942585
 51
283.7898499139661
  0
ARC
  8
1
 62
7
 10
341.4376902867916
 20
35.76277063723643
 30
0
 40
3.50000000000002
 50
106.2101500860366
 51
194.9743250574145
  0
ARC
  8
1
 62
7
 10
341.4376902867913
 20
119.2215054540197
 30
0
 40
3.499999999999994
 50
165.0256749425847
 51
253.7898499139673
  0
ARC
  8
1
 62
7
 10
341.4751518233707
 20
119.3613138118633
 30
0
 40
3.49999999999996
 50
76.21015008603636
 51
164.9743250574141
  0
ARC
  8
1
 62
7
 10
383.2045192317621
 20
191.6386983309066
 30
0
 40
3.499999999999949
 50
135.025674942585
 51
223.7898499139681
  0
ARC
  8
1
 62
7
 10
383.3068660530264
 20
191.7410451521707
 30
0
 40
3.500000000000027
 50
46.21015008603783
 51
134.9743250574124
  0
ARC
  8
1
 62
7
 10
455.5842505720694
 20
233.4704125605625
 30
0
 40
3.500000000000086
 50
105.0256749425836
 51
193.7898499139658
  0
ARC
  8
1
 62
7
 10
455.724058929913
 20
233.5078740971418
 30
0
 40
3.500000000000113
 50
16.21015008603522
 51
104.9743250574124
  0
ARC
  8
1
 62
7
 10
539.1827937466962
 20
233.5078740971419
 30
0
 40
3.500000000000101
 50
75.02567494258544
 51
163.7898499139653
  0
ARC
  8
1
 62
7
 10
539.3226021045398
 20
233.4704125605625
 30
0
 40
3.499999999999974
 50
346.2101500860364
 51
74.97432505741227
  0
ARC
  8
1
 62
7
 10
611.5999866235829
 20
191.741045152171
 30
0
 40
3.500000000000029
 50
45.02567494258562
 51
133.7898499139651
  0
ARC
  8
1
 62
7
 10
611.7023334448471
 20
191.6386983309067
 30
0
 40
3.500000000000064
 50
316.2101500860359
 51
44.97432505741175
  0
ARC
  8
1
 62
7
 10
653.4317008532388
 20
119.3613138118635
 30
0
 40
3.500000000000055
 50
15.02567494258711
 51
103.7898499139642
  0
ARC
  8
1
 62
7
 10
653.4691623898181
 20
119.2215054540201
 30
0
 40
3.500000000000072
 50
286.2101500860354
 51
14.97432505741165
  0
ARC
  8
1
 62
7
 10
477.4534263383047
 20
31.66638109607011
 30
0
 40
3
 50
0
 51
66.42182152179844
  0
ARC
  8
1
 62
7
 10
468.9945532528971
 20
118.6028731729484
 30
0
 40
3.000000000000008
 50
226.2101500860354
 51
304.6928875545249
  0
ARC
  8
1
 62
7
 10
429.9534263383048
 20
-125.0078619543715
 30
0
 40
25
 50
90
 51
180
  0
ARC
  8
1
 62
7
 10
339.9534263383048
 20
-155.0078619543715
 30
0
 40
10
 50
180
 51
270
  0
ARC
  8
1
 62
7
 10
394.9534263383048
 20
-155.0078619543715
 30
0
 40
10
 50
270
 51
0
  0
ARC
  8
1
 62
7
 10
564.9534263383049
 20
-125.0078619543715
 30
0
 40
25
 50
0
 51
90
  0
ARC
  8
1
 62
7
 10
599.9534263383049
 20
-155.0078619543715
 30
0
 40
10
 50
180
 51
270
  0
ARC
  8
1
 62
7
 10
654.9534263383049
 20
-155.0078619543715
 30
0
 40
10
 50
270
 51
0
  0
ARC
  8
1
 62
7
 10
525.9122994237125
 20
118.6028731729484
 30
0
 40
3.000000000000048
 50
235.3071124454742
 51
313.7898499139646
  0
ARC
  8
1
 62
7
 10
468.9945532528971
 20
36.38140291830859
 30
0
 40
2.999999999999977
 50
55.30711244547587
 51
133.7898499139645
  0
ARC
  8
1
 62
7
 10
525.9122994237125
 20
36.38140291830857
 30
0
 40
3.000000000000002
 50
46.21015008603529
 51
124.6928875545261
  0
ARC
  8
1
 62
7
 10
517.4534263383048
 20
123.3178949951869
 30
0
 40
3
 50
180
 51
246.4218215217974
  0
ARC
  8
1
 62
7
 10
517.4534263383048
 20
144.4921380456285
 30
0
 40
3
 50
90
 51
180
  0
ARC
  8
1
 62
7
 10
519.4716084841061
 20
150.4921380456285
 30
0
 40
3
 50
270
 51
346.2101500860361
  0
ARC
  8
1
 62
7
 10
511.1866229289942
 20
160.4921380456285
 30
0
 40
3
 50
270
 51
343.7898499139646
  0
ARC
  8
1
 62
7
 10
477.4534263383047
 20
144.4921380456285
 30
0
 40
3
 50
0
 51
90
  0
ARC
  8
1
 62
7
 10
475.4352441925034
 20
150.4921380456285
 30
0
 40
2.999999999999883
 50
193.7898499139647
 51
270
  0
ARC
  8
1
 62
7
 10
483.7202297476154
 20
160.4921380456285
 30
0
 40
3.000000000000192
 50
196.2101500860348
 51
270
  0
ARC
  8
1
 62
7
 10
477.4534263383047
 20
123.3178949951869
 30
0
 40
2.999999999999996
 50
293.5781784782016
 51
0
  0
ARC
  8
1
 62
7
 10
477.4534263383047
 20
10.49213804562852
 30
0
 40
2.999999999999998
 50
270
 51
0
  0
ARC
  8
1
 62
7
 10
475.4352441925034
 20
4.492138045628522
 30
0
 40
3
 50
90
 51
166.2101500860348
  0
ARC
  8
1
 62
7
 10
483.7202297476154
 20
-5.507861954371478
 30
0
 40
3
 50
90
 51
163.7898499139658
  0
ARC
  8
1
 62
7
 10
511.1866229289942
 20
-5.507861954371478
 30
0
 40
3.000000000000074
 50
16.21015008603485
 51
90
  0
ARC
  8
1
 62
7
 10
517.4534263383048
 20
10.49213804562852
 30
0
 40
3
 50
180
 51
270
  0
ARC
  8
1
 62
7
 10
519.4716084841061
 20
4.492138045628522
 30
0
 40
3.000000000000056
 50
13.78984991396442
 51
90
  0
ARC
  8
1
 62
7
 10
517.4534263383048
 20
31.66638109607011
 30
0
 40
3.000000000000025
 50
113.5781784782026
 51
180
  0
ARC
  8
1
 62
7
 10
126.5425322186945
 20
240.4921380456285
 30
0
 40
1.999999999999948
 50
23.13569725733674
 51
90
  0
ARC
  8
1
 62
7
 10
67.86290008055596
 20
220.2071007319648
 30
0
 40
3
 50
180
 51
264.2894068625006
  0
ARC
  8
1
 62
7
 10
126.5425322186945
 20
-85.50786195437149
 30
0
 40
2
 50
270
 51
336.8643027426629
  0
ARC
  8
1
 62
7
 10
67.86290008055596
 20
-65.22282464070774
 30
0
 40
2.999999999999985
 50
95.71059313749953
 51
180
  0
ARC
  8
1
 62
7
 10
99.90015961695724
 20
240.4921380456285
 30
0
 40
2
 50
90
 51
171.9571057664952
  0
ARC
  8
1
 62
7
 10
90.79427031235537
 20
197.4921380456285
 30
0
 40
1
 50
270
 51
351.9571057664968
  0
ARC
  8
1
 62
7
 10
90.79427031235537
 20
-42.50786195437146
 30
0
 40
1.000000000000015
 50
8.042894233504418
 51
90
  0
ARC
  8
1
 62
7
 10
99.90015961695724
 20
-85.50786195437146
 30
0
 40
2.000000000000032
 50
188.0428942335048
 51
270
  0
ARC
  8
1
 62
7
 10
-350.6879118835107
 20
-125.0078619543715
 30
0
 40
25
 50
90
 51
180
  0
ARC
  8
1
 62
7
 10
-440.6879118835107
 20
-155.0078619543715
 30
0
 40
10
 50
180
 51
270
  0
ARC
  8
1
 62
7
 10
-385.6879118835107
 20
-155.0078619543715
 30
0
 40
10
 50
270
 51
0
  0
ARC
  8
1
 62
7
 10
-215.6879118835105
 20
-125.0078619543715
 30
0
 40
25
 50
0
 51
90
  0
ARC
  8
1
 62
7
 10
-180.6879118835105
 20
-155.0078619543715
 30
0
 40
10
 50
180
 51
270
  0
ARC
  8
1
 62
7
 10
-125.6879118835105
 20
-155.0078619543715
 30
0
 40
10
 50
270
 51
0
  0
ARC
  8
1
 62
7
 10
-308.4825892606673
 20
186.0850903785749
 30
0
 40
3.999999999999989
 50
9.266446354074445
 51
103.1121648142777
  0
ARC
  8
1
 62
7
 10
-333.6132690971514
 20
176.9382709512208
 30
0
 40
4.000000000000009
 50
116.8878351857234
 51
210.7335536459227
  0
ARC
  8
1
 62
7
 10
-344.0981106810568
 20
170.8848448403425
 30
0
 40
4.000000000000035
 50
29.26644635407567
 51
123.1121648142768
  0
ARC
  8
1
 62
7
 10
-364.5848285872166
 20
153.6944474012509
 30
0
 40
3.999999999999993
 50
136.8878351857229
 51
230.7335536459249
  0
ARC
  8
1
 62
7
 10
-372.3669631876677
 20
144.4200605331115
 30
0
 40
3.999999999999965
 50
49.26644635407548
 51
143.1121648142768
  0
ARC
  8
1
 62
7
 10
-385.7387186322652
 20
121.2595007166828
 30
0
 40
4.000000000000124
 50
156.8878351857231
 51
250.7335536459229
  0
ARC
  8
1
 62
7
 10
-389.8795059643732
 20
109.8827810229526
 30
0
 40
3.999999999999973
 50
69.26644635407536
 51
163.1121648142777
  0
ARC
  8
1
 62
7
 10
-394.5234678946976
 20
83.54556415650691
 30
0
 40
3.999999999999963
 50
176.8878351857235
 51
270.7335536459237
  0
ARC
  8
1
 62
7
 10
-394.5234678946976
 20
71.43871193475019
 30
0
 40
3.999999999999995
 50
89.26644635407631
 51
183.1121648142765
  0
ARC
  8
1
 62
7
 10
-360.9179682040732
 20
71.00843968726926
 30
0
 40
4.0000000000001
 50
4.768175601670042
 51
89.26644635407631
  0
ARC
  8
1
 62
7
 10
-358.4478276630227
 20
56.99957654490918
 30
0
 40
3.99999999999998
 50
290.7335536459229
 51
15.2318243983301
  0
ARC
  8
1
 62
7
 10
-389.8795059643732
 20
45.10149506830452
 30
0
 40
3.99999999999998
 50
196.8878351857238
 51
290.7335536459244
  0
ARC
  8
1
 62
7
 10
-360.9179682040732
 20
83.97583640398783
 30
0
 40
3.999999999999995
 50
270.7335536459237
 51
355.2318243983297
  0
ARC
  8
1
 62
7
 10
-358.4478276630227
 20
97.98469954634783
 30
0
 40
3.999999999999992
 50
344.7681756016701
 51
69.2664463540773
  0
ARC
  8
1
 62
7
 10
-354.0127167794099
 20
110.1700665518513
 30
0
 40
3.999999999999972
 50
250.7335536459245
 51
335.2318243983297
  0
ARC
  8
1
 62
7
 10
-347.6341461972413
 20
93.89131128026874
 30
0
 40
4.000000000000012
 50
69.26644635407557
 51
165.7233485932071
  0
ARC
  8
1
 62
7
 10
-347.6341461972412
 20
61.09296481098816
 30
0
 40
4.000000000000088
 50
194.2766514067925
 51
290.7335536459246
  0
ARC
  8
1
 62
7
 10
-343.0977769238174
 20
48.62939266594863
 30
0
 40
4.000000000000029
 50
109.266446354077
 51
205.7233485932069
  0
ARC
  8
1
 62
7
 10
-354.0127167794099
 20
44.81420953940565
 30
0
 40
3.999999999999926
 50
24.76817560167059
 51
109.266446354077
  0
ARC
  8
1
 62
7
 10
-385.7387186322652
 20
33.72477537457422
 30
0
 40
4.000000000000016
 50
109.266446354077
 51
203.1121648142762
  0
ARC
  8
1
 62
7
 10
-372.3669631876678
 20
10.56421555814558
 30
0
 40
3.999999999999915
 50
216.8878351857244
 51
310.7335536459253
  0
ARC
  8
1
 62
7
 10
-364.5848285872165
 20
1.289828690006161
 30
0
 40
4.000000000000018
 50
129.2664463540763
 51
223.1121648142766
  0
ARC
  8
1
 62
7
 10
-346.9002305609011
 20
32.4950220408149
 30
0
 40
4.000000000000005
 50
310.733553645924
 51
35.23182439832996
  0
ARC
  8
1
 62
7
 10
-338.5649486215045
 20
22.56141984425334
 30
0
 40
4.000000000000007
 50
44.7681756016699
 51
129.2664463540751
  0
ARC
  8
1
 62
7
 10
-327.6679875326063
 20
13.41778381360577
 30
0
 40
4.000000000000001
 50
330.7335536459235
 51
55.23182439833099
  0
ARC
  8
1
 62
7
 10
-344.0981106810569
 20
-15.90056874908539
 30
0
 40
3.999999999999988
 50
236.8878351857239
 51
330.7335536459235
  0
ARC
  8
1
 62
7
 10
-333.6132690971515
 20
-21.9539948599638
 30
0
 40
4.000000000000045
 50
149.2664463540766
 51
243.1121648142764
  0
ARC
  8
1
 62
7
 10
-316.4378925549775
 20
6.934085455246674
 30
0
 40
3.999999999999999
 50
64.76817560166965
 51
149.2664463540758
  0
ARC
  8
1
 62
7
 10
-310.5289159740499
 20
16.87267338846485
 30
0
 40
4.000000000000056
 50
149.2664463540764
 51
245.7233485932069
  0
ARC
  8
1
 62
7
 10
-322.0154061951577
 20
23.50440160966534
 30
0
 40
3.999999999999944
 50
234.2766514067934
 51
330.733553645925
  0
ARC
  8
1
 62
7
 10
-343.0977769238175
 20
106.3548834253083
 30
0
 40
3.999999999999987
 50
154.2766514067927
 51
250.733553645925
  0
ARC
  8
1
 62
7
 10
-322.0154061951577
 20
131.4798744815916
 30
0
 40
3.999999999999985
 50
29.26644635407607
 51
125.7233485932064
  0
ARC
  8
1
 62
7
 10
-338.5649486215045
 20
132.4228562470037
 30
0
 40
3.999999999999911
 50
230.7335536459245
 51
315.2318243983309
  0
ARC
  8
1
 62
7
 10
-346.900230560901
 20
122.4892540504422
 30
0
 40
3.999999999999983
 50
324.7681756016694
 51
49.26644635407611
  0
ARC
  8
1
 62
7
 10
-327.6679875326064
 20
141.5664922776512
 30
0
 40
4.000000000000003
 50
304.7681756016703
 51
29.26644635407607
  0
ARC
  8
1
 62
7
 10
-316.4378925549775
 20
148.0501906360103
 30
0
 40
3.999999999999982
 50
210.7335536459235
 51
295.2318243983289
  0
ARC
  8
1
 62
7
 10
-303.070790925029
 20
152.9154177477229
 30
0
 40
4
 50
284.7681756016706
 51
9.26644635407605
  0
ARC
  8
1
 62
7
 10
-310.5289159740501
 20
138.1116027027921
 30
0
 40
3.999999999999961
 50
114.2766514067925
 51
210.7335536459249
  0
ARC
  8
1
 62
7
 10
-276.0754256650018
 20
155.1671825566652
 30
0
 40
4.000000000000019
 50
264.7681756016691
 51
349.2664463540754
  0
ARC
  8
1
 62
7
 10
-290.3003981020194
 20
155.1671825566651
 30
0
 40
4.000000000000007
 50
190.733553645923
 51
275.2318243983294
  0
ARC
  8
1
 62
7
 10
-296.5596673281082
 20
188.1874232041657
 30
0
 40
4.000000000000035
 50
96.88783518572319
 51
190.7335536459232
  0
ARC
  8
1
 62
7
 10
-269.8161564389133
 20
188.1874232041657
 30
0
 40
4.000000000000063
 50
349.2664463540771
 51
83.1121648142768
  0
ARC
  8
1
 62
7
 10
-257.893234506354
 20
186.0850903785748
 30
0
 40
4.000000000000048
 50
76.88783518572268
 51
170.733553645924
  0
ARC
  8
1
 62
7
 10
-263.3050328419926
 20
152.9154177477229
 30
0
 40
4.000000000000025
 50
170.7335536459223
 51
255.2318243983293
  0
ARC
  8
1
 62
7
 10
-255.8469077929712
 20
138.1116027027921
 30
0
 40
3.999999999999952
 50
329.2664463540749
 51
65.72334859320712
  0
ARC
  8
1
 62
7
 10
-244.3604175718637
 20
131.4798744815915
 30
0
 40
4.000000000000048
 50
54.27665140679196
 51
150.7335536459239
  0
ARC
  8
1
 62
7
 10
-238.7078362344149
 20
141.5664922776511
 30
0
 40
3.999999999999985
 50
150.7335536459239
 51
235.2318243983306
  0
ARC
  8
1
 62
7
 10
-249.9379312120441
 20
148.0501906360104
 30
0
 40
3.999999999999921
 50
244.768175601671
 51
329.2664463540758
  0
ARC
  8
1
 62
7
 10
-232.7625546698699
 20
176.9382709512208
 30
0
 40
3.999999999999952
 50
329.2664463540749
 51
63.11216481427611
  0
ARC
  8
1
 62
7
 10
-222.2777130859645
 20
170.8848448403424
 30
0
 40
3.999999999999982
 50
56.88783518572388
 51
150.7335536459239
  0
ARC
  8
1
 62
7
 10
-201.7909951798049
 20
153.6944474012508
 30
0
 40
4.000000000000023
 50
309.2664463540768
 51
43.11216481427628
  0
ARC
  8
1
 62
7
 10
-227.8108751455168
 20
132.4228562470036
 30
0
 40
4.00000000000003
 50
224.7681756016696
 51
309.2664463540762
  0
ARC
  8
1
 62
7
 10
-219.4755932061205
 20
122.4892540504423
 30
0
 40
4.000000000000041
 50
130.7335536459236
 51
215.2318243983291
  0
ARC
  8
1
 62
7
 10
-212.3631069876116
 20
110.1700665518515
 30
0
 40
3.999999999999946
 50
204.7681756016702
 51
289.2664463540767
  0
ARC
  8
1
 62
7
 10
-223.2780468432039
 20
106.3548834253082
 30
0
 40
3.999999999999972
 50
289.2664463540755
 51
25.72334859320731
  0
ARC
  8
1
 62
7
 10
-218.7416775697802
 20
93.8913112802687
 30
0
 40
3.999999999999977
 50
14.27665140679287
 51
110.7335536459248
  0
ARC
  8
1
 62
7
 10
-207.9279961039987
 20
97.98469954634759
 30
0
 40
3.999999999999956
 50
110.7335536459235
 51
195.2318243983299
  0
ARC
  8
1
 62
7
 10
-205.4578555629482
 20
83.97583640398761
 30
0
 40
3.999999999999988
 50
184.7681756016702
 51
269.2664463540763
  0
ARC
  8
1
 62
7
 10
-218.7416775697803
 20
61.09296481098822
 30
0
 40
3.999999999999969
 50
249.2664463540766
 51
345.7233485932074
  0
ARC
  8
1
 62
7
 10
-207.9279961039987
 20
56.99957654490933
 30
0
 40
3.999999999999989
 50
164.7681756016703
 51
249.2664463540767
  0
ARC
  8
1
 62
7
 10
-171.8523558723239
 20
71.43871193475007
 30
0
 40
4.000000000000048
 50
356.8878351857234
 51
90.73355364592371
  0
ARC
  8
1
 62
7
 10
-176.4963178026483
 20
45.10149506830445
 30
0
 40
3.99999999999999
 50
249.2664463540768
 51
343.1121648142764
  0
ARC
  8
1
 62
7
 10
-171.8523558723239
 20
83.54556415650689
 30
0
 40
3.999999999999995
 50
269.2664463540763
 51
3.11216481427654
  0
ARC
  8
1
 62
7
 10
-176.4963178026483
 20
109.8827810229524
 30
0
 40
3.999999999999951
 50
16.88783518572381
 51
110.733553645923
  0
ARC
  8
1
 62
7
 10
-180.6371051347562
 20
121.2595007166827
 30
0
 40
3.999999999999968
 50
289.2664463540759
 51
23.11216481427732
  0
ARC
  8
1
 62
7
 10
-194.0088605793537
 20
144.4200605331113
 30
0
 40
3.999999999999995
 50
36.8878351857232
 51
130.7335536459237
  0
ARC
  8
1
 62
7
 10
-223.278046843204
 20
48.62939266594869
 30
0
 40
4.000000000000022
 50
334.2766514067926
 51
70.7335536459242
  0
ARC
  8
1
 62
7
 10
-212.3631069876116
 20
44.81420953940545
 30
0
 40
4.00000000000002
 50
70.73355364592344
 51
155.2318243983293
  0
ARC
  8
1
 62
7
 10
-219.4755932061204
 20
32.49502204081471
 30
0
 40
4.000000000000059
 50
144.7681756016708
 51
229.2664463540764
  0
ARC
  8
1
 62
7
 10
-227.8108751455168
 20
22.56141984425346
 30
0
 40
4.000000000000018
 50
50.73355364592314
 51
135.2318243983295
  0
ARC
  8
1
 62
7
 10
-238.7078362344149
 20
13.41778381360588
 30
0
 40
3.999999999999963
 50
124.7681756016692
 51
209.2664463540761
  0
ARC
  8
1
 62
7
 10
-201.7909951798049
 20
1.289828690006132
 30
0
 40
3.999999999999942
 50
316.887835185723
 51
50.73355364592315
  0
ARC
  8
1
 62
7
 10
-194.0088605793537
 20
10.56421555814563
 30
0
 40
4.000000000000012
 50
229.2664463540761
 51
323.1121648142766
  0
ARC
  8
1
 62
7
 10
-222.2777130859646
 20
-15.90056874908539
 30
0
 40
4.000000000000011
 50
209.2664463540759
 51
303.1121648142772
  0
ARC
  8
1
 62
7
 10
-232.76255466987
 20
-21.95399485996379
 30
0
 40
3.999999999999984
 50
296.8878351857239
 51
30.73355364592383
  0
ARC
  8
1
 62
7
 10
-180.6371051347562
 20
33.7247753745742
 30
0
 40
3.999999999999914
 50
336.887835185723
 51
70.73355364592418
  0
ARC
  8
1
 62
7
 10
-257.893234506354
 20
-31.10081428731779
 30
0
 40
4.000000000000009
 50
189.2664463540763
 51
283.1121648142774
  0
ARC
  8
1
 62
7
 10
-269.8161564389133
 20
-33.20314711290868
 30
0
 40
4.000000000000013
 50
276.8878351857233
 51
10.73355364592358
  0
ARC
  8
1
 62
7
 10
-276.0754256650017
 20
-0.182906465408152
 30
0
 40
3.999999999999957
 50
10.73355364592359
 51
95.2318243983301
  0
ARC
  8
1
 62
7
 10
-263.3050328419926
 20
2.068858343534188
 30
0
 40
3.999999999999997
 50
104.768175601669
 51
189.2664463540764
  0
ARC
  8
1
 62
7
 10
-249.9379312120442
 20
6.934085455246631
 30
0
 40
4.000000000000029
 50
30.73355364592376
 51
115.2318243983291
  0
ARC
  8
1
 62
7
 10
-290.3003981020195
 20
-0.1829064654081662
 30
0
 40
4.000000000000005
 50
84.76817560166907
 51
169.2664463540758
  0
ARC
  8
1
 62
7
 10
-296.5596673281082
 20
-33.20314711290865
 30
0
 40
4.00000000000002
 50
169.2664463540761
 51
263.1121648142768
  0
ARC
  8
1
 62
7
 10
-308.4825892606673
 20
-31.1008142873178
 30
0
 40
4.000000000000017
 50
256.8878351857226
 51
350.7335536459241
  0
ARC
  8
1
 62
7
 10
-303.070790925029
 20
2.068858343534174
 30
0
 40
4.000000000000004
 50
350.7335536459241
 51
75.23182439832938
  0
ARC
  8
1
 62
7
 10
-255.8469077929714
 20
16.8726733884649
 30
0
 40
4.000000000000007
 50
294.2766514067927
 51
30.73355364592383
  0
ARC
  8
1
 62
7
 10
-244.3604175718637
 20
23.50440160966539
 30
0
 40
3.999999999999968
 50
209.2664463540756
 51
305.7233485932069
  0
ARC
  8
1
 62
7
 10
-310.943441384166
 20
109.6772368048098
 30
0
 40
5.000000000000002
 50
310.7735656519204
 51
29.26644635407501
  0
ARC
  8
1
 62
7
 10
-297.183260281945
 20
117.6216810682751
 30
0
 40
5.000000000000042
 50
210.733553645925
 51
289.2264343480798
  0
ARC
  8
1
 62
7
 10
-269.1925634850763
 20
117.6216810682751
 30
0
 40
5.000000000000047
 50
250.7735656519203
 51
329.266446354075
  0
ARC
  8
1
 62
7
 10
-255.4323823828553
 20
109.6772368048097
 30
0
 40
4.999999999999984
 50
150.7335536459245
 51
229.2264343480798
  0
ARC
  8
1
 62
7
 10
-246.6720799760358
 20
99.23711493927092
 30
0
 40
5.000000000000098
 50
210.7735656519197
 51
289.2664463540755
  0
ARC
  8
1
 62
7
 10
-241.2377600447695
 20
84.30644363802435
 30
0
 40
5.000000000000013
 50
110.7335536459245
 51
189.2264343480797
  0
ARC
  8
1
 62
7
 10
-241.2377600447695
 20
70.6778324532327
 30
0
 40
5.000000000000027
 50
170.7735656519203
 51
249.2664463540755
  0
ARC
  8
1
 62
7
 10
-246.6720799760359
 20
55.74716115198613
 30
0
 40
5.000000000000021
 50
70.73355364592351
 51
149.2264343480802
  0
ARC
  8
1
 62
7
 10
-255.4323823828553
 20
45.3070392864473
 30
0
 40
4.999999999999994
 50
130.7735656519201
 51
209.2664463540756
  0
ARC
  8
1
 62
7
 10
-269.1925634850763
 20
37.36259502298196
 30
0
 40
4.999999999999911
 50
30.73355364592501
 51
109.22643434808
  0
ARC
  8
1
 62
7
 10
-297.183260281945
 20
37.36259502298195
 30
0
 40
4.999999999999987
 50
70.77356565192
 51
149.2664463540758
  0
ARC
  8
1
 62
7
 10
-310.943441384166
 20
45.30703928644724
 30
0
 40
5.000000000000067
 50
330.7335536459248
 51
49.22643434807965
  0
ARC
  8
1
 62
7
 10
-319.7037437909855
 20
55.74716115198612
 30
0
 40
5.000000000000011
 50
30.77356565191994
 51
109.2664463540756
  0
ARC
  8
1
 62
7
 10
-325.1380637222519
 20
70.67783245323265
 30
0
 40
4.999999999999999
 50
290.7335536459245
 51
9.226434348080078
  0
ARC
  8
1
 62
7
 10
-325.138063722252
 20
84.30644363802438
 30
0
 40
5.000000000000028
 50
350.7735656519201
 51
69.26644635407556
  0
ARC
  8
1
 62
7
 10
-319.7037437909855
 20
99.23711493927095
 30
0
 40
5.000000000000006
 50
250.7335536459245
 51
329.2264343480799
  0
ARC
  8
1
 62
7
 10
-205.4578555629484
 20
71.00843968726943
 30
0
 40
3.999999999999995
 50
90.73355364592371
 51
175.23182439833
  0
TEXT
  8
1
 62
7
 10
-435.136619662319
 20
293.079731256201
 30
0
 40
15
  1
ACSB 100
 41
0.9
  7
SIMPLEX
 72
1
 11
-381.136619662319
 21
293.079731256201
 31
0
  0
ENDSEC
  0
EOF
