  0
SECTION
  2
HEADER
  9
$ACADVER
  1
AC1009
  9
$INSBASE
 10
0
 20
0
  9
$EXTMIN
 10
-1023.316294184403
 20
840.9782153122822
  9
$EXTMAX
 10
286.5377372701454
 20
1400.53877336869
  9
$LIMMIN
 10
-1023.316294184403
 20
840.9782153122822
  9
$LIMMAX
 10
286.5377372701454
 20
1400.53877336869
  9
$VIEWCTR
 10
10
 20
10
  9
$VIEWSIZE
 40
10
  9
$SNAPMODE
 70
0
  9
$SNAPUNIT
 10
1
 20
1
  9
$SNAPBASE
 10
0
 20
0
  9
$SNAPANG
 50
0
  9
$SNAPSTYLE
 70
0
  9
$SNAPISOPAIR
 70
0
  9
$GRIDMODE
 70
0
  9
$GRIDUNIT
 10
0
 20
0
  9
$ORTHOMODE
 70
0
  9
$REGENMODE
 70
1
  9
$FILLMODE
 70
1
  9
$QTEXTMODE
 70
0
  9
$DRAGMODE
 70
2
  9
$LTSCALE
 40
1
  9
$OSMODE
 70
0
  9
$ATTMODE
 70
1
  9
$TEXTSIZE
 40
3.5
  9
$TRACEWID
 40
0.5
  9
$TEXTSTYLE
  7
STANDARD
  9
$CLAYER
  8
0
  9
$CELTYPE
  6
BYLAYER
  9
$CECOLOR
 62
256
  9
$DIMSCALE
 40
1
  9
$DIMASZ
 40
0.18
  9
$DIMEXO
 40
0.0625
  9
$DIMDLI
 40
0.38
  9
$DIMRND
 40
0
  9
$DIMDLE
 40
0
  9
$DIMEXE
 40
0.18
  9
$DIMTP
 40
0
  9
$DIMTM
 40
0
  9
$DIMTXT
 40
0.18
  9
$DIMCEN
 40
0.09
  9
$DIMTSZ
 40
0
  9
$DIMTOL
 70
0
  9
$DIMLIM
 70
0
  9
$DIMTIH
 70
1
  9
$DIMTOH
 70
1
  9
$DIMSE1
 70
0
  9
$DIMSE2
 70
0
  9
$DIMTAD
 70
0
  9
$DIMZIN
 70
0
  9
$DIMBLK
  1

  9
$DIMASO
 70
1
  9
$DIMSHO
 70
1
  9
$DIMPOST
  1

  9
$DIMAPOST
  1

  9
$DIMALT
 70
0
  9
$DIMALTD
 70
2
  9
$DIMALTF
 40
25.4
  9
$DIMLFAC
 40
1
  9
$DIMTOFL
 70
0
  9
$DIMTVP
 40
0
  9
$DIMTIX
 70
0
  9
$DIMSOXD
 70
0
  9
$DIMSAH
 70
0
  9
$DIMBLK1
  1

  9
$DIMBLK2
  1

  9
$DIMSTYLE
  2
*UNNAMED
  9
$DIMCLRD
 70
0
  9
$DIMCLRE
 70
0
  9
$DIMCLRT
 70
0
  9
$DIMTFAC
 40
1
  9
$DIMGAP
 40
0.09
  9
$LUNITS
 70
2
  9
$LUPREC
 70
4
  9
$AXISMODE
 70
0
  9
$AXISUNIT
 10
0
 20
0
  9
$SKETCHINC
 40
0.1
  9
$FILLETRAD
 40
2
  9
$AUNITS
 70
0
  9
$AUPREC
 70
0
  9
$MENU
  1
ACAD
  9
$ELEVATION
 40
0
  9
$THICKNESS
 40
0
  9
$VIEWDIR
 10
0
 20
0
 30
1
  9
$LIMCHECK
 70
0
  9
$BLIPMODE
 70
1
  9
$CHAMFERA
 40
0
  9
$CHAMFERB
 40
0
  9
$FASTZOOM
 70
1
  9
$SKPOLY
 70
0
  9
$ANGBASE
 50
0
  9
$ANGDIR
 70
0
  9
$PDMODE
 70
0
  9
$PDSIZE
 40
0
  9
$PLINEWID
 40
0
  9
$COORDS
 70
2
  0
ENDSEC
  0
SECTION
  2
TABLES
  0
TABLE
  2
DIMSTYLE
 70
0
  0
ENDTAB
  0
TABLE
  2
LTYPE
 70
9
  0
LTYPE
  2
CONTINUOUS
 70
64
  3
Solid line
 72
65
 73
0
 40
0
  0
LTYPE
  2
BORDER
 70
64
  3
__ __ . __ __ .
 72
65
 73
6
 40
60.32222513277526
 49
17.23492146650722
 49
-8.617460733253608
 49
17.23492146650722
 49
-8.617460733253608
 49
0
 49
-8.617460733253608
  0
LTYPE
  2
CENTER
 70
64
  3
____ _ ____ _
 72
65
 73
4
 40
68.93968586602887
 49
43.08730366626804
 49
-8.617460733253608
 49
8.617460733253608
 49
-8.617460733253608
  0
LTYPE
  2
DASHDOT
 70
64
  3
__ . __ . __ .
 72
65
 73
4
 40
34.46984293301443
 49
17.23492146650722
 49
-8.617460733253608
 49
0
 49
-8.617460733253608
  0
LTYPE
  2
DASHED
 70
64
  3
__ __ __ __ __
 72
65
 73
2
 40
25.85238219976083
 49
17.23492146650722
 49
-8.617460733253608
  0
LTYPE
  2
DIVIDE
 70
64
  3
__ . . __ . . 
 72
65
 73
6
 40
43.08730366626804
 49
17.23492146650722
 49
-8.617460733253608
 49
0
 49
-8.617460733253608
 49
0
 49
-8.617460733253608
  0
LTYPE
  2
DOT
 70
64
  3
..............
 72
65
 73
4
 40
17.23492146650722
 49
0
 49
-8.617460733253608
 49
0
 49
-8.617460733253608
  0
LTYPE
  2
HIDDEN
 70
64
  3
_ _ _ _ _ _ _
 72
65
 73
2
 40
12.92619109988041
 49
8.617460733253608
 49
-4.308730366626804
  0
LTYPE
  2
PHANTOM
 70
64
  3
_____ _ _ _____ _ _ 
 72
65
 73
6
 40
86.17460733253608
 49
43.08730366626804
 49
-8.617460733253608
 49
8.617460733253608
 49
-8.617460733253608
 49
8.617460733253608
 49
-8.617460733253608
  0
ENDTAB
  0
TABLE
  2
LAYER
 70
3
  0
LAYER
  2
1
 70
0
 62
7
  6
CONTINUOUS
  0
LAYER
  2
0
 70
0
 62
7
  6
CONTINUOUS
  0
ENDTAB
  0
TABLE
  2
STYLE
 70
4
  0
STYLE
  2
STANDARD
 70
0
 40
0
 41
1
 50
0
 71
0
 42
3.5
  3
txt
  4

  0
STYLE
  2
SIMPLEX
 70
0
 40
0
 41
1
 50
0
 71
0
 42
3.5
  3
simplex
  4

  0
STYLE
  2
COMPLEX
 70
0
 40
0
 41
1
 50
0
 71
0
 42
3.5
  3
complex
  4

  0
STYLE
  2
ITALIC
 70
0
 40
0
 41
1
 50
0
 71
0
 42
3.5
  3
italic
  4

  0
ENDTAB
  0
TABLE
  2
VIEW
 70
0
  0
ENDTAB
  0
ENDSEC
  0
SECTION
  2
BLOCKS
  0
ENDSEC
  0
SECTION
  2
ENTITIES
  0
LINE
  8
1
 62
7
 10
-774.0795924414163
 20
1094.144891579943
 30
0
 11
-759.5764470445909
 21
1081.975307626556
 31
0
  0
LINE
  8
1
 62
7
 10
-760.6049072200892
 20
1080.749636517566
 30
0
 11
-775.1080526169151
 21
1092.919220470953
 31
0
  0
LINE
  8
1
 62
7
 10
-741.8500383247717
 20
1130.678215312282
 30
0
 11
-760.782550044034
 21
1130.678215312282
 31
0
  0
LINE
  8
1
 62
7
 10
-760.7825500440338
 20
1132.278215312282
 30
0
 11
-741.8500383247717
 21
1132.278215312282
 31
0
  0
LINE
  8
1
 62
7
 10
-759.5764470445907
 20
1180.981122998008
 30
0
 11
-774.0795924414165
 21
1168.811539044621
 31
0
  0
LINE
  8
1
 62
7
 10
-775.1080526169149
 20
1170.037210153612
 30
0
 11
-760.6049072200891
 21
1182.206794106999
 31
0
  0
LINE
  8
1
 62
7
 10
-880.0561413242144
 20
1081.975307626556
 30
0
 11
-865.552995927389
 21
1094.144891579943
 31
0
  0
LINE
  8
1
 62
7
 10
-864.5245357518902
 20
1092.919220470953
 30
0
 11
-879.0276811487161
 21
1080.749636517566
 31
0
  0
LINE
  8
1
 62
7
 10
-878.8500383247713
 20
1130.678215312282
 30
0
 11
-897.7825500440335
 21
1130.678215312282
 31
0
  0
LINE
  8
1
 62
7
 10
-897.7825500440335
 20
1132.278215312282
 30
0
 11
-878.8500383247715
 21
1132.278215312282
 31
0
  0
LINE
  8
1
 62
7
 10
-865.5529959273888
 20
1168.811539044621
 30
0
 11
-880.0561413242145
 21
1180.981122998008
 31
0
  0
LINE
  8
1
 62
7
 10
-879.0276811487162
 20
1182.206794106999
 30
0
 11
-864.5245357518904
 21
1170.037210153612
 31
0
  0
LINE
  8
1
 62
3
  6
DASHDOT
 10
-683.6982388059919
 20
1267.596270690692
 30
0
 11
-694.3048405237901
 21
1256.989668972894
 31
0
  0
LINE
  8
1
 62
3
  6
DASHDOT
 10
-627.3162941844028
 20
1131.478215312282
 30
0
 11
-642.3162941844028
 21
1131.478215312282
 31
0
  0
LINE
  8
1
 62
3
  6
DASHDOT
 10
-683.6982388059926
 20
995.3601599338713
 30
0
 11
-694.3048405237907
 21
1005.96676165167
 31
0
  0
LINE
  8
1
 62
3
  6
DASHDOT
 10
-819.816294184403
 20
938.978215312282
 30
0
 11
-819.816294184403
 21
953.978215312282
 31
0
  0
LINE
  8
1
 62
3
  6
DASHDOT
 10
-955.9343495628132
 20
995.3601599338718
 30
0
 11
-945.327747845015
 21
1005.96676165167
 31
0
  0
LINE
  8
1
 62
3
  6
DASHDOT
 10
-1012.316294184403
 20
1131.478215312282
 30
0
 11
-997.3162941844025
 21
1131.478215312282
 31
0
  0
LINE
  8
1
 62
3
  6
DASHDOT
 10
-955.9343495628127
 20
1267.596270690693
 30
0
 11
-945.3277478450145
 21
1256.989668972894
 31
0
  0
LINE
  8
1
 62
3
  6
DASHDOT
 10
-799.8162941844026
 20
939.0624737347866
 30
0
 11
-799.8162941844026
 21
956.0624737347866
 31
0
  0
LINE
  8
1
 62
3
  6
DASHDOT
 10
-655.3657373973936
 20
1063.360564351297
 30
0
 11
-642.4314239422361
 21
1058.002996298184
 31
0
  0
LINE
  8
1
 62
3
  6
DASHDOT
 10
-984.2668509714115
 20
1199.595866273267
 30
0
 11
-997.201164426569
 21
1204.95343432638
 31
0
  0
LINE
  8
1
 62
3
  6
DASHDOT
 10
-839.8162941844024
 20
1323.893956889777
 30
0
 11
-839.8162941844024
 21
1306.893956889777
 31
0
  0
LINE
  8
1
 62
3
  6
DASHDOT
 10
-819.8162941844024
 20
1323.978215312282
 30
0
 11
-819.8162941844024
 21
1308.978215312282
 31
0
  0
LINE
  8
1
 62
7
 10
132.1293789417659
 20
1270.576540432747
 30
0
 11
134.8420378795972
 21
1269.58921332366
 31
0
  0
LINE
  8
1
 62
7
 10
134.8420378795972
 20
1269.58921332366
 30
0
 11
135.3433169901986
 21
1266.746318217152
 31
0
  0
LINE
  8
1
 62
7
 10
135.3433169901986
 20
1266.746318217152
 30
0
 11
133.1319371629689
 21
1264.890750219731
 31
0
  0
LINE
  8
1
 62
7
 10
133.1319371629689
 20
1264.890750219731
 30
0
 11
130.4192782251376
 21
1265.878077328818
 31
0
  0
LINE
  8
1
 62
7
 10
130.4192782251376
 20
1265.878077328818
 30
0
 11
129.9179991145361
 21
1268.720972435326
 31
0
  0
LINE
  8
1
 62
7
 10
129.9179991145361
 20
1268.720972435326
 30
0
 11
132.1293789417659
 21
1270.576540432747
 31
0
  0
LINE
  8
1
 62
7
 10
-858.3162941844024
 20
1122.478215312282
 30
0
 11
-851.0452871236569
 21
1122.478215312282
 31
0
  0
LINE
  8
1
 62
7
 10
-858.3162941844024
 20
1140.478215312282
 30
0
 11
-858.3162941844024
 21
1122.478215312282
 31
0
  0
LINE
  8
1
 62
7
 10
-851.0452871236569
 20
1140.478215312282
 30
0
 11
-858.3162941844024
 21
1140.478215312282
 31
0
  0
LINE
  8
1
 62
7
  6
DASHED
 10
-440.1889529367759
 20
941.9782153122822
 30
0
 11
-429.1889529367759
 21
941.9782153122822
 31
0
  0
LINE
  8
1
 62
7
  6
DASHED
 10
-440.1889529367759
 20
950.9782153122822
 30
0
 11
-429.1889529367759
 21
950.9782153122822
 31
0
  0
LINE
  8
1
 62
7
  6
DASHED
 10
-429.1889529367759
 20
954.7282153122822
 30
0
 11
-418.1757544730779
 21
954.7282153122822
 31
0
  0
LINE
  8
1
 62
7
  6
DASHED
 10
-429.1889529367759
 20
938.2282153122822
 30
0
 11
-429.1889529367759
 21
954.7282153122822
 31
0
  0
LINE
  8
1
 62
7
  6
DASHED
 10
-418.1889529367759
 20
938.2282153122822
 30
0
 11
-429.1889529367759
 21
938.2282153122822
 31
0
  0
LINE
  8
1
 62
3
  6
DASHED
 10
-440.1889529367759
 20
1321.978215312282
 30
0
 11
-418.1889529367759
 21
1321.978215312282
 31
0
  0
LINE
  8
1
 62
3
  6
DASHED
 10
-418.1889529367759
 20
1310.978215312282
 30
0
 11
-440.1889529367759
 21
1310.978215312282
 31
0
  0
LINE
  8
1
 62
3
  6
DASHED
 10
-361.1889529367759
 20
871.478215312282
 30
0
 11
-371.1889529367759
 21
871.478215312282
 31
0
  0
LINE
  8
1
 62
3
  6
DASHED
 10
-371.1889529367759
 20
901.4782153122822
 30
0
 11
-361.1889529367759
 21
901.4782153122822
 31
0
  0
LINE
  8
1
 62
3
  6
DASHED
 10
-365.1889529367759
 20
1098.978215312282
 30
0
 11
-365.1889529367759
 21
1163.978215312282
 31
0
  0
LINE
  8
1
 62
3
  6
DASHED
 10
-365.1889529367759
 20
1098.978215312282
 30
0
 11
-453.1889529367759
 21
1098.978215312282
 31
0
  0
LINE
  8
1
 62
3
  6
DASHED
 10
-380.5478518803166
 20
1122.478215312282
 30
0
 11
-455.1889529367759
 21
1122.478215312282
 31
0
  0
LINE
  8
1
 62
3
  6
DASHED
 10
-453.1889529367759
 20
1122.478215312282
 30
0
 11
-453.1889529367759
 21
1098.978215312282
 31
0
  0
LINE
  8
1
 62
3
  6
DASHED
 10
-453.1889529367759
 20
1098.978215312282
 30
0
 11
-455.1889529367759
 21
1096.978215312282
 31
0
  0
LINE
  8
1
 62
3
  6
DASHED
 10
-453.1889529367759
 20
1163.978215312282
 30
0
 11
-453.1889529367759
 21
1140.478215312282
 31
0
  0
LINE
  8
1
 62
3
  6
DASHED
 10
-453.1889529367759
 20
1163.978215312282
 30
0
 11
-365.1889529367759
 21
1163.978215312282
 31
0
  0
LINE
  8
1
 62
3
  6
DASHED
 10
-455.1889529367759
 20
1140.478215312282
 30
0
 11
-380.5478518803166
 21
1140.478215312282
 31
0
  0
LINE
  8
1
 62
3
  6
DASHED
 10
-455.1889529367759
 20
1165.978215312282
 30
0
 11
-453.1889529367759
 21
1163.978215312282
 31
0
  0
LINE
  8
1
 62
3
  6
DASHED
 10
-327.1889529367759
 20
1090.478215312282
 30
0
 11
-327.1889529367759
 21
1087.978215312282
 31
0
  0
LINE
  8
1
 62
3
  6
DASHED
 10
-339.1889529367759
 20
1090.478215312282
 30
0
 11
-327.1889529367759
 21
1090.478215312282
 31
0
  0
LINE
  8
1
 62
3
  6
DASHED
 10
-339.1889529367759
 20
1087.978215312282
 30
0
 11
-339.1889529367759
 21
1090.478215312282
 31
0
  0
LINE
  8
1
 62
3
  6
DASHED
 10
-328.1889529367759
 20
1101.478215312282
 30
0
 11
-328.1889529367759
 21
1090.478215312282
 31
0
  0
LINE
  8
1
 62
3
  6
DASHED
 10
-338.1889529367759
 20
1090.478215312282
 30
0
 11
-338.1889529367759
 21
1101.478215312282
 31
0
  0
LINE
  8
1
 62
3
  6
DASHED
 10
-296.1889529367759
 20
1101.478215312282
 30
0
 11
-296.1889529367759
 21
1161.478215312282
 31
0
  0
LINE
  8
1
 62
3
  6
DASHED
 10
-295.1889529367759
 20
1100.478215312282
 30
0
 11
-296.1889529367759
 21
1101.478215312282
 31
0
  0
LINE
  8
1
 62
3
  6
DASHED
 10
-296.1889529367759
 20
1161.478215312282
 30
0
 11
-295.1889529367759
 21
1162.478215312282
 31
0
  0
LINE
  8
1
 62
3
  6
DASHED
 10
-365.1889529367759
 20
1101.478215312282
 30
0
 11
-296.1889529367759
 21
1101.478215312282
 31
0
  0
LINE
  8
1
 62
3
  6
DASHED
 10
-296.1889529367759
 20
1161.478215312282
 30
0
 11
-365.1889529367759
 21
1161.478215312282
 31
0
  0
LINE
  8
1
 62
7
 10
63.7877372701455
 20
1085.112189908498
 30
0
 11
63.7877372701455
 21
1073.844240716067
 31
0
  0
LINE
  8
1
 62
7
 10
73.7877372701455
 20
1087.178215312282
 30
0
 11
73.7877372701455
 21
1071.778215312282
 31
0
  0
LINE
  8
1
 62
7
 10
71.7877372701455
 20
1087.178215312282
 30
0
 11
73.7877372701455
 21
1087.178215312282
 31
0
  0
LINE
  8
1
 62
7
 10
71.7877372701455
 20
1071.778215312282
 30
0
 11
71.7877372701455
 21
1087.178215312282
 31
0
  0
LINE
  8
1
 62
7
 10
73.7877372701455
 20
1071.778215312282
 30
0
 11
71.7877372701455
 21
1071.778215312282
 31
0
  0
LINE
  8
1
 62
7
 10
73.7877372701455
 20
1081.478215312282
 30
0
 11
71.7877372701455
 21
1079.478215312282
 31
0
  0
LINE
  8
1
 62
7
 10
73.7877372701455
 20
1079.478215312282
 30
0
 11
71.7877372701455
 21
1077.478215312282
 31
0
  0
LINE
  8
1
 62
7
 10
115.5631325289918
 20
932.6206062970477
 30
0
 11
120.4871712940528
 21
933.4888471853824
 31
0
  0
LINE
  8
1
 62
7
 10
120.4871712940528
 20
933.4888471853824
 30
0
 11
102.1696898457051
 21
1041.977672473003
 31
0
  0
LINE
  8
1
 62
7
 10
96.0377372701455
 20
1044.478215312282
 30
0
 11
99.21155824880049
 21
1044.478215312282
 31
0
  0
LINE
  8
1
 62
7
 10
72.28720472155362
 20
1037.478215312282
 30
0
 11
93.78826981873732
 21
1037.478215312282
 31
0
  0
LINE
  8
1
 62
7
 10
96.73882866135682
 20
1035.020619696704
 30
0
 11
115.5631325289918
 21
932.6206062970477
 31
0
  0
LINE
  8
1
 62
7
 10
94.0377372701455
 20
1065.957226308758
 30
0
 11
94.0377372701455
 21
1046.478215312282
 31
0
  0
LINE
  8
1
 62
7
 10
181.6149191198188
 20
955.7375278816917
 30
0
 11
185.9450461387409
 21
958.2375278816917
 31
0
  0
LINE
  8
1
 62
7
 10
181.6149191198188
 20
955.7375278816917
 30
0
 11
113.3560766044442
 21
1072.005431560546
 31
0
  0
LINE
  8
1
 62
7
 10
185.9450461387409
 20
958.2375278816917
 30
0
 11
119.3835091657779
 21
1075.485371372354
 31
0
  0
LINE
  8
1
 62
7
 10
238.9907807837486
 20
1003.881592242374
 30
0
 11
144.1543705571277
 21
1084.640654149637
 31
0
  0
LINE
  8
1
 62
7
 10
235.776842735316
 20
1000.051370026779
 30
0
 11
139.7765226307248
 21
1079.423338155515
 31
0
  0
LINE
  8
1
 62
7
 10
235.776842735316
 20
1000.051370026779
 30
0
 11
238.9907807837486
 21
1003.881592242374
 31
0
  0
LINE
  8
1
 62
7
 10
271.516176042595
 20
1060.217229366956
 30
0
 11
273.2262767592233
 21
1064.915692470886
 31
0
  0
LINE
  8
1
 62
7
 10
273.2262767592233
 20
1064.915692470886
 30
0
 11
156.4879759590737
 21
1108.368424388532
 31
0
  0
LINE
  8
1
 62
7
 10
271.516176042595
 20
1060.217229366956
 30
0
 11
154.158571731795
 21
1101.968438873301
 31
0
  0
LINE
  8
1
 62
7
 10
120.9622062416513
 20
1086.281593168262
 30
0
 11
129.9612327772628
 21
1075.556970964597
 31
0
  0
LINE
  8
1
 62
7
 10
129.9612327772628
 20
1075.556970964597
 30
0
 11
135.5297327440708
 21
1075.143586431234
 31
0
  0
LINE
  8
1
 62
7
 10
135.5297327440708
 20
1187.81284419333
 30
0
 11
129.9612327772628
 21
1187.399459659968
 31
0
  0
LINE
  8
1
 62
7
 10
129.9612327772628
 20
1187.399459659968
 30
0
 11
120.9622062416513
 21
1176.674837456302
 31
0
  0
LINE
  8
1
 62
7
 10
129.762194072998
 20
1092.27174084205
 30
0
 11
128.4588683854342
 21
1084.880213565129
 31
0
  0
LINE
  8
1
 62
7
 10
128.4588683854342
 20
1084.880213565129
 30
0
 11
134.2084559362316
 21
1080.055736771833
 31
0
  0
LINE
  8
1
 62
7
 10
134.2084559362316
 20
1080.055736771833
 30
0
 11
141.2613691745929
 21
1082.622787255458
 31
0
  0
LINE
  8
1
 62
7
 10
141.2613691745929
 20
1082.622787255458
 30
0
 11
142.5646948621568
 21
1090.01431453238
 31
0
  0
LINE
  8
1
 62
7
 10
142.5646948621568
 20
1090.01431453238
 30
0
 11
136.8151073113593
 21
1094.838791325675
 31
0
  0
LINE
  8
1
 62
7
 10
136.8151073113593
 20
1094.838791325675
 30
0
 11
129.762194072998
 21
1092.27174084205
 31
0
  0
LINE
  8
1
 62
7
 10
144.0321837706804
 20
1131.478215312282
 30
0
 11
147.7849605204129
 21
1124.978215312282
 31
0
  0
LINE
  8
1
 62
7
 10
147.7849605204129
 20
1124.978215312282
 30
0
 11
155.290514019878
 21
1124.978215312282
 31
0
  0
LINE
  8
1
 62
7
 10
155.290514019878
 20
1124.978215312282
 30
0
 11
159.0432907696107
 21
1131.478215312282
 31
0
  0
LINE
  8
1
 62
7
 10
159.0432907696107
 20
1131.478215312282
 30
0
 11
155.2905140198781
 21
1137.978215312282
 31
0
  0
LINE
  8
1
 62
7
 10
155.2905140198781
 20
1137.978215312282
 30
0
 11
147.7849605204131
 21
1137.978215312282
 31
0
  0
LINE
  8
1
 62
7
 10
147.7849605204131
 20
1137.978215312282
 30
0
 11
144.0321837706804
 21
1131.478215312282
 31
0
  0
LINE
  8
1
 62
7
 10
129.762194072998
 20
1170.684689782514
 30
0
 11
136.8151073113592
 21
1168.117639298889
 31
0
  0
LINE
  8
1
 62
7
 10
136.8151073113592
 20
1168.117639298889
 30
0
 11
142.5646948621567
 21
1172.942116092184
 31
0
  0
LINE
  8
1
 62
7
 10
142.5646948621567
 20
1172.942116092184
 30
0
 11
141.2613691745929
 21
1180.333643369106
 31
0
  0
LINE
  8
1
 62
7
 10
141.2613691745929
 20
1180.333643369106
 30
0
 11
134.2084559362318
 21
1182.900693852731
 31
0
  0
LINE
  8
1
 62
7
 10
134.2084559362318
 20
1182.900693852731
 30
0
 11
128.4588683854342
 21
1178.076217059436
 31
0
  0
LINE
  8
1
 62
7
 10
128.4588683854342
 20
1178.076217059436
 30
0
 11
129.762194072998
 21
1170.684689782514
 31
0
  0
LINE
  8
1
 62
7
 10
72.0377372701455
 20
1046.478215312282
 30
0
 11
72.0377372701455
 21
1065.957226308758
 31
0
  0
LINE
  8
1
 62
7
 10
63.90578469458592
 20
1041.977672473003
 30
0
 11
45.58830324623813
 21
933.4888471853824
 31
0
  0
LINE
  8
1
 62
7
 10
66.86391629149051
 20
1044.478215312282
 30
0
 11
70.0377372701455
 21
1044.478215312282
 31
0
  0
LINE
  8
1
 62
7
 10
50.5123420112991
 20
932.6206062970477
 30
0
 11
69.33664587893412
 21
1035.020619696704
 31
0
  0
LINE
  8
1
 62
7
 10
45.58830324623813
 20
933.4888471853824
 30
0
 11
50.5123420112991
 21
932.6206062970477
 31
0
  0
LINE
  8
1
 62
7
 10
46.69196537451302
 20
1075.485371372354
 30
0
 11
-19.8695715984498
 21
958.2375278816917
 31
0
  0
LINE
  8
1
 62
7
 10
52.7193979358467
 20
1072.005431560546
 30
0
 11
-15.5394445795277
 21
955.7375278816917
 31
0
  0
LINE
  8
1
 62
7
 10
-19.8695715984498
 20
958.2375278816917
 30
0
 11
-15.5394445795277
 21
955.7375278816917
 31
0
  0
LINE
  8
1
 62
7
 10
93.78826981873732
 20
1225.478215312282
 30
0
 11
72.28720472155362
 21
1225.478215312282
 31
0
  0
LINE
  8
1
 62
7
 10
94.0377372701455
 20
1216.478215312282
 30
0
 11
94.0377372701455
 21
1196.999204315807
 31
0
  0
LINE
  8
1
 62
7
 10
72.0377372701455
 20
1196.999204315807
 30
0
 11
72.0377372701455
 21
1216.478215312282
 31
0
  0
LINE
  8
1
 62
7
 10
45.58830324623813
 20
1329.467583439182
 30
0
 11
63.90578469458592
 21
1220.978758151561
 31
0
  0
LINE
  8
1
 62
7
 10
70.0377372701455
 20
1218.478215312282
 30
0
 11
66.86391629149051
 21
1218.478215312282
 31
0
  0
LINE
  8
1
 62
7
 10
99.21155824880049
 20
1218.478215312282
 30
0
 11
96.0377372701455
 21
1218.478215312282
 31
0
  0
LINE
  8
1
 62
7
 10
102.1696898457051
 20
1220.978758151561
 30
0
 11
120.4871712940528
 21
1329.467583439182
 31
0
  0
LINE
  8
1
 62
7
 10
69.33664587893412
 20
1227.935810927861
 30
0
 11
50.5123420112991
 21
1330.335824327517
 31
0
  0
LINE
  8
1
 62
7
 10
115.5631325289918
 20
1330.335824327517
 30
0
 11
96.73882866135682
 21
1227.935810927861
 31
0
  0
LINE
  8
1
 62
7
 10
156.4879759590737
 20
1154.588006236033
 30
0
 11
273.2262767592233
 21
1198.040738153679
 31
0
  0
LINE
  8
1
 62
7
 10
154.158571731795
 20
1160.987991751264
 30
0
 11
271.516176042595
 21
1202.739201257608
 31
0
  0
LINE
  8
1
 62
7
 10
273.2262767592233
 20
1198.040738153679
 30
0
 11
271.516176042595
 21
1202.739201257608
 31
0
  0
LINE
  8
1
 62
7
 10
139.7765226307248
 20
1183.533092469049
 30
0
 11
235.776842735316
 21
1262.905060597785
 31
0
  0
LINE
  8
1
 62
7
 10
144.1543705571277
 20
1178.315776474927
 30
0
 11
238.9907807837486
 21
1259.07483838219
 31
0
  0
LINE
  8
1
 62
7
 10
238.9907807837486
 20
1259.07483838219
 30
0
 11
235.776842735316
 21
1262.905060597785
 31
0
  0
LINE
  8
1
 62
7
 10
119.3835091657779
 20
1187.47105925221
 30
0
 11
185.9450461387409
 21
1304.718902742873
 31
0
  0
LINE
  8
1
 62
7
 10
113.3560766044442
 20
1190.950999064018
 30
0
 11
181.6149191198188
 21
1307.218902742873
 31
0
  0
LINE
  8
1
 62
7
 10
185.9450461387409
 20
1304.718902742873
 30
0
 11
181.6149191198188
 21
1307.218902742873
 31
0
  0
LINE
  8
1
 62
7
 10
120.4871712940528
 20
1329.467583439182
 30
0
 11
115.5631325289918
 21
1330.335824327517
 31
0
  0
LINE
  8
1
 62
7
 10
50.5123420112991
 20
1330.335824327517
 30
0
 11
45.58830324623813
 21
1329.467583439182
 31
0
  0
LINE
  8
1
 62
7
 10
73.7877372701455
 20
1087.478215312282
 30
0
 11
73.7877372701455
 21
1073.207832612321
 31
0
  0
LINE
  8
1
 62
7
 10
43.7312492560784
 20
1087.478215312282
 30
0
 11
73.7877372701455
 21
1087.478215312282
 31
0
  0
LINE
  8
1
 62
7
 10
81.7877372701455
 20
1092.548278245803
 30
0
 11
81.7877372701455
 21
1071.491237558773
 31
0
  0
LINE
  8
1
 62
7
 10
84.2877372701455
 20
1071.491237558773
 30
0
 11
84.2877372701455
 21
1092.548278245803
 31
0
  0
LINE
  8
1
 62
7
 10
71.7877372701455
 20
1072.978215312282
 30
0
 11
64.2877372701455
 21
1072.978215312282
 31
0
  0
LINE
  8
1
 62
7
 10
64.2877372701455
 20
1072.978215312282
 30
0
 11
63.7877372701455
 21
1073.844240716067
 31
0
  0
LINE
  8
1
 62
7
 10
63.7877372701455
 20
1085.112189908498
 30
0
 11
64.2877372701455
 21
1085.978215312282
 31
0
  0
LINE
  8
1
 62
7
 10
64.2877372701455
 20
1085.978215312282
 30
0
 11
71.7877372701455
 21
1085.978215312282
 31
0
  0
LINE
  8
1
 62
7
 10
73.7877372701455
 20
1085.978215312282
 30
0
 11
73.7877372701455
 21
1072.978215312282
 31
0
  0
LINE
  8
1
 62
7
 10
64.2877372701455
 20
1072.978215312282
 30
0
 11
64.2877372701455
 21
1085.978215312282
 31
0
  0
LINE
  8
1
 62
7
 10
81.7877372701455
 20
1075.478215312282
 30
0
 11
84.2877372701455
 21
1075.478215312282
 31
0
  0
LINE
  8
1
 62
3
 10
84.2877372701455
 20
1076.278215312282
 30
0
 11
81.7877372701455
 21
1076.278215312282
 31
0
  0
LINE
  8
1
 62
3
 10
84.2877372701455
 20
1082.678215312282
 30
0
 11
81.7877372701455
 21
1082.678215312282
 31
0
  0
LINE
  8
1
 62
7
 10
84.2877372701455
 20
1083.478215312282
 30
0
 11
81.7877372701455
 21
1083.478215312282
 31
0
  0
LINE
  8
1
 62
7
 10
-15.53944457952761
 20
1307.218902742873
 30
0
 11
-19.86957159844971
 21
1304.718902742873
 31
0
  0
LINE
  8
1
 62
7
 10
-69.701368195025
 20
1262.905060597785
 30
0
 11
-72.91530624345759
 21
1259.07483838219
 31
0
  0
LINE
  8
1
 62
7
 10
-105.440701502304
 20
1202.739201257608
 30
0
 11
-107.1508022189323
 21
1198.040738153679
 31
0
  0
LINE
  8
1
 62
7
 10
-107.1508022189323
 20
1064.915692470886
 30
0
 11
-105.440701502304
 21
1060.217229366956
 31
0
  0
LINE
  8
1
 62
7
 10
-72.91530624345759
 20
1003.881592242374
 30
0
 11
-69.701368195025
 21
1000.051370026779
 31
0
  0
LINE
  8
1
 62
7
 10
26.29895190956631
 20
1079.423338155515
 30
0
 11
-69.701368195025
 21
1000.051370026779
 31
0
  0
LINE
  8
1
 62
7
 10
21.92110398316339
 20
1084.640654149637
 30
0
 11
-72.91530624345759
 21
1003.881592242374
 31
0
  0
LINE
  8
1
 62
7
 10
9.58749858121729
 20
1108.368424388532
 30
0
 11
-107.1508022189323
 21
1064.915692470886
 31
0
  0
LINE
  8
1
 62
7
 10
11.91690280849619
 20
1101.968438873301
 30
0
 11
-105.440701502304
 21
1060.217229366956
 31
0
  0
LINE
  8
1
 62
7
 10
6.113075975228611
 20
1134.88357647702
 30
0
 11
-71.93627800882601
 21
1134.316275972859
 31
0
  0
LINE
  8
1
 62
7
 10
6.113075975228611
 20
1128.072854147544
 30
0
 11
-71.93627800882601
 21
1128.640154651705
 31
0
  0
LINE
  8
1
 62
7
 10
-107.1508022189323
 20
1198.040738153679
 30
0
 11
9.58749858121729
 21
1154.588006236033
 31
0
  0
LINE
  8
1
 62
7
 10
-105.440701502304
 20
1202.739201257608
 30
0
 11
11.91690280849619
 21
1160.987991751264
 31
0
  0
LINE
  8
1
 62
7
 10
-72.91530624345759
 20
1259.07483838219
 30
0
 11
21.92110398316339
 21
1178.315776474927
 31
0
  0
LINE
  8
1
 62
7
 10
-69.701368195025
 20
1262.905060597785
 30
0
 11
26.29895190956631
 21
1183.533092469049
 31
0
  0
LINE
  8
1
 62
7
 10
-19.86957159844971
 20
1304.718902742873
 30
0
 11
46.69196537451319
 21
1187.47105925221
 31
0
  0
LINE
  8
1
 62
7
 10
-15.53944457952761
 20
1307.218902742873
 30
0
 11
52.71939793584681
 21
1190.950999064018
 31
0
  0
LINE
  8
1
 62
7
 10
36.11424176302819
 20
1187.399459659968
 30
0
 11
30.54574179622028
 21
1187.81284419333
 31
0
  0
LINE
  8
1
 62
7
 10
30.54574179622028
 20
1075.143586431234
 30
0
 11
36.11424176302819
 21
1075.556970964597
 31
0
  0
LINE
  8
1
 62
7
 10
45.11326829863981
 20
1176.674837456302
 30
0
 11
36.11424176302819
 21
1187.399459659968
 31
0
  0
LINE
  8
1
 62
7
 10
36.11424176302819
 20
1075.556970964597
 30
0
 11
45.11326829863981
 21
1086.281593168262
 31
0
  0
LINE
  8
1
 62
7
 10
36.31328046729311
 20
1092.27174084205
 30
0
 11
29.26036722893201
 21
1094.838791325675
 31
0
  0
LINE
  8
1
 62
7
 10
29.26036722893201
 20
1094.838791325675
 30
0
 11
23.5107796781343
 21
1090.01431453238
 31
0
  0
LINE
  8
1
 62
7
 10
23.5107796781343
 20
1090.01431453238
 30
0
 11
24.8141053656978
 21
1082.622787255459
 31
0
  0
LINE
  8
1
 62
7
 10
24.8141053656978
 20
1082.622787255459
 30
0
 11
31.86701860405901
 21
1080.055736771833
 31
0
  0
LINE
  8
1
 62
7
 10
31.86701860405901
 20
1080.055736771833
 30
0
 11
37.61660615485658
 21
1084.880213565129
 31
0
  0
LINE
  8
1
 62
7
 10
37.61660615485658
 20
1084.880213565129
 30
0
 11
36.31328046729311
 21
1092.27174084205
 31
0
  0
LINE
  8
1
 62
7
 10
22.04329076961059
 20
1131.478215312282
 30
0
 11
18.290514019878
 21
1137.978215312282
 31
0
  0
LINE
  8
1
 62
7
 10
18.290514019878
 20
1137.978215312282
 30
0
 11
10.78496052041291
 21
1137.978215312282
 31
0
  0
LINE
  8
1
 62
7
 10
10.78496052041291
 20
1137.978215312282
 30
0
 11
7.032183770680291
 21
1131.478215312282
 31
0
  0
LINE
  8
1
 62
7
 10
7.032183770680291
 20
1131.478215312282
 30
0
 11
10.78496052041291
 21
1124.978215312282
 31
0
  0
LINE
  8
1
 62
7
 10
10.78496052041291
 20
1124.978215312282
 30
0
 11
18.290514019878
 21
1124.978215312282
 31
0
  0
LINE
  8
1
 62
7
 10
18.290514019878
 20
1124.978215312282
 30
0
 11
22.04329076961059
 21
1131.478215312282
 31
0
  0
LINE
  8
1
 62
7
 10
36.31328046729311
 20
1170.684689782514
 30
0
 11
37.61660615485658
 21
1178.076217059436
 31
0
  0
LINE
  8
1
 62
7
 10
37.61660615485658
 20
1178.076217059436
 30
0
 11
31.86701860405901
 21
1182.900693852731
 31
0
  0
LINE
  8
1
 62
7
 10
31.86701860405901
 20
1182.900693852731
 30
0
 11
24.8141053656978
 21
1180.333643369105
 31
0
  0
LINE
  8
1
 62
7
 10
24.8141053656978
 20
1180.333643369105
 30
0
 11
23.5107796781343
 21
1172.942116092184
 31
0
  0
LINE
  8
1
 62
7
 10
23.5107796781343
 20
1172.942116092184
 30
0
 11
29.26036722893201
 21
1168.117639298889
 31
0
  0
LINE
  8
1
 62
7
 10
29.26036722893201
 20
1168.117639298889
 30
0
 11
36.31328046729311
 21
1170.684689782514
 31
0
  0
LINE
  8
1
 62
7
 10
27.42655131559201
 20
1088.078407911816
 30
0
 11
30.48689646896639
 21
1090.646342401288
 31
0
  0
LINE
  8
1
 62
7
 10
30.6404893640248
 20
1084.248185696221
 30
0
 11
33.70083451739907
 21
1086.816120185692
 31
0
  0
LINE
  8
1
 62
7
 10
12.54023883460181
 20
1133.978215312282
 30
0
 11
16.53523570568939
 21
1133.978215312282
 31
0
  0
LINE
  8
1
 62
7
 10
12.54023883460181
 20
1128.978215312282
 30
0
 11
16.5352357056893
 21
1128.978215312282
 31
0
  0
LINE
  8
1
 62
7
 10
30.64048936402469
 20
1178.708244928343
 30
0
 11
33.70083451739902
 21
1176.140310438871
 31
0
  0
LINE
  8
1
 62
7
 10
27.42655131559201
 20
1174.878022712748
 30
0
 11
30.48689646896628
 21
1172.310088223277
 31
0
  0
LINE
  8
1
 62
7
 10
132.3746400228919
 20
1176.140310438871
 30
0
 11
135.4349851762665
 21
1178.708244928343
 31
0
  0
LINE
  8
1
 62
7
 10
135.588578071325
 20
1172.310088223277
 30
0
 11
138.6489232246991
 21
1174.878022712748
 31
0
  0
LINE
  8
1
 62
7
 10
149.5402388346016
 20
1133.978215312282
 30
0
 11
153.5352357056894
 21
1133.978215312282
 31
0
  0
LINE
  8
1
 62
7
 10
149.5402388346018
 20
1128.978215312282
 30
0
 11
153.5352357056891
 21
1128.978215312282
 31
0
  0
LINE
  8
1
 62
7
 10
135.5885780713245
 20
1090.646342401288
 30
0
 11
138.6489232246991
 21
1088.078407911816
 31
0
  0
LINE
  8
1
 62
7
 10
132.374640022892
 20
1086.816120185692
 30
0
 11
135.4349851762661
 21
1084.248185696221
 31
0
  0
LINE
  8
1
 62
7
 10
286.5377372701454
 20
1131.478215312282
 30
0
 11
286.5377372701454
 21
855.978215312282
 31
0
  0
LINE
  8
1
 62
7
 10
271.5377372701454
 20
840.9782153122822
 30
0
 11
210.5377372701454
 21
840.9782153122822
 31
0
  0
LINE
  8
1
 62
7
 10
195.5377372701454
 20
855.9782153122822
 30
0
 11
195.5377372701454
 21
885.978215312282
 31
0
  0
LINE
  8
1
 62
3
  6
DASHDOT
 10
258.5377372701454
 20
886.4782153122822
 30
0
 11
222.5377372701454
 21
886.4782153122822
 31
0
  0
LINE
  8
1
 62
3
  6
DASHDOT
 10
240.5377372701454
 20
904.4782153122822
 30
0
 11
240.5377372701454
 21
868.4782153122822
 31
0
  0
LINE
  8
1
 62
7
 10
165.5377372701455
 20
915.9782153122822
 30
0
 11
0.5377372701454988
 21
915.9782153122822
 31
0
  0
LINE
  8
1
 62
7
 10
-29.4622627298545
 20
885.978215312282
 30
0
 11
-29.4622627298545
 21
855.9782153122822
 31
0
  0
LINE
  8
1
 62
7
 10
-44.4622627298545
 20
840.9782153122822
 30
0
 11
-105.4622627298545
 21
840.9782153122822
 31
0
  0
LINE
  8
1
 62
7
 10
-120.4622627298545
 20
855.978215312282
 30
0
 11
-120.4622627298545
 21
1131.478215312282
 31
0
  0
LINE
  8
1
 62
3
  6
DASHDOT
 10
-56.4622627298545
 20
886.4782153122822
 30
0
 11
-92.4622627298545
 21
886.4782153122822
 31
0
  0
LINE
  8
1
 62
3
  6
DASHDOT
 10
-74.4622627298545
 20
868.4782153122822
 30
0
 11
-74.4622627298545
 21
904.4782153122822
 31
0
  0
LINE
  8
1
 62
7
 10
238.0117525491169
 20
1134.316275972859
 30
0
 11
159.9623985650625
 21
1134.88357647702
 31
0
  0
LINE
  8
1
 62
7
 10
238.011752549117
 20
1128.640154651705
 30
0
 11
159.9623985650624
 21
1128.072854147544
 31
0
  0
LINE
  8
1
 62
3
  6
DASHDOT
 10
68.0377372701455
 20
1131.478215312282
 30
0
 11
98.0377372701455
 21
1131.478215312282
 31
0
  0
LINE
  8
1
 62
3
  6
DASHDOT
 10
83.0377372701455
 20
1116.478215312282
 30
0
 11
83.0377372701455
 21
1146.478215312282
 31
0
  0
LINE
  8
1
 62
7
 10
-305.1889529367759
 20
1195.978215312282
 30
0
 11
-302.9889529367759
 21
1195.978215312282
 31
0
  0
LINE
  8
1
 62
7
 10
-305.9106407732629
 20
1192.478215312282
 30
0
 11
-309.4672651002888
 21
1192.478215312282
 31
0
  0
LINE
  8
1
 62
7
 10
-305.9106407732629
 20
1196.228215312282
 30
0
 11
-309.4672651002888
 21
1196.228215312282
 31
0
  0
LINE
  8
1
 62
7
 10
-305.9106407732629
 20
1203.728215312282
 30
0
 11
-309.4672651002888
 21
1203.728215312282
 31
0
  0
LINE
  8
1
 62
7
 10
-305.9106407732629
 20
1207.478215312282
 30
0
 11
-309.4672651002888
 21
1207.478215312282
 31
0
  0
LINE
  8
1
 62
7
 10
-305.1889529367759
 20
1205.603215312282
 30
0
 11
-305.1889529367759
 21
1194.353215312282
 31
0
  0
LINE
  8
1
 62
7
 10
-400.0747809077136
 20
963.7238841239071
 30
0
 11
-416.3031249658382
 21
957.2325465006572
 31
0
  0
LINE
  8
1
 62
7
 10
-398.1889529367759
 20
1296.447116428001
 30
0
 11
-398.1889529367759
 21
966.5093141965629
 31
0
  0
LINE
  8
1
 62
7
 10
-418.1889529367759
 20
1328.978215312282
 30
0
 11
-418.1889529367759
 21
933.9782153122822
 31
0
  0
LINE
  8
1
 62
7
 10
-418.1889529367759
 20
933.9782153122822
 30
0
 11
-440.1889529367759
 21
933.9782153122822
 31
0
  0
LINE
  8
1
 62
7
 10
-416.3031249658382
 20
1305.723884123907
 30
0
 11
-400.0747809077136
 21
1299.232546500657
 31
0
  0
LINE
  8
1
 62
7
 10
-440.1889529367759
 20
1328.978215312282
 30
0
 11
-418.1889529367759
 21
1328.978215312282
 31
0
  0
LINE
  8
1
 62
7
 10
-440.1889529367759
 20
933.9782153122822
 30
0
 11
-440.1889529367759
 21
1328.978215312282
 31
0
  0
LINE
  8
1
 62
3
  6
DASHDOT
 10
-285.1889529367759
 20
1131.478215312282
 30
0
 11
-295.1889529367759
 21
1131.478215312282
 31
0
  0
LINE
  8
1
 62
7
 10
-390.3250616453372
 20
1280.478215312282
 30
0
 11
-398.1889529367759
 21
1280.478215312282
 31
0
  0
LINE
  8
1
 62
7
 10
-391.8889529367759
 20
1280.478215312282
 30
0
 11
-391.8889529367759
 21
982.4782153122822
 31
0
  0
LINE
  8
1
 62
7
 10
-382.9259711584827
 20
1331.24995744567
 30
0
 11
-389.8296983813492
 21
1280.910279778935
 31
0
  0
LINE
  8
1
 62
7
 10
-380.9445181025306
 20
1332.978215312282
 30
0
 11
-378.7742297614742
 21
1332.978215312282
 31
0
  0
LINE
  8
1
 62
7
 10
-374.1889529367759
 20
1334.978215312282
 30
0
 11
-378.7742297614742
 21
1334.978215312282
 31
0
  0
LINE
  8
1
 62
7
 10
-398.1889529367759
 20
982.4782153122822
 30
0
 11
-390.3250616453372
 21
982.4782153122822
 31
0
  0
LINE
  8
1
 62
7
 10
-389.8296983813492
 20
982.046150845629
 30
0
 11
-382.9259711584827
 21
931.7064731788944
 31
0
  0
LINE
  8
1
 62
7
 10
-378.7742297614742
 20
929.9782153122822
 30
0
 11
-380.9445181025306
 21
929.9782153122822
 31
0
  0
LINE
  8
1
 62
7
 10
-378.7742297614742
 20
927.9782153122822
 30
0
 11
-374.1889529367759
 21
927.9782153122822
 31
0
  0
LINE
  8
1
 62
7
 10
-371.1889529367759
 20
840.9782153122822
 30
0
 11
-361.1889529367759
 21
840.9782153122822
 31
0
  0
LINE
  8
1
 62
7
 10
-358.1889529367759
 20
928.9782153122822
 30
0
 11
-361.1889529367759
 21
928.9782153122822
 31
0
  0
LINE
  8
1
 62
7
 10
-374.1889529367759
 20
928.9782153122822
 30
0
 11
-371.1889529367759
 21
928.9782153122822
 31
0
  0
LINE
  8
1
 62
7
 10
-371.1889529367759
 20
1334.978215312282
 30
0
 11
-371.1889529367759
 21
840.9782153122822
 31
0
  0
LINE
  8
1
 62
7
 10
-361.1889529367759
 20
1334.978215312282
 30
0
 11
-361.1889529367759
 21
840.9782153122822
 31
0
  0
LINE
  8
1
 62
7
 10
-371.1889529367759
 20
1333.978215312282
 30
0
 11
-374.1889529367759
 21
1333.978215312282
 31
0
  0
LINE
  8
1
 62
7
 10
-361.1889529367759
 20
1334.978215312282
 30
0
 11
-371.1889529367759
 21
1334.978215312282
 31
0
  0
LINE
  8
1
 62
7
 10
-361.1889529367759
 20
1333.978215312282
 30
0
 11
-358.1889529367759
 21
1333.978215312282
 31
0
  0
LINE
  8
1
 62
3
 10
-302.1889529367759
 20
1197.980716876738
 30
0
 11
-296.1889529367759
 21
1201.975713747826
 31
0
  0
LINE
  8
1
 62
3
 10
-302.1889529367759
 20
1201.975713747826
 30
0
 11
-296.1889529367759
 21
1197.980716876738
 31
0
  0
LINE
  8
1
 62
7
 10
-313.1889529367759
 20
1067.478215312282
 30
0
 11
-313.1889529367759
 21
1208.978215312282
 31
0
  0
LINE
  8
1
 62
3
 10
-302.1889529367759
 20
1203.178215312282
 30
0
 11
-305.1889529367759
 21
1203.178215312282
 31
0
  0
LINE
  8
1
 62
3
 10
-302.1889529367759
 20
1196.778215312282
 30
0
 11
-305.1889529367759
 21
1196.778215312282
 31
0
  0
LINE
  8
1
 62
7
 10
-302.9889529367759
 20
1195.978215312282
 30
0
 11
-302.9889529367759
 21
1203.978215312282
 31
0
  0
LINE
  8
1
 62
7
 10
-302.9889529367759
 20
1203.978215312282
 30
0
 11
-305.1889529367759
 21
1203.978215312282
 31
0
  0
LINE
  8
1
 62
7
 10
-302.1889529367759
 20
1203.178215312282
 30
0
 11
-302.9889529367759
 21
1203.978215312282
 31
0
  0
LINE
  8
1
 62
7
 10
-302.1889529367759
 20
1196.778215312282
 30
0
 11
-302.1889529367759
 21
1203.178215312282
 31
0
  0
LINE
  8
1
 62
7
 10
-302.9889529367759
 20
1195.978215312282
 30
0
 11
-302.1889529367759
 21
1196.778215312282
 31
0
  0
LINE
  8
1
 62
7
 10
-296.6889529367759
 20
1197.980716876738
 30
0
 11
-296.6889529367759
 21
1196.778215312282
 31
0
  0
LINE
  8
1
 62
7
 10
-302.1889529367759
 20
1197.980716876738
 30
0
 11
-296.1889529367759
 21
1197.980716876738
 31
0
  0
LINE
  8
1
 62
7
 10
-302.1889529367759
 20
1201.975713747826
 30
0
 11
-296.1889529367759
 21
1201.975713747826
 31
0
  0
LINE
  8
1
 62
7
 10
-296.6889529367759
 20
1203.178215312282
 30
0
 11
-296.6889529367759
 21
1201.975713747826
 31
0
  0
LINE
  8
1
 62
7
 10
-296.6889529367759
 20
1196.778215312282
 30
0
 11
-302.1889529367759
 21
1196.778215312282
 31
0
  0
LINE
  8
1
 62
7
 10
-296.6889529367759
 20
1203.178215312282
 30
0
 11
-302.1889529367759
 21
1203.178215312282
 31
0
  0
LINE
  8
1
 62
7
 10
-296.1889529367759
 20
1202.678215312282
 30
0
 11
-296.6889529367759
 21
1203.178215312282
 31
0
  0
LINE
  8
1
 62
7
 10
-296.1889529367759
 20
1197.278215312282
 30
0
 11
-296.6889529367759
 21
1196.778215312282
 31
0
  0
LINE
  8
1
 62
7
 10
-296.1889529367759
 20
1202.678215312282
 30
0
 11
-296.1889529367759
 21
1197.278215312282
 31
0
  0
LINE
  8
1
 62
7
 10
-319.1889529367759
 20
1248.978215312282
 30
0
 11
-319.1889529367759
 21
1013.978215312282
 31
0
  0
LINE
  8
1
 62
7
 10
-313.1889529367759
 20
1067.478215312282
 30
0
 11
-319.1889529367759
 21
1067.478215312282
 31
0
  0
LINE
  8
1
 62
7
 10
-353.5911671685026
 20
927.978215312282
 30
0
 11
-358.1889529367759
 21
927.9782153122823
 31
0
  0
LINE
  8
1
 62
7
 10
-353.5911671685026
 20
929.9782153122822
 30
0
 11
-350.59839132925
 21
929.9782153122822
 31
0
  0
LINE
  8
1
 62
7
 10
-319.1889529367759
 20
1013.978215312282
 30
0
 11
-348.7149075060603
 21
931.3055425182859
 31
0
  0
LINE
  8
1
 62
7
 10
-358.1889529367759
 20
1334.978215312282
 30
0
 11
-353.5911671685026
 21
1334.978215312282
 31
0
  0
LINE
  8
1
 62
7
 10
-350.5983913292501
 20
1332.978215312282
 30
0
 11
-353.5911671685026
 21
1332.978215312282
 31
0
  0
LINE
  8
1
 62
7
 10
-348.7149075060604
 20
1331.650888106278
 30
0
 11
-319.1889529367759
 21
1248.978215312282
 31
0
  0
LINE
  8
1
 62
7
 10
-313.1889529367759
 20
1208.978215312282
 30
0
 11
-319.1889529367759
 21
1208.978215312282
 31
0
  0
LINE
  8
1
 62
7
 10
-451.6889529367759
 20
1223.478215312282
 30
0
 11
-451.6889529367759
 21
1039.478215312282
 31
0
  0
LINE
  8
1
 62
7
 10
-453.6628925067989
 20
1080.922774740079
 30
0
 11
-455.1889529367759
 21
1081.478215312282
 31
0
  0
LINE
  8
1
 62
7
 10
-447.1889529367759
 20
982.478215312282
 30
0
 11
-451.6889529367759
 21
1039.478215312282
 31
0
  0
LINE
  8
1
 62
7
 10
-447.1889529367759
 20
982.478215312282
 30
0
 11
-440.1889529367759
 21
982.478215312282
 31
0
  0
LINE
  8
1
 62
7
 10
-455.1889529367759
 20
1181.478215312282
 30
0
 11
-455.1889529367759
 21
1081.478215312282
 31
0
  0
LINE
  8
1
 62
7
 10
-455.1889529367759
 20
1181.478215312282
 30
0
 11
-453.6628925067989
 21
1182.033655884485
 31
0
  0
LINE
  8
1
 62
7
 10
-451.6889529367759
 20
1223.478215312282
 30
0
 11
-447.1889529367759
 21
1280.478215312282
 31
0
  0
LINE
  8
1
 62
7
 10
-440.1889529367759
 20
1280.478215312282
 30
0
 11
-447.1889529367759
 21
1280.478215312282
 31
0
  0
LINE
  8
1
 62
7
 10
-313.1889529367759
 20
1186.478215312282
 30
0
 11
-310.1889529367759
 21
1186.478215312282
 31
0
  0
LINE
  8
1
 62
7
 10
-313.1889529367759
 20
1208.478215312282
 30
0
 11
-310.1889529367759
 21
1208.478215312282
 31
0
  0
LINE
  8
1
 62
7
 10
-310.1889529367759
 20
1072.478215312282
 30
0
 11
-295.1889529367759
 21
1072.478215312282
 31
0
  0
LINE
  8
1
 62
7
 10
-310.1889529367759
 20
1072.478215312282
 30
0
 11
-310.1889529367759
 21
1208.478215312282
 31
0
  0
LINE
  8
1
 62
7
 10
-310.1889529367759
 20
1077.478215312282
 30
0
 11
-313.1889529367759
 21
1077.478215312282
 31
0
  0
LINE
  8
1
 62
7
 10
-313.1889529367759
 20
1185.478215312282
 30
0
 11
-310.1889529367759
 21
1185.478215312282
 31
0
  0
LINE
  8
1
 62
7
 10
-295.1889529367759
 20
1190.478215312282
 30
0
 11
-310.1889529367759
 21
1190.478215312282
 31
0
  0
LINE
  8
1
 62
7
 10
-295.1889529367759
 20
1190.478215312282
 30
0
 11
-295.1889529367759
 21
1072.478215312282
 31
0
  0
LINE
  8
1
 62
3
  6
DASHDOT
 10
-455.1889529367759
 20
1131.478215312282
 30
0
 11
-465.1889529367759
 21
1131.478215312282
 31
0
  0
LINE
  8
1
 62
7
 10
-631.3162941844026
 20
840.9782153122822
 30
0
 11
-692.3162941844026
 21
840.9782153122822
 31
0
  0
LINE
  8
1
 62
7
 10
-707.3162941844026
 20
855.9782153122822
 30
0
 11
-707.3162941844025
 21
885.978215312282
 31
0
  0
LINE
  8
1
 62
7
 10
-737.3162941844025
 20
915.9782153122822
 30
0
 11
-902.3162941844025
 21
915.9782153122822
 31
0
  0
LINE
  8
1
 62
3
  6
DASHDOT
 10
-644.3162941844026
 20
886.4782153122822
 30
0
 11
-680.3162941844026
 21
886.4782153122822
 31
0
  0
LINE
  8
1
 62
3
  6
DASHDOT
 10
-662.3162941844026
 20
904.4782153122822
 30
0
 11
-662.3162941844026
 21
868.4782153122822
 31
0
  0
LINE
  8
1
 62
7
 10
-932.3162941844025
 20
885.978215312282
 30
0
 11
-932.3162941844025
 21
855.9782153122822
 31
0
  0
LINE
  8
1
 62
7
 10
-947.3162941844025
 20
840.9782153122822
 30
0
 11
-1008.316294184403
 21
840.9782153122822
 31
0
  0
LINE
  8
1
 62
3
  6
DASHDOT
 10
-959.3162941844025
 20
886.4782153122822
 30
0
 11
-995.3162941844025
 21
886.4782153122822
 31
0
  0
LINE
  8
1
 62
3
  6
DASHDOT
 10
-977.3162941844025
 20
868.4782153122822
 30
0
 11
-977.3162941844025
 21
904.4782153122822
 31
0
  0
LINE
  8
1
 62
7
 10
-616.3162941844026
 20
1131.478215312282
 30
0
 11
-616.3162941844026
 21
855.978215312282
 31
0
  0
LINE
  8
1
 62
7
 10
-1023.316294184403
 20
855.978215312282
 30
0
 11
-1023.316294184403
 21
1131.478215312282
 31
0
  0
LINE
  8
1
 62
3
  6
DASHDOT
 10
-834.8162941844025
 20
1131.478215312282
 30
0
 11
-804.8162941844025
 21
1131.478215312282
 31
0
  0
LINE
  8
1
 62
3
  6
DASHDOT
 10
-819.8162941844025
 20
1116.478215312282
 30
0
 11
-819.8162941844025
 21
1146.478215312282
 31
0
  0
LINE
  8
1
 62
7
 10
-358.1889529367759
 20
927.9782153122823
 30
0
 11
-358.1889529367759
 21
1334.978215312282
 31
0
  0
LINE
  8
1
 62
7
 10
-374.1889529367759
 20
927.9782153122822
 30
0
 11
-374.1889529367759
 21
1334.978215312282
 31
0
  0
LINE
  8
1
 62
7
 10
-378.7742297614742
 20
927.9782153122822
 30
0
 11
-378.7742297614742
 21
1334.978215312282
 31
0
  0
LINE
  8
1
 62
7
 10
-353.5911671685026
 20
927.978215312282
 30
0
 11
-353.5911671685026
 21
1334.978215312282
 31
0
  0
LINE
  8
1
 62
7
 10
-871.9168368989523
 20
1147.298643189342
 30
0
 11
-900.3855423448464
 21
1158.000804636838
 31
0
  0
LINE
  8
1
 62
7
 10
-952.4439552250826
 20
1181.913867588193
 30
0
 11
-908.0416520216429
 21
1166.279619423456
 31
0
  0
LINE
  8
1
 62
7
 10
-898.5843108186137
 20
1162.949647582372
 30
0
 11
-869.8968004336797
 21
1152.848647764152
 31
0
  0
LINE
  8
1
 62
7
 10
-909.7707506601608
 20
1161.528959958117
 30
0
 11
-953.834389297897
 21
1178.093681369895
 31
0
  0
LINE
  8
1
 62
7
 10
-961.6955375965549
 20
1133.510893942398
 30
0
 11
-914.6237931322917
 21
1134.005988416089
 31
0
  0
LINE
  8
1
 62
7
 10
-914.6237931322917
 20
1128.950442208474
 30
0
 11
-961.6955375965549
 21
1129.445536682166
 31
0
  0
LINE
  8
1
 62
7
 10
-953.8343892978971
 20
1084.862749254669
 30
0
 11
-909.7707506601606
 21
1101.427470666445
 31
0
  0
LINE
  8
1
 62
7
 10
-908.0416520216423
 20
1096.676811201107
 30
0
 11
-952.4439552250825
 21
1081.042563036371
 31
0
  0
LINE
  8
1
 62
7
 10
-929.80868083212
 20
1041.837117744497
 30
0
 11
-894.0678731506675
 21
1072.473516222846
 31
0
  0
LINE
  8
1
 62
7
 10
-890.8182306882147
 20
1068.600743143571
 30
0
 11
-927.1955195562937
 21
1038.722873406003
 31
0
  0
LINE
  8
1
 62
7
 10
-892.5162672218894
 20
1009.6235255627
 30
0
 11
-869.4091593812472
 21
1050.636399306047
 31
0
  0
LINE
  8
1
 62
7
 10
-865.0309279354464
 20
1048.10862620224
 30
0
 11
-888.9955645590687
 21
1007.590846932584
 31
0
  0
LINE
  8
1
 62
7
 10
-846.4551639260063
 20
992.1074073483902
 30
0
 11
-838.768814156348
 21
1038.549998497736
 31
0
  0
LINE
  8
1
 62
7
 10
-833.7900730553771
 20
1037.672112111672
 30
0
 11
-842.4515685773656
 21
991.4014654685858
 31
0
  0
LINE
  8
1
 62
7
 10
-797.18101979144
 20
991.4014654685858
 30
0
 11
-805.842515313427
 21
1037.672112111672
 31
0
  0
LINE
  8
1
 62
7
 10
-800.8637742124564
 20
1038.549998497736
 30
0
 11
-793.1774244427994
 21
992.10740734839
 31
0
  0
LINE
  8
1
 62
7
 10
-750.6370238097367
 20
1007.590846932584
 30
0
 11
-774.601660433358
 21
1048.10862620224
 31
0
  0
LINE
  8
1
 62
7
 10
-770.2234289875572
 20
1050.636399306047
 30
0
 11
-747.1163211469166
 21
1009.6235255627
 31
0
  0
LINE
  8
1
 62
7
 10
-712.4370688125114
 20
1038.722873406002
 30
0
 11
-748.8143576805896
 21
1068.600743143572
 31
0
  0
LINE
  8
1
 62
7
 10
-745.5647152181371
 20
1072.473516222847
 30
0
 11
-709.8239075366854
 21
1041.837117744496
 31
0
  0
LINE
  8
1
 62
7
 10
-687.1886331437224
 20
1081.042563036371
 30
0
 11
-731.5909363471623
 21
1096.676811201108
 31
0
  0
LINE
  8
1
 62
7
 10
-729.8618377086443
 20
1101.427470666446
 30
0
 11
-685.798199070908
 21
1084.862749254669
 31
0
  0
LINE
  8
1
 62
7
 10
-725.0087952365137
 20
1134.00598841609
 30
0
 11
-677.9370507722499
 21
1133.510893942398
 31
0
  0
LINE
  8
1
 62
7
 10
-677.9370507722499
 20
1129.445536682166
 30
0
 11
-725.0087952365132
 21
1128.950442208475
 31
0
  0
LINE
  8
1
 62
7
 10
-685.7981990709076
 20
1178.093681369895
 30
0
 11
-729.8618377086447
 21
1161.528959958119
 31
0
  0
LINE
  8
1
 62
7
 10
-731.5909363471624
 20
1166.279619423457
 30
0
 11
-687.188633143722
 21
1181.913867588193
 31
0
  0
LINE
  8
1
 62
7
 10
-709.8239075366847
 20
1221.119312880067
 30
0
 11
-745.5647152181375
 21
1190.482914401718
 31
0
  0
LINE
  8
1
 62
7
 10
-748.8143576805902
 20
1194.355687480992
 30
0
 11
-712.4370688125109
 21
1224.233557218561
 31
0
  0
LINE
  8
1
 62
7
 10
-747.1163211469159
 20
1253.332905061864
 30
0
 11
-770.2234289875578
 21
1212.320031318517
 31
0
  0
LINE
  8
1
 62
7
 10
-774.6016604333585
 20
1214.847804422325
 30
0
 11
-750.637023809736
 21
1255.36558369198
 31
0
  0
LINE
  8
1
 62
7
 10
-793.1774244427988
 20
1270.849023276174
 30
0
 11
-800.863774212457
 21
1224.406432126828
 31
0
  0
LINE
  8
1
 62
7
 10
-805.8425153134277
 20
1225.284318512892
 30
0
 11
-797.1810197914393
 21
1271.554965155978
 31
0
  0
LINE
  8
1
 62
7
 10
-842.4515685773653
 20
1271.554965155978
 30
0
 11
-833.7900730553779
 21
1225.284318512892
 31
0
  0
LINE
  8
1
 62
7
 10
-838.7688141563485
 20
1224.406432126828
 30
0
 11
-846.4551639260058
 21
1270.849023276174
 31
0
  0
LINE
  8
1
 62
7
 10
-888.995564559069
 20
1255.36558369198
 30
0
 11
-865.030927935447
 21
1214.847804422324
 31
0
  0
LINE
  8
1
 62
7
 10
-869.4091593812474
 20
1212.320031318516
 30
0
 11
-892.5162672218884
 21
1253.332905061864
 31
0
  0
LINE
  8
1
 62
7
 10
-894.0678731506679
 20
1190.482914401717
 30
0
 11
-929.8086808321195
 21
1221.119312880068
 31
0
  0
LINE
  8
1
 62
7
 10
-927.1955195562937
 20
1224.233557218561
 30
0
 11
-890.8182306882145
 21
1194.355687480991
 31
0
  0
LINE
  8
1
 62
7
 10
-869.89680043368
 20
1110.107782860412
 30
0
 11
-898.5843108186135
 21
1100.006783042191
 31
0
  0
LINE
  8
1
 62
7
 10
-900.3855423448462
 20
1104.955625987725
 30
0
 11
-871.9168368989522
 21
1115.657787435222
 31
0
  0
LINE
  8
1
 62
7
 10
-864.4875272293548
 20
1059.371818703786
 30
0
 11
-849.5584503950526
 21
1085.869481134439
 31
0
  0
LINE
  8
1
 62
7
 10
-844.4435385115413
 20
1082.916385381612
 30
0
 11
-859.9266489002399
 21
1056.738594372729
 31
0
  0
LINE
  8
1
 62
7
 10
-849.5584503950526
 20
1177.086949490125
 30
0
 11
-864.4875272293548
 21
1203.584611920778
 31
0
  0
LINE
  8
1
 62
7
 10
-859.9266489002397
 20
1206.217836251834
 30
0
 11
-844.4435385115413
 21
1180.040045242952
 31
0
  0
LINE
  8
1
 62
7
 10
-795.1890498572636
 20
1180.040045242952
 30
0
 11
-779.7059394685653
 21
1206.217836251835
 31
0
  0
LINE
  8
1
 62
7
 10
-775.1450611394502
 20
1203.584611920779
 30
0
 11
-790.0741379737524
 21
1177.086949490125
 31
0
  0
LINE
  8
1
 62
7
 10
-769.735787935125
 20
1152.848647764152
 30
0
 11
-741.048277550191
 21
1162.949647582372
 31
0
  0
LINE
  8
1
 62
7
 10
-739.2470460239582
 20
1158.000804636838
 30
0
 11
-767.7157514698525
 21
1147.298643189342
 31
0
  0
LINE
  8
1
 62
7
 10
-767.7157514698528
 20
1115.657787435222
 30
0
 11
-739.2470460239587
 21
1104.955625987725
 31
0
  0
LINE
  8
1
 62
7
 10
-741.0482775501909
 20
1100.006783042191
 30
0
 11
-769.7357879351248
 21
1110.107782860411
 31
0
  0
LINE
  8
1
 62
7
 10
-790.0741379737525
 20
1085.869481134439
 30
0
 11
-775.14506113945
 21
1059.371818703785
 31
0
  0
LINE
  8
1
 62
7
 10
-779.705939468565
 20
1056.738594372729
 30
0
 11
-795.1890498572637
 21
1082.916385381612
 31
0
  0
LINE
  8
1
 62
7
 10
-810.8162941844025
 20
1207.384400597571
 30
0
 11
-828.8162941844025
 21
1207.384400597571
 31
0
  0
LINE
  8
1
 62
7
 10
-810.8162941844025
 20
1191.384400597571
 30
0
 11
-828.8162941844025
 21
1191.384400597571
 31
0
  0
LINE
  8
1
 62
7
 10
-828.8162941844025
 20
1071.572030026993
 30
0
 11
-810.8162941844025
 21
1071.572030026993
 31
0
  0
LINE
  8
1
 62
7
 10
-828.8162941844025
 20
1055.572030026993
 30
0
 11
-810.8162941844025
 21
1055.572030026993
 31
0
  0
LINE
  8
1
 62
3
  6
DASHDOT
 10
-415.1889529367759
 20
1316.478215312282
 30
0
 11
-443.1889529367759
 21
1316.478215312282
 31
0
  0
LINE
  8
1
 62
3
  6
DASHDOT
 10
-415.1889529367759
 20
946.4782153122819
 30
0
 11
-443.1889529367759
 21
946.4782153122819
 31
0
  0
LINE
  8
1
 62
3
  6
DASHDOT
 10
-358.1889529367759
 20
886.4782153122822
 30
0
 11
-374.1889529367759
 21
886.4782153122822
 31
0
  0
LINE
  8
1
 62
3
  6
DASHED
 10
-343.1889529367759
 20
1087.978215312282
 30
0
 11
-323.1889529367759
 21
1087.978215312282
 31
0
  0
ARC
  8
1
 62
3
  6
DASHDOT
 10
-819.8162941844024
 20
1131.478215312282
 30
0
 40
184.9999999999996
 50
42.67703903146423
 51
47.32296096853568
  0
ARC
  8
1
 62
3
  6
DASHDOT
 10
-819.8162941844024
 20
1131.478215312282
 30
0
 40
184.9999999999999
 50
357.6770390314642
 51
2.322960968535547
  0
ARC
  8
1
 62
3
  6
DASHDOT
 10
-819.8162941844024
 20
1131.478215312282
 30
0
 40
184.9999999999999
 50
312.6770390314643
 51
317.3229609685355
  0
ARC
  8
1
 62
3
  6
DASHDOT
 10
-819.8162941844024
 20
1131.478215312282
 30
0
 40
184.9999999999999
 50
267.6770390314643
 51
272.3229609685355
  0
ARC
  8
1
 62
3
  6
DASHDOT
 10
-819.8162941844024
 20
1131.478215312282
 30
0
 40
185.0000000000003
 50
222.6770390314644
 51
227.3229609685356
  0
ARC
  8
1
 62
3
  6
DASHDOT
 10
-819.8162941844024
 20
1131.478215312282
 30
0
 40
184.9999999999996
 50
177.6770390314642
 51
182.3229609685355
  0
ARC
  8
1
 62
3
  6
DASHDOT
 10
-819.8162941844024
 20
1131.478215312282
 30
0
 40
185
 50
132.6770390314643
 51
137.3229609685355
  0
ARC
  8
1
 62
3
  6
DASHDOT
 10
-819.8162941844024
 20
1131.478215312282
 30
0
 40
185.0000000000001
 50
273.573527353171
 51
278.8390081488087
  0
ARC
  8
1
 62
3
  6
DASHDOT
 10
-819.8162941844024
 20
1131.478215312282
 30
0
 40
184.9999999999997
 50
335.3319222378226
 51
339.6680777621773
  0
ARC
  8
1
 62
3
  6
DASHDOT
 10
-819.8162941844024
 20
1131.478215312282
 30
0
 40
185.0000000000003
 50
93.57352735317112
 51
98.83900814880873
  0
ARC
  8
1
 62
3
  6
DASHDOT
 10
-819.8162941844024
 20
1131.478215312282
 30
0
 40
184.9999999999999
 50
155.3319222378226
 51
159.6680777621773
  0
ARC
  8
1
 62
3
  6
DASHDOT
 10
-819.8162941844024
 20
1131.478215312282
 30
0
 40
185.0000000000002
 50
87.67703903146439
 51
92.32296096853561
  0
ARC
  8
1
 62
7
 10
83.0377372701455
 20
1131.478215312282
 30
0
 40
154.9999999999999
 50
41.04914829180638
 51
58.95085170819372
  0
ARC
  8
1
 62
7
 10
83.0377372701455
 20
1131.478215312282
 30
0
 40
155
 50
21.04914829180655
 51
38.95085170819357
  0
ARC
  8
1
 62
7
 10
83.0377372701455
 20
1131.478215312282
 30
0
 40
154.9999999999996
 50
321.0491482918065
 51
338.9508517081939
  0
ARC
  8
1
 62
7
 10
83.0377372701455
 20
1131.478215312282
 30
0
 40
154.9999999999997
 50
301.0491482918063
 51
318.9508517081937
  0
ARC
  8
1
 62
7
 10
83.0377372701455
 20
1131.478215312282
 30
0
 40
154.9999999999998
 50
281.0491482918063
 51
298.9508517081938
  0
ARC
  8
1
 62
7
 10
83.0377372701455
 20
1131.478215312282
 30
0
 40
154.9999999999998
 50
261.0491482918063
 51
278.9508517081936
  0
ARC
  8
1
 62
7
 10
83.0377372701455
 20
1131.478215312282
 30
0
 40
154.9999999999998
 50
241.0491482918063
 51
258.9508517081937
  0
ARC
  8
1
 62
7
 10
83.0377372701455
 20
1131.478215312282
 30
0
 40
154.9999999999998
 50
221.0491482918063
 51
238.9508517081937
  0
ARC
  8
1
 62
7
 10
83.0377372701455
 20
1131.478215312282
 30
0
 40
154.9999999999997
 50
201.0491482918062
 51
218.9508517081935
  0
ARC
  8
1
 62
7
 10
83.0377372701455
 20
1131.478215312282
 30
0
 40
154.9999999999998
 50
161.0491482918062
 51
198.9508517081934
  0
ARC
  8
1
 62
7
 10
83.0377372701455
 20
1131.478215312282
 30
0
 40
154.9999999999997
 50
141.0491482918064
 51
158.9508517081935
  0
ARC
  8
1
 62
7
 10
83.0377372701455
 20
1131.478215312282
 30
0
 40
154.9999999999995
 50
121.0491482918062
 51
138.9508517081936
  0
ARC
  8
1
 62
7
 10
83.0377372701455
 20
1131.478215312282
 30
0
 40
155
 50
101.0491482918063
 51
118.9508517081935
  0
ARC
  8
1
 62
7
 10
83.0377372701455
 20
1131.478215312282
 30
0
 40
155.0000000000001
 50
81.0491482918064
 51
98.95085170819365
  0
ARC
  8
1
 62
7
 10
83.0377372701455
 20
1131.478215312282
 30
0
 40
154.9999999999997
 50
341.0491482918067
 51
18.95085170819378
  0
ARC
  8
1
 62
7
 10
83.0377372701455
 20
1131.478215312282
 30
0
 40
154.9999999999995
 50
61.04914829180624
 51
78.95085170819374
  0
ARC
  8
1
 62
7
 10
83.0377372701455
 20
1131.478215312282
 30
0
 40
60.00000000000001
 50
257.1614318590159
 51
259.1930771251396
  0
ARC
  8
1
 62
7
 10
-819.8162941844024
 20
1131.478215312282
 30
0
 40
32.50000000000007
 50
196.0766498316051
 51
163.9233501683949
  0
ARC
  8
1
 62
7
 10
83.0377372701455
 20
1131.478215312282
 30
0
 40
60.00000000000018
 50
230.0000000000002
 51
251.2866711679951
  0
ARC
  8
1
 62
7
 10
83.0377372701455
 20
1131.478215312282
 30
0
 40
117.4999999999993
 50
278.4829526805188
 51
281.5170473194812
  0
ARC
  8
1
 62
7
 10
97.0377372701455
 20
1065.957226308758
 30
0
 40
2.999999999999638
 50
102.0611327291236
 51
180
  0
ARC
  8
1
 62
7
 10
83.0377372701455
 20
1131.478215312282
 30
0
 40
117.4999999999998
 50
298.4829526805188
 51
301.5170473194813
  0
ARC
  8
1
 62
7
 10
83.0377372701455
 20
1131.478215312282
 30
0
 40
117.4999999999998
 50
318.4829526805188
 51
321.5170473194813
  0
ARC
  8
1
 62
7
 10
83.0377372701455
 20
1131.478215312282
 30
0
 40
117.4999999999998
 50
338.482952680519
 51
341.5170473194812
  0
ARC
  8
1
 62
7
 10
83.0377372701455
 20
1131.478215312282
 30
0
 40
117.4999999999999
 50
358.4829526805187
 51
1.517047319481318
  0
ARC
  8
1
 62
7
 10
83.0377372701455
 20
1131.478215312282
 30
0
 40
63.99999999999949
 50
229.9999999999997
 51
296.8650731155795
  0
ARC
  8
1
 62
7
 10
83.0377372701455
 20
1131.478215312282
 30
0
 40
64.00000000000007
 50
296.8650731155795
 51
303.1349268844204
  0
ARC
  8
1
 62
7
 10
110.7689714581403
 20
1070.48658760478
 30
0
 40
2.999999999999831
 50
30.41644614028046
 51
114.4500015036304
  0
ARC
  8
1
 62
7
 10
121.9924191890081
 20
1076.966448173432
 30
0
 40
3.000000000000215
 50
125.5499984963742
 51
209.5835538597205
  0
ARC
  8
1
 62
7
 10
83.0377372701455
 20
1131.478215312282
 30
0
 40
76.99999999999989
 50
312.9777444462424
 51
0
  0
ARC
  8
1
 62
7
 10
83.0377372701455
 20
1131.478215312282
 30
0
 40
64.00000000000007
 50
303.1349268844204
 51
310.0000000000003
  0
ARC
  8
1
 62
7
 10
83.0377372701455
 20
1131.478215312282
 30
0
 40
59.99999999999942
 50
261.1315311386223
 51
309.9999999999998
  0
ARC
  8
1
 62
7
 10
135.5117816237955
 20
1087.447264048754
 30
0
 40
8.999999999999568
 50
299.6108418952734
 51
340.3891581047327
  0
ARC
  8
1
 62
7
 10
83.0377372701455
 20
1131.478215312282
 30
0
 40
77
 50
0
 51
47.0222555537577
  0
ARC
  8
1
 62
7
 10
151.5377372701455
 20
1131.478215312282
 30
0
 40
8.999999999999981
 50
339.6108418952733
 51
20.38915810472804
  0
ARC
  8
1
 62
7
 10
69.0377372701455
 20
1065.957226308758
 30
0
 40
3
 50
0
 51
77.93886727087636
  0
ARC
  8
1
 62
7
 10
83.0377372701455
 20
1131.478215312282
 30
0
 40
117.4999999999996
 50
258.4829526805187
 51
261.5170473194812
  0
ARC
  8
1
 62
7
 10
44.08305535128301
 20
1076.966448173432
 30
0
 40
3.000000000000223
 50
330.4164461402776
 51
54.45000150362932
  0
ARC
  8
1
 62
7
 10
55.30650308215058
 20
1070.48658760478
 30
0
 40
2.999999999999509
 50
65.54999849636714
 51
149.5835538597193
  0
ARC
  8
1
 62
7
 10
83.0377372701455
 20
1131.478215312282
 30
0
 40
117.4999999999996
 50
238.4829526805187
 51
241.5170473194812
  0
ARC
  8
1
 62
7
 10
97.0377372701455
 20
1196.999204315807
 30
0
 40
3
 50
180
 51
257.9388672708799
  0
ARC
  8
1
 62
7
 10
69.0377372701455
 20
1196.999204315807
 30
0
 40
3.000000000000527
 50
282.06113272912
 51
0
  0
ARC
  8
1
 62
7
 10
83.0377372701455
 20
1131.478215312282
 30
0
 40
117.4999999999998
 50
18.48295268051889
 51
21.51704731948109
  0
ARC
  8
1
 62
7
 10
83.0377372701455
 20
1131.478215312282
 30
0
 40
117.4999999999998
 50
38.48295268051883
 51
41.51704731948116
  0
ARC
  8
1
 62
7
 10
83.0377372701455
 20
1131.478215312282
 30
0
 40
117.4999999999998
 50
58.48295268051879
 51
61.5170473194812
  0
ARC
  8
1
 62
7
 10
83.0377372701455
 20
1131.478215312282
 30
0
 40
117.4999999999997
 50
78.48295268051878
 51
81.51704731948131
  0
ARC
  8
1
 62
7
 10
83.0377372701455
 20
1131.478215312282
 30
0
 40
117.5000000000006
 50
98.48295268051872
 51
101.5170473194812
  0
ARC
  8
1
 62
7
 10
110.7689714581403
 20
1192.469843019785
 30
0
 40
3.000000000000278
 50
245.5499984963768
 51
329.5835538597046
  0
ARC
  8
1
 62
7
 10
121.9924191890081
 20
1185.989982451132
 30
0
 40
3.000000000000396
 50
150.4164461402795
 51
234.4500015036132
  0
ARC
  8
1
 62
7
 10
135.5117816237955
 20
1175.50916657581
 30
0
 40
9.000000000000071
 50
19.61084189527276
 51
60.3891581047295
  0
ARC
  8
1
 62
7
 10
83.0377372701455
 20
1131.478215312282
 30
0
 40
58.99999999999951
 50
271.2139844645485
 51
250.9573927705191
  0
ARC
  8
1
 62
7
 10
83.0377372701455
 20
1131.478215312282
 30
0
 40
58.99999999999919
 50
260.9799746340966
 51
268.7860155354515
  0
ARC
  8
1
 62
3
 10
83.0377372701455
 20
1131.478215312282
 30
0
 40
40.5
 50
0
 51
268.231330862279
  0
ARC
  8
1
 62
3
 10
83.0377372701455
 20
1131.478215312282
 30
0
 40
40.49999999999971
 50
271.768669137721
 51
0
  0
ARC
  8
1
 62
7
 10
83.0377372701455
 20
1131.478215312282
 30
0
 40
38.95000000000014
 50
271.8390763518001
 51
0
  0
ARC
  8
1
 62
7
 10
83.0377372701455
 20
1131.478215312282
 30
0
 40
38.95
 50
0
 51
268.1609236481999
  0
ARC
  8
1
 62
7
 10
83.0377372701455
 20
1131.478215312282
 30
0
 40
117.4999999999997
 50
218.4829526805188
 51
221.5170473194812
  0
ARC
  8
1
 62
7
 10
83.0377372701455
 20
1131.478215312282
 30
0
 40
117.4999999999998
 50
198.4829526805188
 51
201.517047319481
  0
ARC
  8
1
 62
7
 10
83.0377372701455
 20
1131.478215312282
 30
0
 40
117.4999999999999
 50
178.4829526805187
 51
181.5170473194812
  0
ARC
  8
1
 62
7
 10
83.0377372701455
 20
1131.478215312282
 30
0
 40
117.4999999999998
 50
158.4829526805189
 51
161.5170473194811
  0
ARC
  8
1
 62
7
 10
83.0377372701455
 20
1131.478215312282
 30
0
 40
117.4999999999998
 50
138.4829526805188
 51
141.5170473194812
  0
ARC
  8
1
 62
7
 10
83.0377372701455
 20
1131.478215312282
 30
0
 40
117.4999999999998
 50
118.4829526805188
 51
121.5170473194812
  0
ARC
  8
1
 62
7
 10
55.3065030821507
 20
1192.469843019785
 30
0
 40
3.000000000000285
 50
210.4164461402955
 51
294.4500015036244
  0
ARC
  8
1
 62
7
 10
44.08305535128312
 20
1185.989982451132
 30
0
 40
2.999999999999158
 50
305.5499984963833
 51
29.58355385972185
  0
ARC
  8
1
 62
7
 10
83.0377372701455
 20
1131.478215312282
 30
0
 40
76.99999999999999
 50
132.9777444462422
 51
180
  0
ARC
  8
1
 62
7
 10
83.0377372701455
 20
1131.478215312282
 30
0
 40
76.99999999999989
 50
180
 51
227.0222555537576
  0
ARC
  8
1
 62
7
 10
14.5377372701455
 20
1131.478215312282
 30
0
 40
8.999999999999954
 50
159.6108418952717
 51
200.3891581047269
  0
ARC
  8
1
 62
7
 10
30.5636929164956
 20
1087.447264048754
 30
0
 40
8.999999999999792
 50
199.6108418952672
 51
240.3891581047267
  0
ARC
  8
1
 62
7
 10
30.5636929164956
 20
1175.50916657581
 30
0
 40
9.000000000000361
 50
119.6108418952705
 51
160.3891581047273
  0
ARC
  8
1
 62
7
 10
83.0377372701455
 20
1131.478215312282
 30
0
 40
64.00000000000037
 50
50.0000000000003
 51
129.9999999999997
  0
ARC
  8
1
 62
7
 10
83.0377372701455
 20
1131.478215312282
 30
0
 40
60.00000000000019
 50
50.00000000000023
 51
129.9999999999997
  0
ARC
  8
1
 62
7
 10
30.5636929164956
 20
1087.447264048754
 30
0
 40
3.199999999999822
 50
0
 51
91.37516712694777
  0
ARC
  8
1
 62
7
 10
30.5636929164956
 20
1087.447264048754
 30
0
 40
3.200000000000025
 50
348.6248328730443
 51
0
  0
ARC
  8
1
 62
3
 10
30.5636929164956
 20
1087.447264048754
 30
0
 40
3.200000000000632
 50
91.37516712694777
 51
168.6248328730488
  0
ARC
  8
1
 62
3
 10
30.5636929164956
 20
1087.447264048754
 30
0
 40
3.199999999999723
 50
271.3751671269479
 51
348.6248328730443
  0
ARC
  8
1
 62
7
 10
30.5636929164956
 20
1087.447264048754
 30
0
 40
3.200000000000095
 50
168.6248328730488
 51
271.3751671269479
  0
ARC
  8
1
 62
7
 10
14.5377372701455
 20
1131.478215312282
 30
0
 40
3.199999999999921
 50
128.6248328730512
 51
231.3751671269488
  0
ARC
  8
1
 62
7
 10
14.5377372701455
 20
1131.478215312282
 30
0
 40
3.200000000000009
 50
319.9999999999993
 51
51.37516712694601
  0
ARC
  8
1
 62
7
 10
14.5377372701455
 20
1131.478215312282
 30
0
 40
3.199999999999988
 50
308.6248328730527
 51
319.9999999999993
  0
ARC
  8
1
 62
3
 10
14.5377372701455
 20
1131.478215312282
 30
0
 40
3.199999999999921
 50
231.3751671269488
 51
308.6248328730527
  0
ARC
  8
1
 62
3
 10
14.5377372701455
 20
1131.478215312282
 30
0
 40
3.200000000000046
 50
51.37516712694601
 51
128.6248328730512
  0
ARC
  8
1
 62
7
 10
30.5636929164956
 20
1175.50916657581
 30
0
 40
3.19999999999972
 50
88.62483287305406
 51
191.3751671269552
  0
ARC
  8
1
 62
7
 10
30.5636929164956
 20
1175.50916657581
 30
0
 40
3.199999999999913
 50
279.9999999999967
 51
11.37516712693586
  0
ARC
  8
1
 62
7
 10
30.5636929164956
 20
1175.50916657581
 30
0
 40
3.199999999999725
 50
268.6248328730499
 51
279.9999999999967
  0
ARC
  8
1
 62
3
 10
30.5636929164956
 20
1175.50916657581
 30
0
 40
3.20000000000014
 50
191.3751671269552
 51
268.6248328730499
  0
ARC
  8
1
 62
3
 10
30.5636929164956
 20
1175.50916657581
 30
0
 40
3.199999999999745
 50
11.37516712693586
 51
88.62483287305406
  0
ARC
  8
1
 62
3
 10
135.5117816237955
 20
1175.50916657581
 30
0
 40
3.199999999999718
 50
91.37516712694449
 51
168.6248328730648
  0
ARC
  8
1
 62
7
 10
135.5117816237955
 20
1175.50916657581
 30
0
 40
3.20000000000014
 50
348.6248328730448
 51
91.37516712694449
  0
ARC
  8
1
 62
7
 10
135.5117816237955
 20
1175.50916657581
 30
0
 40
3.199999999999944
 50
168.6248328730648
 51
271.3751671269532
  0
ARC
  8
1
 62
3
 10
135.5117816237955
 20
1175.50916657581
 30
0
 40
3.19999999999973
 50
271.3751671269532
 51
348.6248328730448
  0
ARC
  8
1
 62
7
 10
151.5377372701455
 20
1131.478215312282
 30
0
 40
3.199999999999867
 50
308.62483287305
 51
51.37516712694604
  0
ARC
  8
1
 62
7
 10
151.5377372701455
 20
1131.478215312282
 30
0
 40
3.200000000000045
 50
128.624832873054
 51
231.3751671269488
  0
ARC
  8
1
 62
3
 10
151.5377372701455
 20
1131.478215312282
 30
0
 40
3.199999999999921
 50
231.3751671269488
 51
308.62483287305
  0
ARC
  8
1
 62
3
 10
151.5377372701455
 20
1131.478215312282
 30
0
 40
3.200000000000045
 50
51.37516712694604
 51
128.624832873054
  0
ARC
  8
1
 62
3
 10
135.5117816237955
 20
1087.447264048754
 30
0
 40
3.200000000000095
 50
11.37516712695121
 51
88.62483287305641
  0
ARC
  8
1
 62
7
 10
135.5117816237955
 20
1087.447264048754
 30
0
 40
3.199999999999728
 50
268.6248328730484
 51
11.37516712695121
  0
ARC
  8
1
 62
7
 10
135.5117816237955
 20
1087.447264048754
 30
0
 40
3.200000000000626
 50
88.62483287305641
 51
191.3751671269555
  0
ARC
  8
1
 62
3
 10
135.5117816237955
 20
1087.447264048754
 30
0
 40
3.200000000000057
 50
191.3751671269555
 51
268.6248328730484
  0
ARC
  8
1
 62
7
 10
-307.3924125703886
 20
1194.353215312282
 30
0
 40
2.796540366387215
 50
137.8965511292535
 51
222.1034488707465
  0
ARC
  8
1
 62
7
 10
-300.0853232259574
 20
1199.978215312282
 30
0
 40
10.10362971081844
 50
158.2132107017382
 51
201.7867892982619
  0
ARC
  8
1
 62
7
 10
-307.3924125703886
 20
1205.603215312282
 30
0
 40
2.796540366387215
 50
137.8965511292535
 51
222.1034488707465
  0
ARC
  8
1
 62
7
 10
-307.9854933031631
 20
1194.353215312282
 30
0
 40
2.796540366387215
 50
317.8965511292535
 51
42.10344887074648
  0
ARC
  8
1
 62
7
 10
-315.2925826475943
 20
1199.978215312282
 30
0
 40
10.10362971081844
 50
338.2132107017382
 51
21.78678929826184
  0
ARC
  8
1
 62
7
 10
-307.9854933031631
 20
1205.603215312282
 30
0
 40
2.796540366387215
 50
317.8965511292535
 51
42.10344887074648
  0
ARC
  8
1
 62
7
 10
-819.8162941844024
 20
1131.478215312282
 30
0
 40
34.50000000000001
 50
195.121665314909
 51
164.878334685091
  0
ARC
  8
1
 62
7
 10
-828.8162941844025
 20
1199.384400597571
 30
0
 40
8
 50
90
 51
270
  0
ARC
  8
1
 62
7
 10
-810.8162941844025
 20
1199.384400597571
 30
0
 40
8
 50
270
 51
90
  0
ARC
  8
1
 62
7
 10
-810.8162941844025
 20
1063.572030026993
 30
0
 40
8
 50
270
 51
90
  0
ARC
  8
1
 62
7
 10
-828.8162941844025
 20
1063.572030026993
 30
0
 40
8
 50
90
 51
270
  0
ARC
  8
1
 62
7
 10
-819.8162941844024
 20
1131.478215312282
 30
0
 40
91.99999999999999
 50
303.3356583111686
 51
316.6643416888314
  0
ARC
  8
1
 62
7
 10
-819.8162941844024
 20
1131.478215312282
 30
0
 40
92.00000000000034
 50
103.3356583111687
 51
116.6643416888316
  0
ARC
  8
1
 62
7
 10
-819.8162941844024
 20
1131.478215312282
 30
0
 40
145.0000000000004
 50
102.0310009332893
 51
117.9689990667108
  0
ARC
  8
1
 62
7
 10
-819.8162941844024
 20
1131.478215312282
 30
0
 40
91.99999999999936
 50
123.3356583111689
 51
136.6643416888316
  0
ARC
  8
1
 62
7
 10
-819.8162941844024
 20
1131.478215312282
 30
0
 40
144.9999999999992
 50
122.0310009332892
 51
137.9689990667106
  0
ARC
  8
1
 62
7
 10
-819.8162941844024
 20
1131.478215312282
 30
0
 40
144.9999999999992
 50
142.0310009332892
 51
157.9689990667107
  0
ARC
  8
1
 62
7
 10
-819.8162941844024
 20
1131.478215312282
 30
0
 40
144.9999999999994
 50
162.0310009332894
 51
177.9689990667106
  0
ARC
  8
1
 62
7
 10
-819.8162941844024
 20
1131.478215312282
 30
0
 40
144.9999999999994
 50
182.0310009332893
 51
197.9689990667105
  0
ARC
  8
1
 62
7
 10
-819.8162941844024
 20
1131.478215312282
 30
0
 40
144.9999999999992
 50
202.0310009332892
 51
217.9689990667107
  0
ARC
  8
1
 62
7
 10
-819.8162941844024
 20
1131.478215312282
 30
0
 40
144.9999999999994
 50
82.03100093328925
 51
97.96899906671067
  0
ARC
  8
1
 62
7
 10
-819.8162941844024
 20
1131.478215312282
 30
0
 40
144.9999999999996
 50
62.03100093328927
 51
77.96899906671055
  0
ARC
  8
1
 62
7
 10
-819.8162941844024
 20
1131.478215312282
 30
0
 40
144.9999999999997
 50
42.03100093328929
 51
57.96899906671057
  0
ARC
  8
1
 62
7
 10
-819.8162941844024
 20
1131.478215312282
 30
0
 40
92.00000000000013
 50
43.33565831116884
 51
56.66434168883169
  0
ARC
  8
1
 62
7
 10
-819.8162941844024
 20
1131.478215312282
 30
0
 40
91.99999999999989
 50
63.33565831116876
 51
76.66434168883161
  0
ARC
  8
1
 62
7
 10
-819.8162941844024
 20
1131.478215312282
 30
0
 40
92.00000000000046
 50
83.33565831116879
 51
96.66434168883173
  0
ARC
  8
1
 62
7
 10
-819.8162941844024
 20
1131.478215312282
 30
0
 40
92.0000000000001
 50
23.33565831116914
 51
36.66434168883195
  0
ARC
  8
1
 62
7
 10
-819.8162941844024
 20
1131.478215312282
 30
0
 40
91.99999999999952
 50
3.335658311168684
 51
16.66434168883161
  0
ARC
  8
1
 62
7
 10
-819.8162941844024
 20
1131.478215312282
 30
0
 40
144.9999999999994
 50
2.031000933289387
 51
17.96899906671059
  0
ARC
  8
1
 62
7
 10
-819.8162941844024
 20
1131.478215312282
 30
0
 40
144.9999999999994
 50
22.03100093328927
 51
37.96899906671035
  0
ARC
  8
1
 62
7
 10
-819.8162941844024
 20
1131.478215312282
 30
0
 40
144.9999999999994
 50
342.031000933289
 51
357.9689990667103
  0
ARC
  8
1
 62
7
 10
-819.8162941844024
 20
1131.478215312282
 30
0
 40
91.99999999999996
 50
343.3356583111687
 51
356.6643416888315
  0
ARC
  8
1
 62
7
 10
-819.8162941844024
 20
1131.478215312282
 30
0
 40
91.99999999999986
 50
323.3356583111688
 51
336.6643416888315
  0
ARC
  8
1
 62
7
 10
-819.8162941844024
 20
1131.478215312282
 30
0
 40
144.9999999999992
 50
322.0310009332892
 51
337.9689990667104
  0
ARC
  8
1
 62
7
 10
-819.8162941844024
 20
1131.478215312282
 30
0
 40
144.999999999999
 50
302.0310009332893
 51
317.9689990667105
  0
ARC
  8
1
 62
7
 10
-819.8162941844024
 20
1131.478215312282
 30
0
 40
92.00000000000033
 50
283.3356583111686
 51
296.6643416888315
  0
ARC
  8
1
 62
7
 10
-819.8162941844024
 20
1131.478215312282
 30
0
 40
87.99999999999974
 50
243.7998492654775
 51
296.2001507345224
  0
ARC
  8
1
 62
7
 10
-819.8162941844024
 20
1131.478215312282
 30
0
 40
92.00000000000046
 50
263.3356583111687
 51
276.6643416888317
  0
ARC
  8
1
 62
7
 10
-819.8162941844024
 20
1131.478215312282
 30
0
 40
144.9999999999994
 50
282.0310009332892
 51
297.9689990667105
  0
ARC
  8
1
 62
7
 10
-819.8162941844024
 20
1131.478215312282
 30
0
 40
144.9999999999994
 50
262.0310009332892
 51
277.9689990667105
  0
ARC
  8
1
 62
7
 10
-819.8162941844024
 20
1131.478215312282
 30
0
 40
144.9999999999992
 50
242.0310009332893
 51
257.9689990667104
  0
ARC
  8
1
 62
7
 10
-819.8162941844024
 20
1131.478215312282
 30
0
 40
91.99999999999994
 50
243.3356583111687
 51
256.6643416888315
  0
ARC
  8
1
 62
7
 10
-819.8162941844024
 20
1131.478215312282
 30
0
 40
91.99999999999999
 50
223.3356583111687
 51
236.6643416888315
  0
ARC
  8
1
 62
7
 10
-819.8162941844024
 20
1131.478215312282
 30
0
 40
144.9999999999995
 50
222.0310009332894
 51
237.9689990667104
  0
ARC
  8
1
 62
7
 10
-819.8162941844024
 20
1131.478215312282
 30
0
 40
92.00000000000014
 50
203.335658311169
 51
216.6643416888318
  0
ARC
  8
1
 62
7
 10
-819.8162941844024
 20
1131.478215312282
 30
0
 40
92.00000000000001
 50
183.3356583111691
 51
196.664341688832
  0
ARC
  8
1
 62
7
 10
-819.8162941844024
 20
1131.478215312282
 30
0
 40
91.99999999999999
 50
163.3356583111691
 51
176.664341688832
  0
ARC
  8
1
 62
7
 10
-819.8162941844024
 20
1131.478215312282
 30
0
 40
92.00000000000009
 50
143.3356583111687
 51
156.6643416888316
  0
ARC
  8
1
 62
7
 10
-819.8162941844024
 20
1131.478215312282
 30
0
 40
87.99999999999962
 50
203.7998492654779
 51
236.2001507345229
  0
ARC
  8
1
 62
7
 10
-819.8162941844024
 20
1131.478215312282
 30
0
 40
87.99999999999955
 50
163.7998492654776
 51
196.2001507345229
  0
ARC
  8
1
 62
7
 10
-819.8162941844024
 20
1131.478215312282
 30
0
 40
87.99999999999996
 50
123.799849265477
 51
156.2001507345228
  0
ARC
  8
1
 62
7
 10
-819.8162941844024
 20
1131.478215312282
 30
0
 40
87.99999999999953
 50
63.79984926547777
 51
116.2001507345224
  0
ARC
  8
1
 62
7
 10
-819.8162941844024
 20
1131.478215312282
 30
0
 40
87.99999999999996
 50
303.799849265477
 51
336.2001507345223
  0
ARC
  8
1
 62
7
 10
-819.8162941844024
 20
1131.478215312282
 30
0
 40
87.99999999999952
 50
343.7998492654771
 51
16.20015073452239
  0
ARC
  8
1
 62
7
 10
-819.8162941844024
 20
1131.478215312282
 30
0
 40
87.99999999999977
 50
23.79984926547719
 51
56.20015073452309
  0
CIRCLE
  8
1
 62
7
 10
-819.8162941844024
 20
1131.478215312282
 30
0
 40
201.5
  0
CIRCLE
  8
1
 62
7
 10
-767.342249830753
 20
1087.447264048754
 30
0
 40
13.49999999999929
  0
CIRCLE
  8
1
 62
7
 10
-767.342249830753
 20
1087.447264048754
 30
0
 40
9.500000000000211
  0
CIRCLE
  8
1
 62
7
 10
-751.316294184403
 20
1131.478215312282
 30
0
 40
9.499999999999945
  0
CIRCLE
  8
1
 62
7
 10
-751.316294184403
 20
1131.478215312282
 30
0
 40
13.49999999999992
  0
CIRCLE
  8
1
 62
7
 10
-767.3422498307529
 20
1175.50916657581
 30
0
 40
9.5
  0
CIRCLE
  8
1
 62
7
 10
-767.3422498307529
 20
1175.50916657581
 30
0
 40
13.5
  0
CIRCLE
  8
1
 62
7
 10
-872.2903385380523
 20
1087.447264048754
 30
0
 40
9.500000000000211
  0
CIRCLE
  8
1
 62
7
 10
-872.2903385380523
 20
1087.447264048754
 30
0
 40
13.49999999999929
  0
CIRCLE
  8
1
 62
7
 10
-888.3162941844023
 20
1131.478215312282
 30
0
 40
13.49999999999992
  0
CIRCLE
  8
1
 62
7
 10
-888.3162941844023
 20
1131.478215312282
 30
0
 40
9.499999999999945
  0
CIRCLE
  8
1
 62
7
 10
-872.2903385380524
 20
1175.50916657581
 30
0
 40
13.5
  0
CIRCLE
  8
1
 62
7
 10
-872.2903385380524
 20
1175.50916657581
 30
0
 40
9.5
  0
CIRCLE
  8
1
 62
7
 10
-689.001539664891
 20
1262.292969831793
 30
0
 40
4.500000000000438
  0
CIRCLE
  8
1
 62
7
 10
-634.8162941844025
 20
1131.478215312282
 30
0
 40
4.5
  0
CIRCLE
  8
1
 62
7
 10
-689.0015396648917
 20
1000.66346079277
 30
0
 40
4.5000000000006
  0
CIRCLE
  8
1
 62
7
 10
-819.816294184403
 20
946.4782153122819
 30
0
 40
4.500000000000227
  0
CIRCLE
  8
1
 62
7
 10
-950.6310487039141
 20
1000.663460792771
 30
0
 40
4.500000000000277
  0
CIRCLE
  8
1
 62
7
 10
-1004.816294184403
 20
1131.478215312282
 30
0
 40
4.5
  0
CIRCLE
  8
1
 62
7
 10
-950.6310487039136
 20
1262.292969831794
 30
0
 40
4.500000000000438
  0
CIRCLE
  8
1
 62
7
 10
-799.8162941844026
 20
947.5624737347866
 30
0
 40
5.5
  0
CIRCLE
  8
1
 62
3
 10
-648.8985806698146
 20
1060.68178032474
 30
0
 40
4
  0
CIRCLE
  8
1
 62
7
 10
-648.8985806698146
 20
1060.68178032474
 30
0
 40
3.200000000000046
  0
CIRCLE
  8
1
 62
3
 10
-990.7340076989905
 20
1202.274650299824
 30
0
 40
4
  0
CIRCLE
  8
1
 62
7
 10
-990.7340076989905
 20
1202.274650299824
 30
0
 40
3.200000000000046
  0
CIRCLE
  8
1
 62
7
 10
-839.8162941844024
 20
1315.393956889777
 30
0
 40
5.5
  0
CIRCLE
  8
1
 62
7
 10
-819.8162941844024
 20
1316.478215312282
 30
0
 40
4.5
  0
CIRCLE
  8
1
 62
3
 10
-819.8162941844024
 20
1131.478215312282
 30
0
 40
162.5
  0
CIRCLE
  8
1
 62
7
 10
-819.8162941844024
 20
1131.478215312282
 30
0
 40
153.5
  0
CIRCLE
  8
1
 62
7
 10
-819.8162941844024
 20
1131.478215312282
 30
0
 40
149
  0
CIRCLE
  8
1
 62
7
 10
-819.8162941844024
 20
1131.478215312282
 30
0
 40
197.5
  0
CIRCLE
  8
1
 62
7
 10
132.6306580523675
 20
1267.733645326239
 30
0
 40
2.886751345947854
  0
CIRCLE
  8
1
 62
7
 10
-819.8162941844024
 20
1131.478215312282
 30
0
 40
30
  0
CIRCLE
  8
1
 62
3
  6
DASHED
 10
-376.1889529367759
 20
1131.478215312282
 30
0
 40
10
  0
CIRCLE
  8
1
 62
7
 10
83.0377372701455
 20
1131.478215312282
 30
0
 40
203.4999999999999
  0
CIRCLE
  8
1
 62
7
 10
83.0377372701455
 20
1312.478215312282
 30
0
 40
10
  0
CIRCLE
  8
1
 62
7
 10
21.13209132819941
 20
1301.562579674531
 30
0
 40
10.00000000000014
  0
CIRCLE
  8
1
 62
7
 10
-33.3068200831182
 20
1270.132259516817
 30
0
 40
9.999999999999774
  0
CIRCLE
  8
1
 62
7
 10
-73.712860814838
 20
1221.978215312282
 30
0
 40
10.00000000000062
  0
CIRCLE
  8
1
 62
7
 10
-95.21246602506429
 20
1162.908535469996
 30
0
 40
10.00000000000087
  0
CIRCLE
  8
1
 62
7
 10
-95.21246602506429
 20
1100.047895154568
 30
0
 40
9.999999999999751
  0
CIRCLE
  8
1
 62
7
 10
-73.712860814838
 20
1040.978215312282
 30
0
 40
9.999999999999639
  0
CIRCLE
  8
1
 62
7
 10
-33.30682008311811
 20
992.8241711077469
 30
0
 40
10.00000000000006
  0
CIRCLE
  8
1
 62
7
 10
21.13209132819941
 20
961.3938509500326
 30
0
 40
9.999999999999989
  0
CIRCLE
  8
1
 62
7
 10
83.0377372701455
 20
950.478215312282
 30
0
 40
10
  0
CIRCLE
  8
1
 62
7
 10
144.9433832120916
 20
961.3938509500326
 30
0
 40
9.999999999999961
  0
CIRCLE
  8
1
 62
7
 10
199.3822946234091
 20
992.8241711077471
 30
0
 40
9.999999999999996
  0
CIRCLE
  8
1
 62
7
 10
239.7883353551288
 20
1040.978215312282
 30
0
 40
9.999999999999639
  0
CIRCLE
  8
1
 62
7
 10
261.2879405653549
 20
1100.047895154568
 30
0
 40
9.999999999999981
  0
CIRCLE
  8
1
 62
7
 10
261.2879405653549
 20
1162.908535469997
 30
0
 40
9.99999999999997
  0
CIRCLE
  8
1
 62
7
 10
239.7883353551287
 20
1221.978215312282
 30
0
 40
9.999999999999639
  0
CIRCLE
  8
1
 62
7
 10
199.3822946234091
 20
1270.132259516817
 30
0
 40
9.999999999999625
  0
CIRCLE
  8
1
 62
7
 10
144.9433832120913
 20
1301.562579674531
 30
0
 40
9.999999999999726
  0
CIRCLE
  8
1
 62
7
 10
135.5117816237955
 20
1087.447264048754
 30
0
 40
6.5
  0
CIRCLE
  8
1
 62
7
 10
135.5117816237955
 20
1087.447264048754
 30
0
 40
4
  0
CIRCLE
  8
1
 62
7
 10
151.5377372701455
 20
1131.478215312282
 30
0
 40
6.50000000000039
  0
CIRCLE
  8
1
 62
7
 10
151.5377372701455
 20
1131.478215312282
 30
0
 40
3.999999999999994
  0
CIRCLE
  8
1
 62
7
 10
135.5117816237955
 20
1175.50916657581
 30
0
 40
6.499999999999583
  0
CIRCLE
  8
1
 62
7
 10
135.5117816237955
 20
1175.50916657581
 30
0
 40
4.000000000000226
  0
CIRCLE
  8
1
 62
7
 10
129.2317138957099
 20
1150.612386930537
 30
0
 40
3.25
  0
CIRCLE
  8
1
 62
7
 10
102.1719088883999
 20
1177.672191937847
 30
0
 40
3.249999999999946
  0
CIRCLE
  8
1
 62
7
 10
63.90356565189097
 20
1177.672191937847
 30
0
 40
3.25
  0
CIRCLE
  8
1
 62
7
 10
36.84376064458121
 20
1150.612386930537
 30
0
 40
3.249999999999825
  0
CIRCLE
  8
1
 62
7
 10
36.84376064458121
 20
1112.344043694028
 30
0
 40
3.25
  0
CIRCLE
  8
1
 62
7
 10
129.2317138957099
 20
1112.344043694028
 30
0
 40
3.25
  0
CIRCLE
  8
1
 62
7
 10
83.0377372701455
 20
1131.478215312282
 30
0
 40
30
  0
CIRCLE
  8
1
 62
7
 10
30.5636929164956
 20
1087.447264048754
 30
0
 40
6.499999999999876
  0
CIRCLE
  8
1
 62
7
 10
30.5636929164956
 20
1087.447264048754
 30
0
 40
3.999999999999876
  0
CIRCLE
  8
1
 62
7
 10
14.5377372701455
 20
1131.478215312282
 30
0
 40
6.499999999999998
  0
CIRCLE
  8
1
 62
7
 10
14.5377372701455
 20
1131.478215312282
 30
0
 40
3.999999999999998
  0
CIRCLE
  8
1
 62
7
 10
30.5636929164956
 20
1175.50916657581
 30
0
 40
6.499999999999876
  0
CIRCLE
  8
1
 62
7
 10
30.5636929164956
 20
1175.50916657581
 30
0
 40
3.999999999999876
  0
CIRCLE
  8
1
 62
7
 10
132.6306580523675
 20
1267.733645326239
 30
0
 40
4.863999999999805
  0
CIRCLE
  8
1
 62
3
 10
132.6306580523675
 20
1267.733645326239
 30
0
 40
4.282999999999902
  0
CIRCLE
  8
1
 62
7
 10
240.5377372701454
 20
886.4782153122822
 30
0
 40
15
  0
CIRCLE
  8
1
 62
7
 10
-74.4622627298545
 20
886.4782153122822
 30
0
 40
15
  0
CIRCLE
  8
1
 62
7
 10
-819.8162941844024
 20
1131.478215312282
 30
0
 40
203.4999999999998
  0
CIRCLE
  8
1
 62
7
 10
-662.3162941844026
 20
886.4782153122822
 30
0
 40
15
  0
CIRCLE
  8
1
 62
7
 10
-977.3162941844025
 20
886.4782153122822
 30
0
 40
15
  0
CIRCLE
  8
1
 62
7
 10
-872.2903385380524
 20
1175.50916657581
 30
0
 40
16
  0
CIRCLE
  8
1
 62
7
 10
-888.3162941844023
 20
1131.478215312282
 30
0
 40
16.00000000000021
  0
CIRCLE
  8
1
 62
7
 10
-872.2903385380523
 20
1087.447264048754
 30
0
 40
15.99999999999974
  0
CIRCLE
  8
1
 62
7
 10
-767.3422498307529
 20
1175.50916657581
 30
0
 40
16
  0
CIRCLE
  8
1
 62
7
 10
-751.316294184403
 20
1131.478215312282
 30
0
 40
16.00000000000021
  0
CIRCLE
  8
1
 62
7
 10
-767.342249830753
 20
1087.447264048754
 30
0
 40
15.99999999999974
  0
CIRCLE
  8
1
 62
7
 10
-819.8162941844024
 20
1131.478215312282
 30
0
 40
50
  0
ARC
  8
1
 62
7
 10
-380.9445181025306
 20
931.9782153122822
 30
0
 40
2.000000000000014
 50
187.808992460297
 51
270
  0
ARC
  8
1
 62
7
 10
-350.59839132925
 20
931.9782153122822
 30
0
 40
2
 50
270
 51
340.3461759419473
  0
ARC
  8
1
 62
7
 10
-380.9445181025306
 20
1330.978215312282
 30
0
 40
2
 50
90
 51
172.1910075396966
  0
ARC
  8
1
 62
7
 10
-350.5983913292501
 20
1330.978215312282
 30
0
 40
1.999999999999935
 50
19.65382405804663
 51
90
  0
ARC
  8
1
 62
7
 10
-914.6553449961459
 20
1125.950608133081
 30
0
 40
3.000000000000097
 50
3.335658311164775
 51
89.39739267870995
  0
ARC
  8
1
 62
7
 10
99.21155824880049
 20
1041.478215312282
 30
0
 40
3.000000000000151
 50
9.583553859718053
 51
90
  0
ARC
  8
1
 62
7
 10
93.78826981873732
 20
1034.478215312282
 30
0
 40
3.000000000000068
 50
10.41644614029764
 51
90
  0
ARC
  8
1
 62
7
 10
96.0377372701455
 20
1046.478215312282
 30
0
 40
2
 50
180
 51
270
  0
ARC
  8
1
 62
7
 10
72.28720472155362
 20
1034.478215312282
 30
0
 40
3
 50
90
 51
169.5835538597024
  0
ARC
  8
1
 62
7
 10
66.86391629149051
 20
1041.478215312282
 30
0
 40
3
 50
90
 51
170.4164461402819
  0
ARC
  8
1
 62
7
 10
70.0377372701455
 20
1046.478215312282
 30
0
 40
2
 50
270
 51
0
  0
ARC
  8
1
 62
7
 10
66.86391629149051
 20
1221.478215312282
 30
0
 40
3.000000000000137
 50
189.5835538597181
 51
270
  0
ARC
  8
1
 62
7
 10
70.0377372701455
 20
1216.478215312282
 30
0
 40
2
 50
0
 51
90
  0
ARC
  8
1
 62
7
 10
96.0377372701455
 20
1216.478215312282
 30
0
 40
2
 50
90
 51
180
  0
ARC
  8
1
 62
7
 10
99.21155824880049
 20
1221.478215312282
 30
0
 40
3
 50
270
 51
350.416446140282
  0
ARC
  8
1
 62
7
 10
72.28720472155362
 20
1228.478215312282
 30
0
 40
2.999999999999863
 50
190.4164461402763
 51
270
  0
ARC
  8
1
 62
7
 10
93.78826981873732
 20
1228.478215312282
 30
0
 40
3
 50
270
 51
349.5835538597237
  0
ARC
  8
1
 62
7
 10
210.5377372701454
 20
855.9782153122822
 30
0
 40
15
 50
180
 51
270
  0
ARC
  8
1
 62
7
 10
271.5377372701454
 20
855.9782153122822
 30
0
 40
15
 50
270
 51
0
  0
ARC
  8
1
 62
7
 10
165.5377372701455
 20
885.978215312282
 30
0
 40
29.99999999999992
 50
0
 51
90
  0
ARC
  8
1
 62
7
 10
0.5377372701454988
 20
885.978215312282
 30
0
 40
30.00000000000011
 50
90
 51
180
  0
ARC
  8
1
 62
7
 10
-44.4622627298545
 20
855.9782153122822
 30
0
 40
15
 50
270
 51
0
  0
ARC
  8
1
 62
7
 10
-105.4622627298545
 20
855.9782153122822
 30
0
 40
15
 50
180
 51
270
  0
ARC
  8
1
 62
7
 10
-415.1889529367759
 20
954.4471164280014
 30
0
 40
3.000000000000028
 50
111.801409486352
 51
180
  0
ARC
  8
1
 62
7
 10
-401.1889529367759
 20
966.5093141965629
 30
0
 40
3.000000000000006
 50
291.801409486351
 51
0
  0
ARC
  8
1
 62
7
 10
-401.1889529367759
 20
1296.447116428001
 30
0
 40
3
 50
0
 51
68.1985905136506
  0
ARC
  8
1
 62
7
 10
-415.1889529367759
 20
1308.509314196563
 30
0
 40
3
 50
180
 51
248.1985905136496
  0
ARC
  8
1
 62
7
 10
-390.3250616453372
 20
1280.978215312282
 30
0
 40
0.5
 50
270
 51
352.1910075397155
  0
ARC
  8
1
 62
7
 10
-390.3250616453372
 20
981.9782153122822
 30
0
 40
0.4999999999999599
 50
7.808992460284524
 51
90
  0
ARC
  8
1
 62
7
 10
-454.6889529367759
 20
1078.103696877721
 30
0
 40
3
 50
0
 51
70.0000000000026
  0
ARC
  8
1
 62
7
 10
-454.6889529367759
 20
1184.852733746843
 30
0
 40
3.000000000000213
 50
289.9999999999974
 51
0
  0
ARC
  8
1
 62
7
 10
-692.3162941844026
 20
855.9782153122822
 30
0
 40
15
 50
180
 51
270
  0
ARC
  8
1
 62
7
 10
-631.3162941844026
 20
855.9782153122822
 30
0
 40
15
 50
270
 51
0
  0
ARC
  8
1
 62
7
 10
-737.3162941844025
 20
885.978215312282
 30
0
 40
30
 50
0
 51
90
  0
ARC
  8
1
 62
7
 10
-902.3162941844025
 20
885.978215312282
 30
0
 40
30.00000000000011
 50
90
 51
180
  0
ARC
  8
1
 62
7
 10
-947.3162941844025
 20
855.9782153122822
 30
0
 40
15
 50
270
 51
0
  0
ARC
  8
1
 62
7
 10
-1008.316294184403
 20
855.9782153122822
 30
0
 40
15
 50
180
 51
270
  0
ARC
  8
1
 62
7
 10
-849.414902704863
 20
1270.359180075825
 30
0
 40
2.999999999999964
 50
9.397392678701387
 51
102.031000933288
  0
ARC
  8
1
 62
7
 10
-841.7285529352058
 20
1223.916588926479
 30
0
 40
3.000000000000011
 50
283.3356583111694
 51
9.397392678697102
  0
ARC
  8
1
 62
7
 10
-862.4487713509459
 20
1216.375046175655
 30
0
 40
2.999999999999943
 50
210.6026073212894
 51
296.6643416888341
  0
ARC
  8
1
 62
7
 10
-886.4134079745678
 20
1256.892825445311
 30
0
 40
2.999999999999883
 50
117.9689990667125
 51
210.6026073212931
  0
ARC
  8
1
 62
7
 10
-895.1299756702439
 20
1251.860312739802
 30
0
 40
3.000000000000118
 50
29.39739267871063
 51
122.0310009332879
  0
ARC
  8
1
 62
7
 10
-872.0228678296029
 20
1210.847438996454
 30
0
 40
3.000000000000036
 50
303.335658311169
 51
29.39739267871063
  0
ARC
  8
1
 62
7
 10
-888.9141446434122
 20
1196.673974851873
 30
0
 40
3.000000000000289
 50
230.6026073212957
 51
316.6643416888297
  0
ARC
  8
1
 62
7
 10
-925.2914335114914
 20
1226.551844589443
 30
0
 40
2.999999999999853
 50
137.9689990667123
 51
230.6026073212957
  0
ARC
  8
1
 62
7
 10
-931.7611071368731
 20
1218.841587803482
 30
0
 40
3.000000000000354
 50
49.39739267871488
 51
142.0310009332906
  0
ARC
  8
1
 62
7
 10
-951.4476005982995
 20
1184.743580905419
 30
0
 40
2.999999999999966
 50
157.9689990667133
 51
250.6026073212894
  0
ARC
  8
1
 62
7
 10
-954.890042031952
 20
1175.285550798664
 30
0
 40
2.999999999999994
 50
69.39739267870823
 51
162.0310009332981
  0
ARC
  8
1
 62
7
 10
-961.7270894604092
 20
1136.510728017791
 30
0
 40
3
 50
177.9689990667201
 51
270.6026073212901
  0
ARC
  8
1
 62
7
 10
-961.7270894604092
 20
1126.445702606773
 30
0
 40
3.000000000000258
 50
89.39739267870995
 51
182.0310009332799
  0
ARC
  8
1
 62
7
 10
-954.890042031952
 20
1087.6708798259
 30
0
 40
2.999999999999853
 50
197.9689990667026
 51
290.6026073212897
  0
ARC
  8
1
 62
7
 10
-951.4476005982994
 20
1078.212849719145
 30
0
 40
2.999999999999659
 50
109.397392678712
 51
202.0310009332858
  0
ARC
  8
1
 62
7
 10
-931.7611071368735
 20
1044.114842821082
 30
0
 40
2.999999999999949
 50
217.9689990667128
 51
310.6026073212964
  0
ARC
  8
1
 62
7
 10
-839.5027876458286
 20
1272.106953396619
 30
0
 40
2.999999999999917
 50
97.96899906671121
 51
190.6026073212964
  0
ARC
  8
1
 62
7
 10
-800.129800722976
 20
1272.106953396619
 30
0
 40
3.000000000000086
 50
349.3973926787036
 51
82.03100093328879
  0
ARC
  8
1
 62
7
 10
-790.2176856639416
 20
1270.359180075825
 30
0
 40
2.999999999999412
 50
77.96899906670743
 51
170.6026073212986
  0
ARC
  8
1
 62
7
 10
-753.2191803942371
 20
1256.892825445311
 30
0
 40
3.000000000000059
 50
329.3973926787068
 51
62.03100093328748
  0
ARC
  8
1
 62
7
 10
-744.5026126985605
 20
1251.860312739802
 30
0
 40
3.000000000000151
 50
57.96899906671022
 51
150.6026073212883
  0
ARC
  8
1
 62
7
 10
-714.3411548573132
 20
1226.551844589442
 30
0
 40
2.999999999999586
 50
309.3973926787153
 51
42.03100093329918
  0
ARC
  8
1
 62
7
 10
-750.7184437253925
 20
1196.673974851874
 30
0
 40
2.999999999999867
 50
223.3356583111672
 51
309.3973926787043
  0
ARC
  8
1
 62
7
 10
-767.6097205392024
 20
1210.847438996455
 30
0
 40
3.000000000000131
 50
150.6026073212845
 51
236.6643416888309
  0
ARC
  8
1
 62
7
 10
-777.1838170178596
 20
1216.375046175655
 30
0
 40
2.999999999999872
 50
243.3356583111659
 51
329.3973926787256
  0
ARC
  8
1
 62
7
 10
-797.9040354335997
 20
1223.916588926479
 30
0
 40
2.999999999999927
 50
170.6026073213029
 51
256.6643416888326
  0
ARC
  8
1
 62
7
 10
-808.7912962449644
 20
1225.836306753532
 30
0
 40
2.999999999999125
 50
263.3356583111673
 51
349.3973926787249
  0
ARC
  8
1
 62
7
 10
-830.8412921238412
 20
1225.836306753532
 30
0
 40
2.999999999999877
 50
190.602607321275
 51
276.6643416888327
  0
ARC
  8
1
 62
7
 10
-743.6122889133841
 20
1188.205189325132
 30
0
 40
3.00000000000028
 50
130.6026073212835
 51
216.6643416888248
  0
ARC
  8
1
 62
7
 10
-732.5872909739455
 20
1169.109332740683
 30
0
 40
2.999999999999905
 50
203.3356583111599
 51
289.397392678712
  0
ARC
  8
1
 62
7
 10
-688.1849877705051
 20
1184.743580905419
 30
0
 40
2.999999999999872
 50
289.3973926787106
 51
22.03100093328747
  0
ARC
  8
1
 62
7
 10
-684.7425463368527
 20
1175.285550798664
 30
0
 40
2.999999999999744
 50
17.96899906670323
 51
110.6026073212897
  0
ARC
  8
1
 62
7
 10
-707.8714812319313
 20
1218.841587803481
 30
0
 40
3.000000000000128
 50
37.96899906671013
 51
130.6026073212835
  0
ARC
  8
1
 62
7
 10
-677.9054989083957
 20
1136.51072801779
 30
0
 40
2.999999999999122
 50
269.3973926787097
 51
2.031000933301637
  0
ARC
  8
1
 62
7
 10
-677.9054989083957
 20
1126.445702606773
 30
0
 40
3.00000000000004
 50
357.9689990666984
 51
90.60260732129007
  0
ARC
  8
1
 62
7
 10
-724.9772433726589
 20
1125.950608133082
 30
0
 40
3.000000000000258
 50
90.60260732129007
 51
176.6643416888352
  0
ARC
  8
1
 62
7
 10
-724.9772433726595
 20
1137.005822491483
 30
0
 40
3.000000000000036
 50
183.3356583111822
 51
269.3973926787099
  0
ARC
  8
1
 62
7
 10
-728.8061849745893
 20
1104.235601237677
 30
0
 40
2.99999999999987
 50
163.3356583111695
 51
249.3973926787082
  0
ARC
  8
1
 62
7
 10
-732.5872909739454
 20
1093.847097883882
 30
0
 40
2.999999999999659
 50
70.60260732128798
 51
156.6643416888393
  0
ARC
  8
1
 62
7
 10
-743.6122889133835
 20
1074.751241299432
 30
0
 40
3.000000000000308
 50
143.3356583111613
 51
229.3973926787035
  0
ARC
  8
1
 62
7
 10
-707.8714812319319
 20
1044.114842821082
 30
0
 40
3.000000000000354
 50
229.3973926787149
 51
322.0310009332886
  0
ARC
  8
1
 62
7
 10
-688.1849877705056
 20
1078.212849719144
 30
0
 40
2.999999999999966
 50
337.9689990667134
 51
70.60260732129375
  0
ARC
  8
1
 62
7
 10
-684.742546336853
 20
1087.6708798259
 30
0
 40
2.999999999999994
 50
249.3973926787082
 51
342.0310009332768
  0
ARC
  8
1
 62
7
 10
-714.3411548573138
 20
1036.404586035121
 30
0
 40
2.999999999999853
 50
317.9689990667122
 51
50.602607321283
  0
ARC
  8
1
 62
7
 10
-744.5026126985611
 20
1011.096117884762
 30
0
 40
3.000000000000118
 50
209.3973926787106
 51
302.0310009332868
  0
ARC
  8
1
 62
7
 10
-767.6097205392017
 20
1052.108991628109
 30
0
 40
3.000000000000288
 50
123.3356583111685
 51
209.3973926787106
  0
ARC
  8
1
 62
7
 10
-750.718443725392
 20
1066.28245577269
 30
0
 40
3.000000000000361
 50
50.60260732129403
 51
136.6643416888311
  0
ARC
  8
1
 62
7
 10
-772.5313526910945
 20
1060.844411025847
 30
0
 40
3.000000000000118
 50
209.3973926787106
 51
303.7998492654751
  0
ARC
  8
1
 62
7
 10
-782.2880960530662
 20
1055.211352619398
 30
0
 40
2.999999999999397
 50
296.2001507345266
 51
30.60260732129314
  0
ARC
  8
1
 62
7
 10
-742.044632176974
 20
1097.177069724965
 30
0
 40
3.000000000000025
 50
336.2001507345178
 51
70.60260732128943
  0
ARC
  8
1
 62
7
 10
-808.7912962449638
 20
1037.120123871031
 30
0
 40
3.000000000000086
 50
10.60260732129638
 51
96.66434168883062
  0
ARC
  8
1
 62
7
 10
-797.9040354335991
 20
1039.039841698085
 30
0
 40
2.99999999999979
 50
103.3356583111705
 51
189.3973926787014
  0
ARC
  8
1
 62
7
 10
-777.1838170178592
 20
1046.581384448909
 30
0
 40
3.000000000000059
 50
30.60260732129314
 51
116.6643416888321
  0
ARC
  8
1
 62
7
 10
-753.2191803942378
 20
1006.063605179253
 30
0
 40
2.999999999999883
 50
297.9689990667125
 51
30.60260732129127
  0
ARC
  8
1
 62
7
 10
-790.2176856639421
 20
992.5972505487393
 30
0
 40
3.000000000000019
 50
189.3973926787078
 51
282.0310009332903
  0
ARC
  8
1
 62
7
 10
-800.1298007229767
 20
990.849477227945
 30
0
 40
3.000000000000143
 50
277.9689990667106
 51
10.60260732128998
  0
ARC
  8
1
 62
7
 10
-839.5027876458289
 20
990.849477227945
 30
0
 40
3.000000000000024
 50
169.3973926787101
 51
262.0310009332891
  0
ARC
  8
1
 62
7
 10
-830.8412921238404
 20
1037.120123871031
 30
0
 40
3.000000000000028
 50
83.33565831116938
 51
169.3973926787036
  0
ARC
  8
1
 62
7
 10
-849.4149027048636
 20
992.5972505487397
 30
0
 40
3.000000000000079
 50
257.9689990667101
 51
350.60260732129
  0
ARC
  8
1
 62
7
 10
-886.4134079745676
 20
1006.063605179253
 30
0
 40
3.000000000000001
 50
149.3973926787087
 51
242.0310009332894
  0
ARC
  8
1
 62
7
 10
-862.4487713509452
 20
1046.581384448909
 30
0
 40
2.999999999999822
 50
63.33565831116785
 51
149.3973926787069
  0
ARC
  8
1
 62
7
 10
-841.7285529352052
 20
1039.039841698085
 30
0
 40
2.999999999999964
 50
350.6026073212987
 51
76.66434168883163
  0
ARC
  8
1
 62
7
 10
-872.0228678296026
 20
1052.108991628109
 30
0
 40
3.000000000000019
 50
330.6026073212883
 51
56.66434168883333
  0
ARC
  8
1
 62
7
 10
-888.9141446434124
 20
1066.28245577269
 30
0
 40
3.000000000000106
 50
43.33565831116884
 51
129.3973926787153
  0
ARC
  8
1
 62
7
 10
-925.2914335114914
 20
1036.404586035121
 30
0
 40
3.000000000000289
 50
129.3973926787043
 51
222.0310009332862
  0
ARC
  8
1
 62
7
 10
-895.1299756702448
 20
1011.096117884762
 30
0
 40
3.000000000000187
 50
237.9689990667132
 51
330.6026073212883
  0
ARC
  8
1
 62
7
 10
-896.0202994554211
 20
1074.751241299432
 30
0
 40
3.000000000000354
 50
310.6026073212852
 51
36.66434168882132
  0
ARC
  8
1
 62
7
 10
-907.0452973948592
 20
1093.847097883881
 30
0
 40
2.999999999999786
 50
23.33565831116555
 51
109.3973926787106
  0
ARC
  8
1
 62
7
 10
-910.8264033942155
 20
1104.235601237676
 30
0
 40
2.999999999999954
 50
290.6026073212897
 51
16.66434168882573
  0
ARC
  8
1
 62
7
 10
-914.6553449961459
 20
1137.005822491482
 30
0
 40
3.000000000000258
 50
270.6026073212901
 51
356.6643416888177
  0
ARC
  8
1
 62
7
 10
-910.8264033942158
 20
1158.720829386886
 30
0
 40
2.999999999999913
 50
343.3356583111743
 51
69.39739267870823
  0
ARC
  8
1
 62
7
 10
-907.0452973948597
 20
1169.109332740682
 30
0
 40
2.999999999999659
 50
250.602607321288
 51
336.6643416888362
  0
ARC
  8
1
 62
7
 10
-896.0202994554214
 20
1188.205189325131
 30
0
 40
2.999999999999629
 50
323.3356583111787
 51
49.39739267871488
  0
ARC
  8
1
 62
7
 10
-728.8061849745898
 20
1158.720829386888
 30
0
 40
2.999999999999954
 50
110.6026073212897
 51
196.6643416888459
  0
ARC
  8
1
 62
7
 10
-867.1012356777103
 20
1060.844411025847
 30
0
 40
3.000000000000275
 50
236.2001507345249
 51
330.6026073213046
  0
ARC
  8
1
 62
7
 10
-897.5879561918304
 20
1097.177069724965
 30
0
 40
2.999999999999872
 50
109.3973926787106
 51
203.7998492654822
  0
ARC
  8
1
 62
7
 10
-901.4411950789012
 20
1107.763756558956
 30
0
 40
2.999999999999859
 50
196.2001507345169
 51
290.6026073212918
  0
ARC
  8
1
 62
7
 10
-901.4411950789013
 20
1155.192674065607
 30
0
 40
2.999999999999954
 50
69.39739267871026
 51
163.7998492654795
  0
ARC
  8
1
 62
7
 10
-897.5879561918307
 20
1165.779360899598
 30
0
 40
3.000000000000129
 50
156.2001507345187
 51
250.60260732129
  0
ARC
  8
1
 62
7
 10
-867.1012356777103
 20
1202.112019598717
 30
0
 40
2.99999999999956
 50
29.39739267869171
 51
123.7998492654775
  0
ARC
  8
1
 62
7
 10
-857.3444923157385
 20
1207.745078005165
 30
0
 40
3.000000000000263
 50
116.2001507345209
 51
210.6026073212931
  0
ARC
  8
1
 62
7
 10
-782.2880960530664
 20
1207.745078005165
 30
0
 40
2.99999999999948
 50
329.3973926787256
 51
63.79984926548108
  0
ARC
  8
1
 62
7
 10
-738.1913932899037
 20
1107.763756558956
 30
0
 40
2.999999999999994
 50
249.3973926787082
 51
343.7998492654832
  0
ARC
  8
1
 62
7
 10
-738.1913932899033
 20
1155.192674065607
 30
0
 40
2.999999999999922
 50
16.20015073452106
 51
110.6026073212897
  0
ARC
  8
1
 62
7
 10
-742.044632176974
 20
1165.779360899598
 30
0
 40
2.999999999999621
 50
289.39739267871
 51
23.79984926548127
  0
ARC
  8
1
 62
7
 10
-772.5313526910946
 20
1202.112019598717
 30
0
 40
3.000000000000023
 50
56.20015073452432
 51
150.6026073212894
  0
ARC
  8
1
 62
7
 10
-857.3444923157388
 20
1055.211352619398
 30
0
 40
3.000000000000059
 50
149.3973926787069
 51
243.7998492654715
  0
ARC
  8
1
 62
7
 10
-765.9563302464277
 20
1142.618425570624
 30
0
 40
4.999999999999795
 50
110.6026073212908
 51
191.6860735680085
  0
ARC
  8
1
 62
7
 10
-765.9563302464277
 20
1120.33800505394
 30
0
 40
4.99999999999995
 50
168.3139264319915
 51
249.3973926787059
  0
ARC
  8
1
 62
7
 10
-771.3963789797633
 20
1105.391593998368
 30
0
 40
4.999999999999048
 50
70.60260732128735
 51
151.6860735680175
  0
ARC
  8
1
 62
7
 10
-785.7179572264934
 20
1088.323801671208
 30
0
 40
5.000000000000157
 50
128.3139264319901
 51
209.3973926787025
  0
ARC
  8
1
 62
7
 10
-799.4926441647657
 20
1080.370982459394
 30
0
 40
4.999999999999822
 50
30.60260732128693
 51
111.6860735680093
  0
ARC
  8
1
 62
7
 10
-840.1399442040394
 20
1080.370982459394
 30
0
 40
4.999999999999753
 50
68.31392643199067
 51
149.3973926787131
  0
ARC
  8
1
 62
7
 10
-853.9146311423117
 20
1088.323801671208
 30
0
 40
4.999999999999755
 50
330.6026073212975
 51
51.68607356800887
  0
ARC
  8
1
 62
7
 10
-868.2362093890415
 20
1105.391593998368
 30
0
 40
5.000000000000134
 50
28.31392643199461
 51
109.3973926787083
  0
ARC
  8
1
 62
7
 10
-873.6762581223773
 20
1120.33800505394
 30
0
 40
4.999999999999663
 50
290.6026073212941
 51
11.68607356800825
  0
ARC
  8
1
 62
7
 10
-873.6762581223773
 20
1142.618425570624
 30
0
 40
5.000000000000061
 50
348.3139264319918
 51
69.39739267870802
  0
ARC
  8
1
 62
7
 10
-868.2362093890413
 20
1157.564836626196
 30
0
 40
5.000000000000082
 50
250.6026073212929
 51
331.686073568014
  0
ARC
  8
1
 62
7
 10
-853.9146311423117
 20
1174.632628953356
 30
0
 40
5.000000000000157
 50
308.3139264319901
 51
29.39739267870252
  0
ARC
  8
1
 62
7
 10
-840.1399442040394
 20
1182.58544816517
 30
0
 40
4.999999999999938
 50
210.6026073212892
 51
291.6860735680094
  0
ARC
  8
1
 62
7
 10
-799.4926441647656
 20
1182.58544816517
 30
0
 40
4.999999999999753
 50
248.3139264319906
 51
329.3973926787108
  0
ARC
  8
1
 62
7
 10
-785.7179572264932
 20
1174.632628953356
 30
0
 40
4.999999999999755
 50
150.6026073212975
 51
231.6860735680099
  0
ARC
  8
1
 62
7
 10
-771.3963789797634
 20
1157.564836626196
 30
0
 40
4.999999999999603
 50
208.3139264319861
 51
289.3973926787071
  0
TEXT
  8
1
 62
7
 10
-1001.569749077009
 20
1380.53877336869
 30
0
 40
20
  1
ACSB 170
 41
0.9
  7
SIMPLEX
 72
1
 11
-929.569749077009
 21
1380.53877336869
 31
0
  0
ENDSEC
  0
EOF
