  0
SECTION
  2
HEADER
  9
$ACADVER
  1
AC1009
  9
$INSBASE
 10
0
 20
0
  9
$EXTMIN
 10
-66.48501327836632
 20
22.42869213259388
  9
$EXTMAX
 10
1568.121304505142
 20
804.5773951493881
  9
$LIMMIN
 10
-66.48501327836632
 20
22.42869213259388
  9
$LIMMAX
 10
1568.121304505142
 20
804.5773951493881
  9
$VIEWCTR
 10
10
 20
10
  9
$VIEWSIZE
 40
10
  9
$SNAPMODE
 70
0
  9
$SNAPUNIT
 10
1
 20
1
  9
$SNAPBASE
 10
0
 20
0
  9
$SNAPANG
 50
0
  9
$SNAPSTYLE
 70
0
  9
$SNAPISOPAIR
 70
0
  9
$GRIDMODE
 70
0
  9
$GRIDUNIT
 10
0
 20
0
  9
$ORTHOMODE
 70
0
  9
$REGENMODE
 70
1
  9
$FILLMODE
 70
1
  9
$QTEXTMODE
 70
0
  9
$DRAGMODE
 70
2
  9
$LTSCALE
 40
1
  9
$OSMODE
 70
0
  9
$ATTMODE
 70
1
  9
$TEXTSIZE
 40
3.5
  9
$TRACEWID
 40
0.5
  9
$TEXTSTYLE
  7
STANDARD
  9
$CLAYER
  8
0
  9
$CELTYPE
  6
BYLAYER
  9
$CECOLOR
 62
256
  9
$DIMSCALE
 40
1
  9
$DIMASZ
 40
0.18
  9
$DIMEXO
 40
0.0625
  9
$DIMDLI
 40
0.38
  9
$DIMRND
 40
0
  9
$DIMDLE
 40
0
  9
$DIMEXE
 40
0.18
  9
$DIMTP
 40
0
  9
$DIMTM
 40
0
  9
$DIMTXT
 40
0.18
  9
$DIMCEN
 40
0.09
  9
$DIMTSZ
 40
0
  9
$DIMTOL
 70
0
  9
$DIMLIM
 70
0
  9
$DIMTIH
 70
1
  9
$DIMTOH
 70
1
  9
$DIMSE1
 70
0
  9
$DIMSE2
 70
0
  9
$DIMTAD
 70
0
  9
$DIMZIN
 70
0
  9
$DIMBLK
  1

  9
$DIMASO
 70
1
  9
$DIMSHO
 70
1
  9
$DIMPOST
  1

  9
$DIMAPOST
  1

  9
$DIMALT
 70
0
  9
$DIMALTD
 70
2
  9
$DIMALTF
 40
25.4
  9
$DIMLFAC
 40
1
  9
$DIMTOFL
 70
0
  9
$DIMTVP
 40
0
  9
$DIMTIX
 70
0
  9
$DIMSOXD
 70
0
  9
$DIMSAH
 70
0
  9
$DIMBLK1
  1

  9
$DIMBLK2
  1

  9
$DIMSTYLE
  2
*UNNAMED
  9
$DIMCLRD
 70
0
  9
$DIMCLRE
 70
0
  9
$DIMCLRT
 70
0
  9
$DIMTFAC
 40
1
  9
$DIMGAP
 40
0.09
  9
$LUNITS
 70
2
  9
$LUPREC
 70
4
  9
$AXISMODE
 70
0
  9
$AXISUNIT
 10
0
 20
0
  9
$SKETCHINC
 40
0.1
  9
$FILLETRAD
 40
2
  9
$AUNITS
 70
0
  9
$AUPREC
 70
0
  9
$MENU
  1
ACAD
  9
$ELEVATION
 40
0
  9
$THICKNESS
 40
0
  9
$VIEWDIR
 10
0
 20
0
 30
1
  9
$LIMCHECK
 70
0
  9
$BLIPMODE
 70
1
  9
$CHAMFERA
 40
0
  9
$CHAMFERB
 40
0
  9
$FASTZOOM
 70
1
  9
$SKPOLY
 70
0
  9
$ANGBASE
 50
0
  9
$ANGDIR
 70
0
  9
$PDMODE
 70
0
  9
$PDSIZE
 40
0
  9
$PLINEWID
 40
0
  9
$COORDS
 70
2
  0
ENDSEC
  0
SECTION
  2
TABLES
  0
TABLE
  2
DIMSTYLE
 70
0
  0
ENDTAB
  0
TABLE
  2
LTYPE
 70
9
  0
LTYPE
  2
CONTINUOUS
 70
64
  3
Solid line
 72
65
 73
0
 40
0
  0
LTYPE
  2
BORDER
 70
64
  3
__ __ . __ __ .
 72
65
 73
6
 40
75.27792252950367
 49
21.50797786557248
 49
-10.75398893278624
 49
21.50797786557248
 49
-10.75398893278624
 49
0
 49
-10.75398893278624
  0
LTYPE
  2
CENTER
 70
64
  3
____ _ ____ _
 72
65
 73
4
 40
86.03191146228991
 49
53.7699446639312
 49
-10.75398893278624
 49
10.75398893278624
 49
-10.75398893278624
  0
LTYPE
  2
DASHDOT
 70
64
  3
__ . __ . __ .
 72
65
 73
4
 40
43.01595573114496
 49
21.50797786557248
 49
-10.75398893278624
 49
0
 49
-10.75398893278624
  0
LTYPE
  2
DASHED
 70
64
  3
__ __ __ __ __
 72
65
 73
2
 40
32.26196679835871
 49
21.50797786557248
 49
-10.75398893278624
  0
LTYPE
  2
DIVIDE
 70
64
  3
__ . . __ . . 
 72
65
 73
6
 40
53.7699446639312
 49
21.50797786557248
 49
-10.75398893278624
 49
0
 49
-10.75398893278624
 49
0
 49
-10.75398893278624
  0
LTYPE
  2
DOT
 70
64
  3
..............
 72
65
 73
4
 40
21.50797786557248
 49
0
 49
-10.75398893278624
 49
0
 49
-10.75398893278624
  0
LTYPE
  2
HIDDEN
 70
64
  3
_ _ _ _ _ _ _
 72
65
 73
2
 40
16.13098339917936
 49
10.75398893278624
 49
-5.37699446639312
  0
LTYPE
  2
PHANTOM
 70
64
  3
_____ _ _ _____ _ _ 
 72
65
 73
6
 40
107.5398893278624
 49
53.7699446639312
 49
-10.75398893278624
 49
10.75398893278624
 49
-10.75398893278624
 49
10.75398893278624
 49
-10.75398893278624
  0
ENDTAB
  0
TABLE
  2
LAYER
 70
3
  0
LAYER
  2
1
 70
0
 62
7
  6
CONTINUOUS
  0
LAYER
  2
0
 70
0
 62
7
  6
CONTINUOUS
  0
ENDTAB
  0
TABLE
  2
STYLE
 70
4
  0
STYLE
  2
STANDARD
 70
0
 40
0
 41
1
 50
0
 71
0
 42
3.5
  3
txt
  4

  0
STYLE
  2
SIMPLEX
 70
0
 40
0
 41
1
 50
0
 71
0
 42
3.5
  3
simplex
  4

  0
STYLE
  2
COMPLEX
 70
0
 40
0
 41
1
 50
0
 71
0
 42
3.5
  3
complex
  4

  0
STYLE
  2
ITALIC
 70
0
 40
0
 41
1
 50
0
 71
0
 42
3.5
  3
italic
  4

  0
ENDTAB
  0
TABLE
  2
VIEW
 70
0
  0
ENDTAB
  0
ENDSEC
  0
SECTION
  2
BLOCKS
  0
ENDSEC
  0
SECTION
  2
ENTITIES
  0
LINE
  8
1
 62
3
 10
876.5308738347479
 20
497.6286921325938
 30
0
 11
871.5308738347479
 21
497.6286921325938
 31
0
  0
LINE
  8
1
 62
3
 10
876.5308738347479
 20
507.2286921325939
 30
0
 11
871.5308738347479
 21
507.2286921325939
 31
0
  0
LINE
  8
1
 62
3
  6
DASHED
 10
673.5308738347479
 20
395.4286921325939
 30
0
 11
673.5308738347479
 21
362.4286921325938
 31
0
  0
LINE
  8
1
 62
3
  6
DASHED
 10
673.5308738347479
 20
452.4286921325939
 30
0
 11
673.5308738347479
 21
419.4286921325939
 31
0
  0
LINE
  8
1
 62
3
 10
1304.621304505142
 20
334.2286921325939
 30
0
 11
1301.621304505142
 21
334.2286921325939
 31
0
  0
LINE
  8
1
 62
3
 10
1301.621304505142
 20
340.6286921325939
 30
0
 11
1304.621304505142
 21
340.6286921325939
 31
0
  0
LINE
  8
1
 62
7
 10
1304.621304505142
 20
333.4286921325939
 30
0
 11
1301.621304505142
 21
333.4286921325939
 31
0
  0
LINE
  8
1
 62
7
 10
1301.621304505142
 20
341.4286921325939
 30
0
 11
1304.621304505142
 21
341.4286921325939
 31
0
  0
LINE
  8
1
 62
7
 10
1370.16900370136
 20
595.8608798443191
 30
0
 11
1372.881662639192
 21
594.8735527352322
 31
0
  0
LINE
  8
1
 62
7
 10
1372.881662639192
 20
594.8735527352322
 30
0
 11
1373.382941749793
 21
592.030657628724
 31
0
  0
LINE
  8
1
 62
7
 10
1373.382941749793
 20
592.030657628724
 30
0
 11
1371.171561922563
 21
590.1750896313027
 31
0
  0
LINE
  8
1
 62
7
 10
1371.171561922563
 20
590.1750896313027
 30
0
 11
1368.458902984732
 21
591.1624167403896
 31
0
  0
LINE
  8
1
 62
7
 10
1368.458902984732
 20
591.1624167403896
 30
0
 11
1367.957623874131
 21
594.0053118468976
 31
0
  0
LINE
  8
1
 62
7
 10
1367.957623874131
 20
594.0053118468976
 30
0
 11
1370.16900370136
 21
595.8608798443191
 31
0
  0
LINE
  8
1
 62
3
 10
884.5308738347479
 20
499.7753923003095
 30
0
 11
876.5308738347479
 21
505.0819919648783
 31
0
  0
LINE
  8
1
 62
3
 10
876.5308738347479
 20
499.7753923003095
 30
0
 11
884.5308738347479
 21
505.0819919648783
 31
0
  0
LINE
  8
1
 62
3
  6
DASHED
 10
815.5308738347479
 20
348.4286921325939
 30
0
 11
847.5308738347479
 21
348.4286921325939
 31
0
  0
LINE
  8
1
 62
7
 10
680.5308738347479
 20
605.4286921325939
 30
0
 11
680.5308738347479
 21
209.4286921325939
 31
0
  0
LINE
  8
1
 62
3
  6
DASHDOT
 10
403.514986721634
 20
105.4286921325939
 30
0
 11
403.514986721634
 21
59.42869213259388
 31
0
  0
LINE
  8
1
 62
3
  6
DASHDOT
 10
426.514986721634
 20
82.42869213259388
 30
0
 11
380.514986721634
 21
82.42869213259388
 31
0
  0
LINE
  8
1
 62
3
  6
DASHDOT
 10
-6.485013278366068
 20
105.4286921325939
 30
0
 11
-6.485013278366068
 21
59.42869213259388
 31
0
  0
LINE
  8
1
 62
3
  6
DASHDOT
 10
16.51498672163393
 20
82.42869213259388
 30
0
 11
-29.48501327836607
 21
82.42869213259388
 31
0
  0
LINE
  8
1
 62
7
 10
93.51498672163393
 20
122.4286921325939
 30
0
 11
303.514986721634
 21
122.4286921325939
 31
0
  0
LINE
  8
1
 62
7
 10
343.514986721634
 20
82.42869213259388
 30
0
 11
343.514986721634
 21
42.42869213259388
 31
0
  0
LINE
  8
1
 62
7
 10
53.51498672163393
 20
82.42869213259388
 30
0
 11
53.51498672163393
 21
42.42869213259388
 31
0
  0
LINE
  8
1
 62
7
 10
363.514986721634
 20
22.42869213259388
 30
0
 11
443.5149867216341
 21
22.42869213259388
 31
0
  0
LINE
  8
1
 62
7
 10
-46.48501327836607
 20
22.42869213259388
 30
0
 11
33.51498672163393
 21
22.42869213259388
 31
0
  0
LINE
  8
1
 62
7
 10
463.5149867216341
 20
407.4286921325939
 30
0
 11
463.5149867216341
 21
42.42869213259388
 31
0
  0
LINE
  8
1
 62
7
 10
-66.48501327836607
 20
407.4286921325939
 30
0
 11
-66.48501327836607
 21
42.42869213259388
 31
0
  0
LINE
  8
1
 62
3
  6
DASHDOT
 10
378.8272159242037
 20
587.7409213351634
 30
0
 11
364.6850803004729
 21
573.5987857114326
 31
0
  0
LINE
  8
1
 62
3
  6
DASHDOT
 10
453.5149867216341
 20
407.4286921325938
 30
0
 11
433.5149867216341
 21
407.4286921325938
 31
0
  0
LINE
  8
1
 62
3
  6
DASHDOT
 10
378.8272159242036
 20
227.1164629300243
 30
0
 11
364.6850803004727
 21
241.2585985537551
 31
0
  0
LINE
  8
1
 62
3
  6
DASHDOT
 10
198.5149867216339
 20
152.4286921325939
 30
0
 11
198.5149867216339
 21
172.4286921325938
 31
0
  0
LINE
  8
1
 62
3
  6
DASHDOT
 10
18.20275751906434
 20
227.1164629300243
 30
0
 11
32.34489314279523
 21
241.2585985537552
 31
0
  0
LINE
  8
1
 62
3
  6
DASHDOT
 10
-56.48501327836607
 20
407.4286921325939
 30
0
 11
-36.48501327836607
 21
407.4286921325939
 31
0
  0
LINE
  8
1
 62
3
  6
DASHDOT
 10
18.20275751906434
 20
587.7409213351635
 30
0
 11
32.34489314279534
 21
573.5987857114326
 31
0
  0
LINE
  8
1
 62
3
  6
DASHDOT
 10
433.180387979501
 20
310.2271003118611
 30
0
 11
416.5505563942977
 21
317.1154020944325
 31
0
  0
LINE
  8
1
 62
3
  6
DASHDOT
 10
-19.52058295102967
 20
497.7419821707555
 30
0
 11
-36.15041453623297
 21
504.6302839533266
 31
0
  0
LINE
  8
1
 62
3
  6
DASHDOT
 10
228.5149867216339
 20
174.7723638168372
 30
0
 11
228.5149867216339
 21
153.7723638168372
 31
0
  0
LINE
  8
1
 62
3
  6
DASHDOT
 10
168.5149867216339
 20
661.0850204483505
 30
0
 11
168.5149867216339
 21
640.0850204483505
 31
0
  0
LINE
  8
1
 62
3
  6
DASHDOT
 10
198.5149867216339
 20
662.4286921325939
 30
0
 11
198.5149867216339
 21
642.4286921325939
 31
0
  0
LINE
  8
1
 62
7
 10
261.5907769176268
 20
352.5437089089224
 30
0
 11
279.0592778891871
 21
337.8858961864663
 31
0
  0
LINE
  8
1
 62
7
 10
263.5191397466865
 20
354.8418422382792
 30
0
 11
280.9876407182467
 21
340.1840295158231
 31
0
  0
LINE
  8
1
 62
7
 10
282.1132324706425
 20
405.9286921325939
 30
0
 11
304.9167409726252
 21
405.9286921325939
 31
0
  0
LINE
  8
1
 62
7
 10
282.1132324706425
 20
408.9286921325938
 30
0
 11
304.9167409726252
 21
408.9286921325939
 31
0
  0
LINE
  8
1
 62
7
 10
263.5191397466865
 20
460.0155420269085
 30
0
 11
280.9876407182467
 21
474.6733547493647
 31
0
  0
LINE
  8
1
 62
7
 10
261.5907769176268
 20
462.3136753562654
 30
0
 11
279.0592778891871
 21
476.9714880787216
 31
0
  0
LINE
  8
1
 62
7
 10
116.0423327250213
 20
340.1840295158231
 30
0
 11
133.5108336965816
 21
354.8418422382792
 31
0
  0
LINE
  8
1
 62
7
 10
117.9706955540809
 20
337.8858961864663
 30
0
 11
135.4391965256411
 21
352.5437089089224
 31
0
  0
LINE
  8
1
 62
7
 10
92.11323247064274
 20
408.9286921325939
 30
0
 11
114.9167409726255
 21
408.9286921325938
 31
0
  0
LINE
  8
1
 62
7
 10
92.11323247064286
 20
405.9286921325939
 30
0
 11
114.9167409726255
 21
405.9286921325939
 31
0
  0
LINE
  8
1
 62
7
 10
117.9706955540809
 20
476.9714880787216
 30
0
 11
135.4391965256411
 21
462.3136753562654
 31
0
  0
LINE
  8
1
 62
7
 10
116.0423327250213
 20
474.6733547493647
 30
0
 11
133.5108336965816
 21
460.0155420269085
 31
0
  0
LINE
  8
1
 62
7
 10
295.0974099266309
 20
568.5619820582145
 30
0
 11
266.4333202345106
 21
518.0415375314758
 31
0
  0
LINE
  8
1
 62
7
 10
224.505522302775
 20
534.6002048805705
 30
0
 11
234.1619461900941
 21
591.8775898659695
 31
0
  0
LINE
  8
1
 62
7
 10
295.653479608508
 20
321.3344716873742
 30
0
 11
340.4289381245453
 21
284.3330707985454
 31
0
  0
LINE
  8
1
 62
7
 10
234.1619461900943
 20
222.9797943992182
 30
0
 11
224.505522302775
 21
280.2571793846171
 31
0
  0
LINE
  8
1
 62
7
 10
295.0974099266311
 20
246.2954022069732
 30
0
 11
266.4333202345109
 21
296.8158467337117
 31
0
  0
LINE
  8
1
 62
7
 10
230.2123291312279
 20
344.6080675275011
 30
0
 11
253.2414653329743
 21
305.4036259321456
 31
0
  0
LINE
  8
1
 62
7
 10
259.5080465683412
 20
309.0216382952833
 30
0
 11
237.0705723064534
 21
348.5676760708853
 31
0
  0
LINE
  8
1
 62
7
 10
344.3836080198888
 20
289.0460628538452
 30
0
 11
300.1691647767464
 21
326.7160557096466
 31
0
  0
LINE
  8
1
 62
7
 10
376.0758975930054
 20
346.0754157332669
 30
0
 11
321.6440151896488
 21
366.3513998298371
 31
0
  0
LINE
  8
1
 62
7
 10
308.4932161984067
 20
371.2500985231451
 30
0
 11
265.8854106281094
 21
387.1215905603162
 31
0
  0
LINE
  8
1
 62
7
 10
261.5325135768489
 20
380.264507928837
 30
0
 11
306.0183499844179
 21
364.4504594840396
 31
0
  0
LINE
  8
1
 62
7
 10
386.3517207950832
 20
410.5048792243707
 30
0
 11
328.2676875783849
 21
410.9412716380083
 31
0
  0
LINE
  8
1
 62
7
 10
265.8854106281094
 20
427.7357937048718
 30
0
 11
308.4932161984067
 21
443.6072857420428
 31
0
  0
LINE
  8
1
 62
7
 10
306.0183499844178
 20
450.4069247811483
 30
0
 11
263.1768788650657
 21
435.1774235637101
 31
0
  0
LINE
  8
1
 62
7
 10
373.9716616929532
 20
474.56330915252
 30
0
 11
319.2412692978795
 21
455.1074745176742
 31
0
  0
LINE
  8
1
 62
7
 10
289.7692975900861
 20
571.6381691499914
 30
0
 11
260.3493540655078
 21
521.5541170368903
 31
0
  0
LINE
  8
1
 62
7
 10
340.4289381245452
 20
530.5243134666425
 30
0
 11
295.6534796085077
 21
493.5229125778137
 31
0
  0
LINE
  8
1
 62
7
 10
253.2414653329741
 20
509.4537583330422
 30
0
 11
230.2123291312275
 21
470.2493167376867
 31
0
  0
LINE
  8
1
 62
7
 10
237.070572306453
 20
466.2897081943022
 30
0
 11
259.5080465683411
 21
505.8357459699046
 31
0
  0
LINE
  8
1
 62
7
 10
228.1030403946984
 20
592.9459384312687
 30
0
 11
217.5870912427672
 21
535.8201109406214
 31
0
  0
LINE
  8
1
 62
7
 10
319.2412692978795
 20
359.7499097475138
 30
0
 11
373.9716616929533
 21
340.2940751126678
 31
0
  0
LINE
  8
1
 62
7
 10
328.2676875783848
 20
403.9161126271796
 30
0
 11
386.3517207950832
 21
404.3525050408171
 31
0
  0
LINE
  8
1
 62
7
 10
321.6440151896487
 20
448.5059844353507
 30
0
 11
376.0758975930053
 21
468.7819685319211
 31
0
  0
LINE
  8
1
 62
7
 10
300.1691647767462
 20
488.1413285555412
 30
0
 11
344.3836080198888
 21
525.8113214113425
 31
0
  0
LINE
  8
1
 62
7
 10
260.3493540655081
 20
293.3032672282974
 30
0
 11
289.7692975900862
 21
243.2192151151964
 31
0
  0
LINE
  8
1
 62
7
 10
217.5870912427675
 20
279.0372733245663
 30
0
 11
228.1030403946986
 21
221.9114458339191
 31
0
  0
LINE
  8
1
 62
7
 10
130.5966532087572
 20
518.0415375314758
 30
0
 11
101.9325635166371
 21
568.5619820582145
 31
0
  0
LINE
  8
1
 62
7
 10
162.8680272531738
 20
591.8775898659695
 30
0
 11
172.5244511404931
 21
534.6002048805705
 31
0
  0
LINE
  8
1
 62
7
 10
56.60103531872267
 20
284.3330707985454
 30
0
 11
101.37649383476
 21
321.3344716873742
 31
0
  0
LINE
  8
1
 62
7
 10
172.5244511404929
 20
280.2571793846171
 30
0
 11
162.8680272531738
 21
222.9797943992182
 31
0
  0
LINE
  8
1
 62
7
 10
130.596653208757
 20
296.8158467337117
 30
0
 11
101.9325635166367
 21
246.2954022069732
 31
0
  0
LINE
  8
1
 62
7
 10
143.7885081102936
 20
305.4036259321456
 30
0
 11
166.8176443120401
 21
344.6080675275011
 31
0
  0
LINE
  8
1
 62
7
 10
159.9594011368147
 20
348.5676760708853
 30
0
 11
137.5219268749266
 21
309.0216382952833
 31
0
  0
LINE
  8
1
 62
7
 10
96.86080866652156
 20
326.7160557096466
 30
0
 11
52.64636542337917
 21
289.0460628538452
 31
0
  0
LINE
  8
1
 62
7
 10
75.38595825361904
 20
366.3513998298371
 30
0
 11
20.95407585026254
 21
346.0754157332669
 31
0
  0
LINE
  8
1
 62
7
 10
131.1445628151585
 20
387.1215905603162
 30
0
 11
88.53675724486124
 21
371.2500985231451
 31
0
  0
LINE
  8
1
 62
7
 10
91.01162345885007
 20
364.4504594840396
 30
0
 11
135.497459866419
 21
380.264507928837
 31
0
  0
LINE
  8
1
 62
7
 10
68.76228586488304
 20
410.9412716380083
 30
0
 11
10.67825264818464
 21
410.5048792243707
 31
0
  0
LINE
  8
1
 62
7
 10
88.53675724486124
 20
443.6072857420428
 30
0
 11
131.1445628151587
 21
427.7357937048718
 31
0
  0
LINE
  8
1
 62
7
 10
133.8530945782023
 20
435.1774235637101
 30
0
 11
91.01162345885012
 21
450.4069247811483
 31
0
  0
LINE
  8
1
 62
7
 10
77.78870414538847
 20
455.1074745176742
 30
0
 11
23.05831175031472
 21
474.56330915252
 31
0
  0
LINE
  8
1
 62
7
 10
136.6806193777601
 20
521.5541170368903
 30
0
 11
107.2606758531817
 21
571.6381691499914
 31
0
  0
LINE
  8
1
 62
7
 10
101.3764938347601
 20
493.5229125778137
 30
0
 11
56.60103531872272
 21
530.5243134666425
 31
0
  0
LINE
  8
1
 62
7
 10
166.8176443120403
 20
470.2493167376867
 30
0
 11
143.7885081102938
 21
509.4537583330422
 31
0
  0
LINE
  8
1
 62
7
 10
137.521926874927
 20
505.8357459699046
 30
0
 11
159.9594011368149
 21
466.2897081943022
 31
0
  0
LINE
  8
1
 62
7
 10
179.4428822005008
 20
535.8201109406214
 30
0
 11
168.9269330485695
 21
592.9459384312687
 31
0
  0
LINE
  8
1
 62
7
 10
23.05831175031466
 20
340.2940751126678
 30
0
 11
77.78870414538847
 21
359.7499097475138
 31
0
  0
LINE
  8
1
 62
7
 10
10.67825264818464
 20
404.3525050408171
 30
0
 11
68.76228586488315
 21
403.9161126271796
 31
0
  0
LINE
  8
1
 62
7
 10
20.95407585026266
 20
468.7819685319211
 30
0
 11
75.38595825361927
 21
448.5059844353507
 31
0
  0
LINE
  8
1
 62
7
 10
52.64636542337917
 20
525.8113214113425
 30
0
 11
96.86080866652162
 21
488.1413285555412
 31
0
  0
LINE
  8
1
 62
7
 10
155.1444898372311
 20
419.4286921325939
 30
0
 11
145.5149867216339
 21
419.4286921325939
 31
0
  0
LINE
  8
1
 62
7
 10
145.5149867216339
 20
419.4286921325939
 30
0
 11
145.5149867216339
 21
395.4286921325939
 31
0
  0
LINE
  8
1
 62
7
 10
145.5149867216339
 20
395.4286921325939
 30
0
 11
155.1444898372311
 21
395.4286921325939
 31
0
  0
LINE
  8
1
 62
7
 10
107.2606758531816
 20
243.2192151151964
 30
0
 11
136.6806193777597
 21
293.3032672282974
 31
0
  0
LINE
  8
1
 62
7
 10
168.9269330485693
 20
221.9114458339191
 30
0
 11
179.4428822005004
 21
279.0372733245663
 31
0
  0
LINE
  8
1
 62
3
  6
DASHDOT
 10
198.5149867216339
 20
427.4286921325939
 30
0
 11
198.5149867216339
 21
387.4286921325939
 31
0
  0
LINE
  8
1
 62
3
  6
DASHDOT
 10
178.5149867216339
 20
407.4286921325939
 30
0
 11
218.5149867216339
 21
407.4286921325939
 31
0
  0
LINE
  8
1
 62
7
 10
772.4530064099672
 20
672.4286921325937
 30
0
 11
772.4530064099672
 21
142.4286921325939
 31
0
  0
LINE
  8
1
 62
7
 10
810.6360004218636
 20
672.4286921325939
 30
0
 11
810.6360004218636
 21
142.4286921325938
 31
0
  0
LINE
  8
1
 62
7
 10
860.5308738347479
 20
480.9286921325939
 30
0
 11
864.5308738347479
 21
480.9286921325939
 31
0
  0
LINE
  8
1
 62
7
 10
864.5308738347479
 20
514.9286921325938
 30
0
 11
852.5308738347479
 21
514.9286921325938
 31
0
  0
LINE
  8
1
 62
7
 10
871.5308738347479
 20
496.4286921325939
 30
0
 11
875.330873834748
 21
496.4286921325939
 31
0
  0
LINE
  8
1
 62
7
 10
871.5308738347479
 20
494.2161921325939
 30
0
 11
871.5308738347479
 21
510.6411921325939
 31
0
  0
LINE
  8
1
 62
7
 10
865.6567068596678
 20
513.3786921325939
 30
0
 11
870.4050408098283
 21
513.3786921325939
 31
0
  0
LINE
  8
1
 62
7
 10
865.6567068596678
 20
507.9036921325939
 30
0
 11
870.4050408098283
 21
507.9036921325939
 31
0
  0
LINE
  8
1
 62
7
 10
865.6567068596678
 20
496.9536921325939
 30
0
 11
870.4050408098283
 21
496.9536921325939
 31
0
  0
LINE
  8
1
 62
7
 10
865.6567068596678
 20
491.4786921325939
 30
0
 11
870.4050408098283
 21
491.4786921325939
 31
0
  0
LINE
  8
1
 62
7
 10
884.0308738347479
 20
499.7753923003095
 30
0
 11
884.0308738347479
 21
497.6286921325938
 31
0
  0
LINE
  8
1
 62
7
 10
884.5308738347479
 20
499.7753923003095
 30
0
 11
876.5308738347479
 21
499.7753923003095
 31
0
  0
LINE
  8
1
 62
7
 10
884.5308738347479
 20
498.1286921325938
 30
0
 11
884.0308738347479
 21
497.6286921325938
 31
0
  0
LINE
  8
1
 62
7
 10
884.0308738347479
 20
497.6286921325938
 30
0
 11
876.5308738347479
 21
497.6286921325938
 31
0
  0
LINE
  8
1
 62
7
 10
875.330873834748
 20
496.4286921325939
 30
0
 11
876.5308738347479
 21
497.6286921325938
 31
0
  0
LINE
  8
1
 62
7
 10
884.0308738347479
 20
507.2286921325939
 30
0
 11
884.0308738347479
 21
505.0819919648783
 31
0
  0
LINE
  8
1
 62
7
 10
876.5308738347479
 20
505.0819919648783
 30
0
 11
884.5308738347479
 21
505.0819919648783
 31
0
  0
LINE
  8
1
 62
7
 10
884.0308738347479
 20
507.2286921325939
 30
0
 11
884.5308738347479
 21
506.7286921325939
 31
0
  0
LINE
  8
1
 62
7
 10
884.5308738347479
 20
506.7286921325939
 30
0
 11
884.5308738347479
 21
498.1286921325938
 31
0
  0
LINE
  8
1
 62
7
 10
876.5308738347479
 20
507.2286921325939
 30
0
 11
884.0308738347479
 21
507.2286921325939
 31
0
  0
LINE
  8
1
 62
7
 10
876.5308738347479
 20
497.6286921325938
 30
0
 11
876.5308738347479
 21
507.2286921325939
 31
0
  0
LINE
  8
1
 62
7
 10
875.330873834748
 20
496.4286921325939
 30
0
 11
875.330873834748
 21
508.4286921325939
 31
0
  0
LINE
  8
1
 62
7
 10
875.330873834748
 20
508.4286921325939
 30
0
 11
871.5308738347479
 21
508.4286921325939
 31
0
  0
LINE
  8
1
 62
7
 10
876.5308738347479
 20
507.2286921325939
 30
0
 11
875.330873834748
 21
508.4286921325939
 31
0
  0
LINE
  8
1
 62
7
 10
884.5308738347479
 20
327.428692132594
 30
0
 11
864.5308738347479
 21
327.428692132594
 31
0
  0
LINE
  8
1
 62
7
 10
864.5308738347479
 20
327.428692132594
 30
0
 11
864.5308738347479
 21
514.9286921325938
 31
0
  0
LINE
  8
1
 62
7
 10
864.5308738347479
 20
334.928692132594
 30
0
 11
860.5308738347479
 21
334.928692132594
 31
0
  0
LINE
  8
1
 62
7
 10
864.5308738347479
 20
487.4286921325939
 30
0
 11
884.5308738347479
 21
487.4286921325939
 31
0
  0
LINE
  8
1
 62
7
 10
860.5308738347479
 20
479.9286921325939
 30
0
 11
864.5308738347479
 21
479.9286921325939
 31
0
  0
LINE
  8
1
 62
7
 10
860.5308738347479
 20
514.9286921325938
 30
0
 11
860.5308738347479
 21
320.4286921325939
 31
0
  0
LINE
  8
1
 62
7
 10
818.2439425616331
 20
667.9422863934143
 30
0
 11
852.5308738347479
 21
572.4286921325938
 31
0
  0
LINE
  8
1
 62
7
 10
810.6360004218636
 20
669.9286921325939
 30
0
 11
815.420358549348
 21
669.9286921325939
 31
0
  0
LINE
  8
1
 62
7
 10
802.5308738347479
 20
672.4286921325939
 30
0
 11
810.6360004218636
 21
672.4286921325939
 31
0
  0
LINE
  8
1
 62
7
 10
802.5308738347479
 20
672.4286921325939
 30
0
 11
802.5308738347479
 21
142.4286921325938
 31
0
  0
LINE
  8
1
 62
7
 10
852.5308738347479
 20
572.4286921325938
 30
0
 11
852.5308738347479
 21
242.4286921325938
 31
0
  0
LINE
  8
1
 62
7
 10
860.5308738347479
 20
320.4286921325939
 30
0
 11
852.5308738347479
 21
320.4286921325939
 31
0
  0
LINE
  8
1
 62
7
 10
852.5308738347479
 20
242.4286921325938
 30
0
 11
818.2439425616331
 21
146.9150978717735
 31
0
  0
LINE
  8
1
 62
7
 10
815.420358549348
 20
144.9286921325938
 30
0
 11
810.6360004218636
 21
144.9286921325938
 31
0
  0
LINE
  8
1
 62
7
 10
810.6360004218636
 20
142.4286921325938
 30
0
 11
802.5308738347479
 21
142.4286921325938
 31
0
  0
LINE
  8
1
 62
7
 10
802.5308738347479
 20
143.4286921325938
 30
0
 11
799.5308738347479
 21
143.4286921325938
 31
0
  0
LINE
  8
1
 62
7
 10
780.5308738347479
 20
143.4286921325938
 30
0
 11
783.5308738347479
 21
143.4286921325938
 31
0
  0
LINE
  8
1
 62
7
 10
783.5308738347479
 20
671.4286921325939
 30
0
 11
780.5308738347479
 21
671.4286921325939
 31
0
  0
LINE
  8
1
 62
7
 10
799.5308738347479
 20
671.4286921325939
 30
0
 11
802.5308738347479
 21
671.4286921325939
 31
0
  0
LINE
  8
1
 62
7
 10
783.5308738347479
 20
22.42869213259397
 30
0
 11
799.5308738347479
 21
22.42869213259397
 31
0
  0
LINE
  8
1
 62
7
 10
799.5308738347479
 20
672.4286921325939
 30
0
 11
799.5308738347479
 21
22.42869213259397
 31
0
  0
LINE
  8
1
 62
7
 10
783.5308738347479
 20
672.4286921325939
 30
0
 11
783.5308738347479
 21
22.42869213259397
 31
0
  0
LINE
  8
1
 62
7
 10
783.5308738347479
 20
672.4286921325939
 30
0
 11
799.5308738347479
 21
672.4286921325939
 31
0
  0
LINE
  8
1
 62
7
 10
747.4200714793655
 20
185.7736155395441
 30
0
 11
722.6416761901305
 21
178.0837687256437
 31
0
  0
LINE
  8
1
 62
7
 10
720.5308738347479
 20
667.4286921325939
 30
0
 11
720.5308738347479
 21
147.4286921325939
 31
0
  0
LINE
  8
1
 62
7
 10
720.5308738347479
 20
147.4286921325939
 30
0
 11
688.5308738347479
 21
147.4286921325939
 31
0
  0
LINE
  8
1
 62
7
 10
688.5308738347479
 20
147.4286921325939
 30
0
 11
688.5308738347479
 21
667.4286921325939
 31
0
  0
LINE
  8
1
 62
7
 10
749.5308738347479
 20
626.21857631521
 30
0
 11
749.5308738347479
 21
188.6388079499778
 31
0
  0
LINE
  8
1
 62
7
 10
722.6416761901305
 20
636.7736155395442
 30
0
 11
747.4200714793655
 21
629.0837687256437
 31
0
  0
LINE
  8
1
 62
7
 10
688.5308738347479
 20
667.4286921325939
 30
0
 11
720.5308738347479
 21
667.4286921325939
 31
0
  0
LINE
  8
1
 62
7
 10
749.5308738347479
 20
605.4286921325938
 30
0
 11
753.5234216346055
 21
605.4286921325937
 31
0
  0
LINE
  8
1
 62
7
 10
757.4891341013847
 20
608.9060788617778
 30
0
 11
765.1871786347704
 21
667.3206520857056
 31
0
  0
LINE
  8
1
 62
7
 10
768.1614629848548
 20
669.9286921325937
 30
0
 11
772.4530064099672
 21
669.9286921325939
 31
0
  0
LINE
  8
1
 62
7
 10
780.5308738347479
 20
142.428692132594
 30
0
 11
780.5308738347479
 21
672.4286921325937
 31
0
  0
LINE
  8
1
 62
7
 10
780.5308738347479
 20
672.4286921325937
 30
0
 11
772.4530064099672
 21
672.4286921325937
 31
0
  0
LINE
  8
1
 62
7
 10
673.5308738347479
 20
533.4286921325938
 30
0
 11
680.5308738347479
 21
605.4286921325939
 31
0
  0
LINE
  8
1
 62
7
 10
673.5308738347479
 20
281.4286921325939
 30
0
 11
673.5308738347479
 21
533.4286921325938
 31
0
  0
LINE
  8
1
 62
7
 10
688.5308738347479
 20
209.4286921325939
 30
0
 11
680.5308738347479
 21
209.4286921325939
 31
0
  0
LINE
  8
1
 62
7
 10
671.556934264725
 20
341.6912664432576
 30
0
 11
669.5308738347479
 21
342.4286921325939
 31
0
  0
LINE
  8
1
 62
7
 10
884.5308738347479
 20
487.4286921325939
 30
0
 11
884.5308738347479
 21
327.428692132594
 31
0
  0
LINE
  8
1
 62
3
  6
DASHDOT
 10
661.4176006662999
 20
407.4286921325939
 30
0
 11
669.5308738347479
 21
407.4286921325939
 31
0
  0
LINE
  8
1
 62
7
 10
680.5308738347479
 20
605.4286921325939
 30
0
 11
688.5308738347479
 21
605.4286921325939
 31
0
  0
LINE
  8
1
 62
7
 10
669.5308738347479
 20
472.4286921325939
 30
0
 11
671.556934264725
 21
473.1661178219301
 31
0
  0
LINE
  8
1
 62
7
 10
669.5308738347479
 20
472.4286921325939
 30
0
 11
669.5308738347479
 21
342.4286921325939
 31
0
  0
LINE
  8
1
 62
7
 10
680.5308738347479
 20
209.4286921325939
 30
0
 11
673.5308738347479
 21
281.4286921325939
 31
0
  0
LINE
  8
1
 62
7
 10
753.5234216346055
 20
209.428692132594
 30
0
 11
749.5308738347479
 21
209.428692132594
 31
0
  0
LINE
  8
1
 62
7
 10
765.1871786347704
 20
147.5367321794821
 30
0
 11
757.4891341013847
 21
205.9513054034098
 31
0
  0
LINE
  8
1
 62
7
 10
772.4530064099672
 20
144.9286921325939
 30
0
 11
768.1614629848548
 21
144.928692132594
 31
0
  0
LINE
  8
1
 62
7
 10
772.4530064099672
 20
142.4286921325939
 30
0
 11
780.5308738347479
 21
142.428692132594
 31
0
  0
LINE
  8
1
 62
3
  6
DASHDOT
 10
884.5308738347479
 20
407.4286921325939
 30
0
 11
893.1837749458121
 21
407.4286921325939
 31
0
  0
LINE
  8
1
 62
7
 10
1371.291830570249
 20
469.8521845683149
 30
0
 11
1375.35692175515
 21
473.263201082267
 31
0
  0
LINE
  8
1
 62
7
 10
1380.560949119285
 20
467.364873067935
 30
0
 11
1376.434131447742
 21
463.7238290233637
 31
0
  0
LINE
  8
1
 62
7
 10
1400.774604337427
 20
411.4286921325939
 30
0
 11
1395.468004672858
 21
411.4286921325939
 31
0
  0
LINE
  8
1
 62
7
 10
1395.468004672858
 20
403.428692132594
 30
0
 11
1400.774604337427
 21
403.428692132594
 31
0
  0
LINE
  8
1
 62
7
 10
1380.499222632642
 20
347.7225387278731
 30
0
 11
1376.434131447742
 21
351.1335552418243
 31
0
  0
LINE
  8
1
 62
7
 10
1371.291830570249
 20
345.0051996968728
 30
0
 11
1375.356921755149
 21
341.5941831829211
 31
0
  0
LINE
  8
1
 62
7
 10
1230.885687255135
 20
341.5941831829211
 30
0
 11
1234.950778440035
 21
345.0051996968728
 31
0
  0
LINE
  8
1
 62
7
 10
1229.808477562543
 20
351.1335552418243
 30
0
 11
1225.743386377643
 21
347.7225387278731
 31
0
  0
LINE
  8
1
 62
7
 10
1205.468004672858
 20
403.428692132594
 30
0
 11
1210.774604337426
 21
403.428692132594
 31
0
  0
LINE
  8
1
 62
7
 10
1210.774604337426
 20
411.4286921325939
 30
0
 11
1205.468004672858
 21
411.4286921325939
 31
0
  0
LINE
  8
1
 62
7
 10
1229.808477562542
 20
463.7238290233637
 30
0
 11
1225.681659890999
 21
467.364873067935
 31
0
  0
LINE
  8
1
 62
7
 10
1230.885687255135
 20
473.263201082267
 30
0
 11
1234.950778440035
 21
469.8521845683149
 31
0
  0
LINE
  8
1
 62
7
 10
1388.524863370049
 20
472.7163795874909
 30
0
 11
1506.755773790861
 21
573.076671047893
 31
0
  0
LINE
  8
1
 62
7
 10
1330.711833712088
 20
536.5885039621655
 30
0
 11
1352.637889712577
 21
665.2161196565031
 31
0
  0
LINE
  8
1
 62
7
 10
1320.621304505142
 20
529.4286921325938
 30
0
 11
1320.621304505142
 21
496.6349138887024
 31
0
  0
LINE
  8
1
 62
7
 10
1325.782930807965
 20
532.4286921325938
 30
0
 11
1323.621304505142
 21
532.4286921325938
 31
0
  0
LINE
  8
1
 62
7
 10
1285.621304505142
 20
529.4286921325938
 30
0
 11
1285.621304505142
 21
496.6349138887024
 31
0
  0
LINE
  8
1
 62
7
 10
1280.459678202318
 20
532.4286921325938
 30
0
 11
1282.621304505142
 21
532.4286921325938
 31
0
  0
LINE
  8
1
 62
7
 10
1283.360970594724
 20
546.5324266787104
 30
0
 11
1261.483181321803
 21
666.6053050778382
 31
0
  0
LINE
  8
1
 62
7
 10
1288.279985560769
 20
542.4286921325938
 30
0
 11
1317.962623449514
 21
542.4286921325938
 31
0
  0
LINE
  8
1
 62
7
 10
1565.590826545319
 20
411.4286921325943
 30
0
 11
1410.510342757284
 21
412.3117714151792
 31
0
  0
LINE
  8
1
 62
7
 10
1565.590826545319
 20
411.4286921325943
 30
0
 11
1565.590826545319
 21
403.4286921325943
 31
0
  0
LINE
  8
1
 62
7
 10
1551.130058120805
 20
321.4175990689362
 30
0
 11
1405.704102780075
 21
375.2880714465479
 31
0
  0
LINE
  8
1
 62
7
 10
1551.130058120805
 20
321.4175990689362
 30
0
 11
1548.3938969742
 21
313.900058102649
 31
0
  0
LINE
  8
1
 62
7
 10
1506.755773790861
 20
241.7807132172952
 30
0
 11
1388.524863370048
 21
342.1410046776962
 31
0
  0
LINE
  8
1
 62
7
 10
1506.755773790861
 20
241.7807132172952
 30
0
 11
1501.613472913369
 21
235.6523576723435
 31
0
  0
LINE
  8
1
 62
7
 10
1344.528373453281
 20
325.7616262244628
 30
0
 11
1430.891963910094
 21
178.1234183266399
 31
0
  0
LINE
  8
1
 62
7
 10
1437.820167140369
 20
182.1234183266401
 30
0
 11
1353.143523760052
 21
330.7355855731862
 31
0
  0
LINE
  8
1
 62
7
 10
1437.820167140369
 20
182.1234183266401
 30
0
 11
1430.891963910094
 21
178.1234183266399
 31
0
  0
LINE
  8
1
 62
7
 10
1352.637889712578
 20
149.6412646086853
 30
0
 11
1330.711833712088
 21
278.2688803030221
 31
0
  0
LINE
  8
1
 62
7
 10
1352.637889712578
 20
149.6412646086853
 30
0
 11
1344.759427688481
 21
148.2520791873498
 31
0
  0
LINE
  8
1
 62
7
 10
1261.483181321804
 20
148.2520791873494
 30
0
 11
1283.360970594724
 21
268.3249575864772
 31
0
  0
LINE
  8
1
 62
7
 10
1261.483181321804
 20
148.2520791873494
 30
0
 11
1253.604719297706
 21
149.6412646086848
 31
0
  0
LINE
  8
1
 62
7
 10
1253.099085250232
 20
330.7355855731859
 30
0
 11
1168.422441869915
 21
182.1234183266396
 31
0
  0
LINE
  8
1
 62
7
 10
1175.35064510019
 20
178.1234183266396
 30
0
 11
1261.714235557003
 21
325.7616262244623
 31
0
  0
LINE
  8
1
 62
7
 10
1175.35064510019
 20
178.1234183266396
 30
0
 11
1168.422441869915
 21
182.1234183266396
 31
0
  0
LINE
  8
1
 62
7
 10
1104.629136096915
 20
235.6523576723431
 30
0
 11
1223.995311360159
 21
334.6596931782303
 31
0
  0
LINE
  8
1
 62
7
 10
1104.629136096915
 20
235.6523576723431
 30
0
 11
1099.486835219423
 21
241.7807132172949
 31
0
  0
LINE
  8
1
 62
7
 10
1057.848712036084
 20
313.9000581026484
 30
0
 11
1203.878729182409
 21
366.110884309433
 31
0
  0
LINE
  8
1
 62
7
 10
1057.848712036084
 20
313.9000581026484
 30
0
 11
1055.112550889479
 21
321.4175990689357
 31
0
  0
LINE
  8
1
 62
7
 10
1040.651782464963
 20
403.4286921325937
 30
0
 11
1195.732266253
 21
402.5456128500086
 31
0
  0
LINE
  8
1
 62
7
 10
1040.651782464963
 20
403.4286921325937
 30
0
 11
1040.651782464963
 21
411.4286921325937
 31
0
  0
LINE
  8
1
 62
7
 10
1055.112550889478
 20
493.4397851962517
 30
0
 11
1200.538506230208
 21
439.5693128186396
 31
0
  0
LINE
  8
1
 62
7
 10
1055.112550889478
 20
493.4397851962517
 30
0
 11
1057.848712036084
 21
500.9573261625389
 31
0
  0
LINE
  8
1
 62
7
 10
1099.486835219422
 20
573.0766710478927
 30
0
 11
1217.717745640234
 21
472.7163795874911
 31
0
  0
LINE
  8
1
 62
7
 10
1099.486835219422
 20
573.0766710478927
 30
0
 11
1104.629136096914
 21
579.2050265928446
 31
0
  0
LINE
  8
1
 62
7
 10
1261.714235557002
 20
489.0957580407254
 30
0
 11
1175.350645100189
 21
636.7339659385483
 31
0
  0
LINE
  8
1
 62
7
 10
1168.422441869914
 20
632.7339659385483
 30
0
 11
1253.099085250231
 21
484.121798692002
 31
0
  0
LINE
  8
1
 62
7
 10
1168.422441869914
 20
632.7339659385483
 30
0
 11
1175.350645100189
 21
636.7339659385483
 31
0
  0
LINE
  8
1
 62
7
 10
1253.604719297705
 20
665.216119656503
 30
0
 11
1275.530775298195
 21
536.5885039621655
 31
0
  0
LINE
  8
1
 62
7
 10
1253.604719297705
 20
665.216119656503
 30
0
 11
1261.483181321803
 21
666.6053050778382
 31
0
  0
LINE
  8
1
 62
7
 10
1344.75942768848
 20
666.6053050778386
 30
0
 11
1322.881638415559
 21
546.5324266787105
 31
0
  0
LINE
  8
1
 62
7
 10
1344.75942768848
 20
666.6053050778386
 30
0
 11
1352.637889712577
 21
665.2161196565031
 31
0
  0
LINE
  8
1
 62
7
 10
1353.143523760052
 20
484.1217986920021
 30
0
 11
1437.820167140369
 21
632.7339659385483
 31
0
  0
LINE
  8
1
 62
7
 10
1430.891963910094
 20
636.7339659385483
 30
0
 11
1437.820167140369
 21
632.7339659385483
 31
0
  0
LINE
  8
1
 62
7
 10
1501.613472913369
 20
579.2050265928449
 30
0
 11
1382.247297650124
 21
480.1976910869573
 31
0
  0
LINE
  8
1
 62
7
 10
1501.613472913369
 20
579.2050265928449
 30
0
 11
1506.755773790861
 21
573.076671047893
 31
0
  0
LINE
  8
1
 62
7
 10
1548.3938969742
 20
500.9573261625393
 30
0
 11
1402.363879827875
 21
448.7464999557538
 31
0
  0
LINE
  8
1
 62
7
 10
1548.3938969742
 20
500.9573261625393
 30
0
 11
1551.130058120805
 21
493.4397851962521
 31
0
  0
LINE
  8
1
 62
3
  6
DASHDOT
 10
780.5308738347479
 20
82.42869213259397
 30
0
 11
802.5308738347479
 21
82.42869213259397
 31
0
  0
LINE
  8
1
 62
3
  6
DASHED
 10
799.5308738347479
 20
62.42869213259397
 30
0
 11
783.5308738347479
 21
62.42869213259397
 31
0
  0
LINE
  8
1
 62
3
  6
DASHED
 10
783.5308738347479
 20
102.428692132594
 30
0
 11
799.5308738347479
 21
102.428692132594
 31
0
  0
LINE
  8
1
 62
3
  6
DASHED
 10
688.5308738347479
 20
155.4286921325939
 30
0
 11
704.5308738347479
 21
155.4286921325939
 31
0
  0
LINE
  8
1
 62
3
  6
DASHED
 10
688.5308738347479
 20
169.4286921325939
 30
0
 11
704.5308738347479
 21
169.4286921325939
 31
0
  0
LINE
  8
1
 62
3
  6
DASHED
 10
704.5308738347479
 20
150.9286921325939
 30
0
 11
720.5308738347479
 21
150.9286921325939
 31
0
  0
LINE
  8
1
 62
3
  6
DASHED
 10
704.5308738347479
 20
173.9286921325939
 30
0
 11
704.5308738347479
 21
150.9286921325939
 31
0
  0
LINE
  8
1
 62
3
  6
DASHED
 10
720.5308738347479
 20
173.9286921325939
 30
0
 11
704.5308738347479
 21
173.9286921325939
 31
0
  0
LINE
  8
1
 62
3
  6
DASHDOT
 10
723.5308738347479
 20
162.4286921325939
 30
0
 11
685.5308738347479
 21
162.4286921325939
 31
0
  0
LINE
  8
1
 62
3
  6
DASHDOT
 10
685.5308738347479
 20
652.4286921325939
 30
0
 11
723.5308738347479
 21
652.4286921325939
 31
0
  0
LINE
  8
1
 62
3
  6
DASHED
 10
720.5308738347479
 20
644.9286921325939
 30
0
 11
688.5308738347479
 21
644.9286921325939
 31
0
  0
LINE
  8
1
 62
3
  6
DASHED
 10
688.5308738347479
 20
659.9286921325939
 30
0
 11
720.5308738347479
 21
659.9286921325939
 31
0
  0
LINE
  8
1
 62
3
  6
DASHED
 10
794.5308738347479
 20
362.4286921325939
 30
0
 11
673.5308738347479
 21
362.4286921325938
 31
0
  0
LINE
  8
1
 62
3
  6
DASHED
 10
669.5308738347479
 20
358.4286921325939
 30
0
 11
673.5308738347479
 21
362.4286921325938
 31
0
  0
LINE
  8
1
 62
3
  6
DASHED
 10
882.5308738347479
 20
364.9286921325939
 30
0
 11
884.5308738347479
 21
362.9286921325939
 31
0
  0
LINE
  8
1
 62
3
 10
820.5308738347479
 20
348.4286921325939
 30
0
 11
820.5308738347479
 21
351.4286921325939
 31
0
  0
LINE
  8
1
 62
3
  6
DASHED
 10
820.5308738347479
 20
351.4286921325939
 30
0
 11
842.5308738347479
 21
351.4286921325939
 31
0
  0
LINE
  8
1
 62
3
 10
842.5308738347479
 20
351.4286921325939
 30
0
 11
842.5308738347479
 21
348.4286921325939
 31
0
  0
LINE
  8
1
 62
3
  6
DASHED
 10
882.5308738347479
 20
364.9286921325939
 30
0
 11
794.5308738347479
 21
364.9286921325939
 31
0
  0
LINE
  8
1
 62
3
  6
DASHED
 10
673.5308738347479
 20
452.4286921325939
 30
0
 11
794.5308738347479
 21
452.4286921325939
 31
0
  0
LINE
  8
1
 62
3
  6
DASHED
 10
673.5308738347479
 20
452.4286921325939
 30
0
 11
669.5308738347479
 21
456.4286921325939
 31
0
  0
LINE
  8
1
 62
3
  6
DASHED
 10
882.5308738347479
 20
449.9286921325939
 30
0
 11
882.5308738347479
 21
364.9286921325939
 31
0
  0
LINE
  8
1
 62
3
  6
DASHED
 10
884.5308738347479
 20
451.9286921325939
 30
0
 11
882.5308738347479
 21
449.9286921325939
 31
0
  0
LINE
  8
1
 62
3
  6
DASHED
 10
794.5308738347479
 20
452.4286921325939
 30
0
 11
794.5308738347479
 21
362.4286921325939
 31
0
  0
LINE
  8
1
 62
3
  6
DASHED
 10
794.5308738347479
 20
449.9286921325939
 30
0
 11
882.5308738347479
 21
449.9286921325939
 31
0
  0
LINE
  8
1
 62
3
  6
DASHED
 10
669.5308738347479
 20
419.4286921325939
 30
0
 11
775.5308738347479
 21
419.4286921325939
 31
0
  0
LINE
  8
1
 62
3
  6
DASHED
 10
669.5308738347479
 20
395.4286921325939
 30
0
 11
775.5308738347479
 21
395.4286921325939
 31
0
  0
LINE
  8
1
 62
3
  6
DASHED
 10
823.5308738347479
 20
364.9286921325939
 30
0
 11
823.5308738347479
 21
351.4286921325939
 31
0
  0
LINE
  8
1
 62
3
  6
DASHED
 10
839.5308738347479
 20
364.9286921325939
 30
0
 11
839.5308738347479
 21
351.4286921325939
 31
0
  0
LINE
  8
1
 62
7
 10
1323.621304505142
 20
282.4286921325938
 30
0
 11
1325.782930807965
 21
282.4286921325938
 31
0
  0
LINE
  8
1
 62
7
 10
1282.621304505142
 20
282.4286921325938
 30
0
 11
1280.459678202318
 21
282.4286921325938
 31
0
  0
LINE
  8
1
 62
7
 10
1320.621304505142
 20
318.2224703764853
 30
0
 11
1320.621304505142
 21
285.4286921325938
 31
0
  0
LINE
  8
1
 62
7
 10
1285.621304505142
 20
318.2224703764853
 30
0
 11
1285.621304505142
 21
285.4286921325938
 31
0
  0
LINE
  8
1
 62
7
 10
1322.881638415559
 20
268.3249575864771
 30
0
 11
1344.759427688481
 21
148.2520791873498
 31
0
  0
LINE
  8
1
 62
7
 10
1275.530775298195
 20
278.2688803030221
 30
0
 11
1253.604719297706
 21
149.6412646086848
 31
0
  0
LINE
  8
1
 62
7
 10
1038.121304505142
 20
407.4286921325939
 30
0
 11
1038.121304505142
 21
42.42869213259397
 31
0
  0
LINE
  8
1
 62
7
 10
1058.121304505142
 20
22.42869213259397
 30
0
 11
1138.121304505142
 21
22.42869213259397
 31
0
  0
LINE
  8
1
 62
7
 10
1158.121304505142
 20
42.42869213259397
 30
0
 11
1158.121304505142
 21
82.42869213259397
 31
0
  0
LINE
  8
1
 62
7
 10
1198.121304505142
 20
122.428692132594
 30
0
 11
1408.121304505142
 21
122.428692132594
 31
0
  0
LINE
  8
1
 62
7
 10
1448.121304505142
 20
82.42869213259397
 30
0
 11
1448.121304505142
 21
42.42869213259397
 31
0
  0
LINE
  8
1
 62
7
 10
1468.121304505142
 20
22.42869213259397
 30
0
 11
1548.121304505142
 21
22.42869213259397
 31
0
  0
LINE
  8
1
 62
7
 10
1568.121304505142
 20
42.42869213259397
 30
0
 11
1568.121304505142
 21
407.4286921325942
 31
0
  0
LINE
  8
1
 62
3
  6
DASHDOT
 10
1121.121304505142
 20
82.42869213259397
 30
0
 11
1075.121304505142
 21
82.42869213259397
 31
0
  0
LINE
  8
1
 62
3
  6
DASHDOT
 10
1098.121304505142
 20
105.428692132594
 30
0
 11
1098.121304505142
 21
59.42869213259397
 31
0
  0
LINE
  8
1
 62
3
  6
DASHDOT
 10
1531.121304505142
 20
82.42869213259397
 30
0
 11
1485.121304505142
 21
82.42869213259397
 31
0
  0
LINE
  8
1
 62
3
  6
DASHDOT
 10
1508.121304505142
 20
105.428692132594
 30
0
 11
1508.121304505142
 21
59.42869213259397
 31
0
  0
LINE
  8
1
 62
7
 10
1252.564405866083
 20
345.4286921325939
 30
0
 11
1289.121304505142
 21
345.4286921325939
 31
0
  0
LINE
  8
1
 62
7
 10
1289.121304505142
 20
345.4286921325939
 30
0
 11
1289.121304505142
 21
328.6632174625331
 31
0
  0
LINE
  8
1
 62
7
 10
1301.621304505142
 20
353.5345623502142
 30
0
 11
1301.621304505142
 21
327.4427558687732
 31
0
  0
LINE
  8
1
 62
7
 10
1304.621304505142
 20
353.5345623502142
 30
0
 11
1304.621304505142
 21
327.4427558687732
 31
0
  0
LINE
  8
1
 62
7
 10
1289.121304505142
 20
337.4286921325939
 30
0
 11
1287.121304505142
 21
335.4286921325939
 31
0
  0
LINE
  8
1
 62
7
 10
1289.121304505142
 20
339.4286921325939
 30
0
 11
1287.121304505142
 21
337.4286921325939
 31
0
  0
LINE
  8
1
 62
7
 10
1289.121304505142
 20
329.7286921325939
 30
0
 11
1287.121304505142
 21
329.7286921325939
 31
0
  0
LINE
  8
1
 62
7
 10
1287.121304505142
 20
329.7286921325939
 30
0
 11
1287.121304505142
 21
345.1286921325939
 31
0
  0
LINE
  8
1
 62
7
 10
1287.121304505142
 20
345.1286921325939
 30
0
 11
1289.121304505142
 21
345.1286921325939
 31
0
  0
LINE
  8
1
 62
7
 10
1287.121304505142
 20
330.9286921325939
 30
0
 11
1279.621304505142
 21
330.9286921325939
 31
0
  0
LINE
  8
1
 62
7
 10
1279.621304505142
 20
330.9286921325939
 30
0
 11
1279.121304505142
 21
331.7947175363784
 31
0
  0
LINE
  8
1
 62
7
 10
1279.121304505142
 20
331.7947175363784
 30
0
 11
1279.121304505142
 21
343.0626667288095
 31
0
  0
LINE
  8
1
 62
7
 10
1279.121304505142
 20
343.0626667288095
 30
0
 11
1279.621304505142
 21
343.9286921325939
 31
0
  0
LINE
  8
1
 62
7
 10
1279.621304505142
 20
343.9286921325939
 30
0
 11
1287.121304505142
 21
343.9286921325939
 31
0
  0
LINE
  8
1
 62
7
 10
1279.621304505142
 20
330.9286921325939
 30
0
 11
1279.621304505142
 21
343.9286921325939
 31
0
  0
LINE
  8
1
 62
7
 10
1384.298769944918
 20
475.5446734430166
 30
0
 11
1373.990665981159
 21
479.2965164575461
 31
0
  0
LINE
  8
1
 62
7
 10
1373.990665981159
 20
479.2965164575461
 30
0
 11
1365.587422637686
 21
472.2453580673446
 31
0
  0
LINE
  8
1
 62
7
 10
1365.587422637686
 20
472.2453580673446
 30
0
 11
1367.492283257971
 21
461.4423566626137
 31
0
  0
LINE
  8
1
 62
7
 10
1367.492283257971
 20
461.4423566626137
 30
0
 11
1377.80038722173
 21
457.6905136480842
 31
0
  0
LINE
  8
1
 62
7
 10
1377.80038722173
 20
457.6905136480842
 30
0
 11
1386.203630565204
 21
464.7416720382857
 31
0
  0
LINE
  8
1
 62
7
 10
1386.203630565204
 20
464.7416720382857
 30
0
 11
1384.298769944918
 21
475.5446734430166
 31
0
  0
LINE
  8
1
 62
7
 10
1409.090959619744
 20
407.4286921325939
 30
0
 11
1403.606132062443
 21
416.9286921325939
 31
0
  0
LINE
  8
1
 62
7
 10
1403.606132062443
 20
416.9286921325939
 30
0
 11
1392.63647694784
 21
416.9286921325939
 31
0
  0
LINE
  8
1
 62
7
 10
1392.63647694784
 20
416.9286921325939
 30
0
 11
1387.151649390539
 21
407.4286921325939
 31
0
  0
LINE
  8
1
 62
7
 10
1387.151649390539
 20
407.4286921325939
 30
0
 11
1392.63647694784
 21
397.9286921325939
 31
0
  0
LINE
  8
1
 62
7
 10
1392.63647694784
 20
397.9286921325939
 30
0
 11
1403.606132062443
 21
397.9286921325939
 31
0
  0
LINE
  8
1
 62
7
 10
1403.606132062443
 20
397.9286921325939
 30
0
 11
1409.090959619744
 21
407.4286921325939
 31
0
  0
LINE
  8
1
 62
7
 10
1384.298769944917
 20
339.3127108221709
 30
0
 11
1386.203630565204
 21
350.1157122269017
 31
0
  0
LINE
  8
1
 62
7
 10
1386.203630565204
 20
350.1157122269017
 30
0
 11
1377.800387221731
 21
357.1668706171035
 31
0
  0
LINE
  8
1
 62
7
 10
1377.800387221731
 20
357.1668706171035
 30
0
 11
1367.492283257972
 21
353.4150276025746
 31
0
  0
LINE
  8
1
 62
7
 10
1367.492283257972
 20
353.4150276025746
 30
0
 11
1365.587422637685
 21
342.6120261978438
 31
0
  0
LINE
  8
1
 62
7
 10
1365.587422637685
 20
342.6120261978438
 30
0
 11
1373.990665981159
 21
335.5608678076419
 31
0
  0
LINE
  8
1
 62
7
 10
1373.990665981159
 20
335.5608678076419
 30
0
 11
1384.298769944917
 21
339.3127108221709
 31
0
  0
LINE
  8
1
 62
7
 10
1369.007034498012
 20
485.9482475522892
 30
0
 11
1375.894502956795
 21
486.5508229628251
 31
0
  0
LINE
  8
1
 62
7
 10
1369.007034498012
 20
328.9091367128987
 30
0
 11
1375.894502956795
 21
328.3065613023628
 31
0
  0
LINE
  8
1
 62
7
 10
1237.235574512271
 20
485.9482475522892
 30
0
 11
1251.698295730218
 21
468.7122475821122
 31
0
  0
LINE
  8
1
 62
7
 10
1237.235574512271
 20
328.9091367128987
 30
0
 11
1251.698295730218
 21
346.1451366830757
 31
0
  0
LINE
  8
1
 62
7
 10
1232.251943029124
 20
479.2965164575461
 30
0
 11
1221.943839065365
 21
475.5446734430166
 31
0
  0
LINE
  8
1
 62
7
 10
1240.655186372597
 20
472.2453580673446
 30
0
 11
1232.251943029124
 21
479.2965164575461
 31
0
  0
LINE
  8
1
 62
7
 10
1238.750325752312
 20
461.4423566626137
 30
0
 11
1240.655186372597
 21
472.2453580673446
 31
0
  0
LINE
  8
1
 62
7
 10
1228.442221788553
 20
457.6905136480842
 30
0
 11
1238.750325752312
 21
461.4423566626137
 31
0
  0
LINE
  8
1
 62
7
 10
1220.03897844508
 20
464.7416720382857
 30
0
 11
1228.442221788553
 21
457.6905136480842
 31
0
  0
LINE
  8
1
 62
7
 10
1221.943839065365
 20
475.5446734430166
 30
0
 11
1220.03897844508
 21
464.7416720382857
 31
0
  0
LINE
  8
1
 62
7
 10
1202.63647694784
 20
416.9286921325939
 30
0
 11
1197.151649390539
 21
407.4286921325939
 31
0
  0
LINE
  8
1
 62
7
 10
1213.606132062443
 20
416.9286921325939
 30
0
 11
1202.63647694784
 21
416.9286921325939
 31
0
  0
LINE
  8
1
 62
7
 10
1219.090959619744
 20
407.4286921325939
 30
0
 11
1213.606132062443
 21
416.9286921325939
 31
0
  0
LINE
  8
1
 62
7
 10
1213.606132062443
 20
397.9286921325939
 30
0
 11
1219.090959619744
 21
407.4286921325939
 31
0
  0
LINE
  8
1
 62
7
 10
1202.63647694784
 20
397.9286921325939
 30
0
 11
1213.606132062443
 21
397.9286921325939
 31
0
  0
LINE
  8
1
 62
7
 10
1197.151649390539
 20
407.4286921325939
 30
0
 11
1202.63647694784
 21
397.9286921325939
 31
0
  0
LINE
  8
1
 62
7
 10
1220.038978445079
 20
350.1157122269017
 30
0
 11
1221.943839065366
 21
339.3127108221709
 31
0
  0
LINE
  8
1
 62
7
 10
1228.442221788552
 20
357.1668706171035
 30
0
 11
1220.038978445079
 21
350.1157122269017
 31
0
  0
LINE
  8
1
 62
7
 10
1238.750325752311
 20
353.4150276025746
 30
0
 11
1228.442221788552
 21
357.1668706171035
 31
0
  0
LINE
  8
1
 62
7
 10
1240.655186372598
 20
342.6120261978438
 30
0
 11
1238.750325752311
 21
353.4150276025746
 31
0
  0
LINE
  8
1
 62
7
 10
1232.251943029125
 20
335.5608678076419
 30
0
 11
1240.655186372598
 21
342.6120261978438
 31
0
  0
LINE
  8
1
 62
7
 10
1221.943839065366
 20
339.3127108221709
 30
0
 11
1232.251943029125
 21
335.5608678076419
 31
0
  0
LINE
  8
1
 62
7
 10
1230.348106053488
 20
486.5508229628251
 30
0
 11
1237.235574512271
 21
485.9482475522892
 31
0
  0
LINE
  8
1
 62
7
 10
1230.348106053488
 20
328.3065613023628
 30
0
 11
1237.235574512271
 21
328.9091367128987
 31
0
  0
LINE
  8
1
 62
7
 10
1354.544313280065
 20
468.7122475821122
 30
0
 11
1369.007034498012
 21
485.9482475522892
 31
0
  0
LINE
  8
1
 62
7
 10
1354.544313280065
 20
346.1451366830757
 30
0
 11
1369.007034498012
 21
328.9091367128987
 31
0
  0
LINE
  8
1
 62
7
 10
1410.510342757284
 20
402.5456128500094
 30
0
 11
1565.590826545319
 21
403.4286921325943
 31
0
  0
LINE
  8
1
 62
7
 10
1382.247297650124
 20
334.6596931782306
 30
0
 11
1501.613472913369
 21
235.6523576723435
 31
0
  0
LINE
  8
1
 62
7
 10
1217.717745640235
 20
342.141004677696
 30
0
 11
1099.486835219423
 21
241.7807132172949
 31
0
  0
LINE
  8
1
 62
7
 10
1195.732266253
 20
412.3117714151787
 30
0
 11
1040.651782464963
 21
411.4286921325937
 31
0
  0
LINE
  8
1
 62
7
 10
1223.995311360159
 20
480.1976910869578
 30
0
 11
1104.629136096914
 21
579.2050265928446
 31
0
  0
LINE
  8
1
 62
7
 10
1200.538506230208
 20
375.2880714465476
 30
0
 11
1055.112550889479
 21
321.4175990689357
 31
0
  0
LINE
  8
1
 62
7
 10
1203.878729182408
 20
448.746499955754
 30
0
 11
1057.848712036084
 21
500.9573261625389
 31
0
  0
LINE
  8
1
 62
7
 10
1405.704102780075
 20
439.5693128186413
 30
0
 11
1551.130058120805
 21
493.4397851962521
 31
0
  0
LINE
  8
1
 62
7
 10
1402.363879827875
 20
366.1108843094339
 30
0
 11
1548.3938969742
 21
313.900058102649
 31
0
  0
LINE
  8
1
 62
3
  6
DASHDOT
 10
1323.121304505142
 20
407.4286921325939
 30
0
 11
1283.121304505142
 21
407.4286921325939
 31
0
  0
LINE
  8
1
 62
7
 10
1430.891963910094
 20
636.7339659385483
 30
0
 11
1344.528373453281
 21
489.0957580407256
 31
0
  0
LINE
  8
1
 62
7
 10
1288.279985560769
 20
272.4286921325938
 30
0
 11
1317.962623449514
 21
272.4286921325938
 31
0
  0
LINE
  8
1
 62
3
  6
DASHDOT
 10
1303.121304505142
 20
387.4286921325939
 30
0
 11
1303.121304505142
 21
427.4286921325939
 31
0
  0
LINE
  8
1
 62
7
 10
753.5234216346055
 20
605.4286921325937
 30
0
 11
753.5234216346055
 21
209.428692132594
 31
0
  0
ARC
  8
1
 62
3
 10
1375.895526601445
 20
468.4935150528152
 30
0
 40
4.800000000000008
 50
96.44269023806322
 51
163.5573097619262
  0
ARC
  8
1
 62
7
 10
1375.895526601445
 20
468.4935150528152
 30
0
 40
4.799999999999808
 50
163.5573097619262
 51
276.4426902380879
  0
ARC
  8
1
 62
7
 10
1375.895526601445
 20
468.4935150528152
 30
0
 40
4.800000000000248
 50
346.4004931786999
 51
96.44269023806322
  0
ARC
  8
1
 62
3
 10
1375.895526601445
 20
468.4935150528152
 30
0
 40
4.799999999999955
 50
276.4426902380879
 51
346.4004931786999
  0
ARC
  8
1
 62
7
 10
1398.121304505142
 20
407.4286921325939
 30
0
 40
4.79999999999989
 50
123.5573097619187
 51
236.4426902380806
  0
ARC
  8
1
 62
3
 10
1398.121304505142
 20
407.4286921325939
 30
0
 40
4.800000000000392
 50
56.44269023807224
 51
123.5573097619187
  0
ARC
  8
1
 62
7
 10
1398.121304505142
 20
407.4286921325939
 30
0
 40
4.800000000000297
 50
303.5573097619285
 51
56.44269023807224
  0
ARC
  8
1
 62
3
 10
1398.121304505142
 20
407.4286921325939
 30
0
 40
4.799999999999795
 50
236.4426902380806
 51
303.5573097619285
  0
ARC
  8
1
 62
7
 10
1375.895526601445
 20
346.3638692123727
 30
0
 40
4.800000000000012
 50
83.55730976191219
 51
196.4426902380764
  0
ARC
  8
1
 62
3
 10
1375.895526601445
 20
346.3638692123727
 30
0
 40
4.799999999999873
 50
196.4426902380764
 51
263.5573097619231
  0
ARC
  8
1
 62
3
 10
1375.895526601445
 20
346.3638692123727
 30
0
 40
4.800000000000874
 50
16.44269023807856
 51
83.55730976191219
  0
ARC
  8
1
 62
7
 10
1375.895526601445
 20
346.3638692123727
 30
0
 40
4.799999999999966
 50
263.5573097619231
 51
16.44269023807856
  0
ARC
  8
1
 62
3
 10
1230.347082408839
 20
346.3638692123727
 30
0
 40
4.799999999999966
 50
276.4426902380769
 51
343.5573097619236
  0
ARC
  8
1
 62
7
 10
1230.347082408839
 20
346.3638692123727
 30
0
 40
4.799999999999873
 50
343.5573097619236
 51
96.44269023807702
  0
ARC
  8
1
 62
7
 10
1230.347082408839
 20
346.3638692123727
 30
0
 40
4.800000000000002
 50
163.5573097619184
 51
276.4426902380769
  0
ARC
  8
1
 62
3
 10
1230.347082408839
 20
346.3638692123727
 30
0
 40
4.79999999999991
 50
96.44269023807702
 51
163.5573097619184
  0
ARC
  8
1
 62
3
 10
1208.121304505142
 20
407.4286921325939
 30
0
 40
4.799999999999764
 50
56.44269023808354
 51
123.5573097619187
  0
ARC
  8
1
 62
3
 10
1208.121304505142
 20
407.4286921325939
 30
0
 40
4.799999999999795
 50
236.4426902380806
 51
303.5573097619172
  0
ARC
  8
1
 62
7
 10
1208.121304505142
 20
407.4286921325939
 30
0
 40
4.79999999999989
 50
123.5573097619187
 51
236.4426902380806
  0
ARC
  8
1
 62
7
 10
1208.121304505142
 20
407.4286921325939
 30
0
 40
4.799999999999669
 50
303.5573097619172
 51
56.44269023808354
  0
ARC
  8
1
 62
3
 10
1230.347082408839
 20
468.4935150528152
 30
0
 40
4.799999999999808
 50
16.44269023807381
 51
83.55730976192329
  0
ARC
  8
1
 62
3
 10
1230.347082408839
 20
468.4935150528152
 30
0
 40
4.800000000000248
 50
193.5995068213001
 51
263.5573097619121
  0
ARC
  8
1
 62
7
 10
1230.347082408839
 20
468.4935150528152
 30
0
 40
4.800000000000136
 50
83.55730976192329
 51
193.5995068213001
  0
ARC
  8
1
 62
7
 10
1230.347082408839
 20
468.4935150528152
 30
0
 40
4.799999999999955
 50
263.5573097619121
 51
16.44269023807381
  0
ARC
  8
1
 62
7
 10
198.5149867216339
 20
407.4286921325939
 30
0
 40
48.99999999999999
 50
194.175803515867
 51
165.824196484133
  0
ARC
  8
1
 62
3
  6
DASHDOT
 10
198.5149867216339
 20
407.4286921325939
 30
0
 40
245.0000000000002
 50
42.48281161559338
 51
47.21197876657637
  0
ARC
  8
1
 62
3
  6
DASHDOT
 10
198.5149867216339
 20
407.4286921325939
 30
0
 40
245.0000000000003
 50
357.4828116155934
 51
2.211978766576402
  0
ARC
  8
1
 62
3
  6
DASHDOT
 10
198.5149867216339
 20
407.4286921325939
 30
0
 40
245.0000000000002
 50
312.4828116155934
 51
317.2119787665764
  0
ARC
  8
1
 62
3
  6
DASHDOT
 10
198.5149867216339
 20
407.4286921325939
 30
0
 40
245.0000000000001
 50
267.4828116155935
 51
272.2119787665764
  0
ARC
  8
1
 62
3
  6
DASHDOT
 10
198.5149867216339
 20
407.4286921325939
 30
0
 40
245.0000000000001
 50
222.4828116155934
 51
227.2119787665764
  0
ARC
  8
1
 62
3
  6
DASHDOT
 10
198.5149867216339
 20
407.4286921325939
 30
0
 40
245.0000000000002
 50
177.4828116155934
 51
182.2119787665764
  0
ARC
  8
1
 62
3
  6
DASHDOT
 10
198.5149867216339
 20
407.4286921325939
 30
0
 40
245.0000000000001
 50
132.4828116155934
 51
137.2119787665764
  0
ARC
  8
1
 62
3
  6
DASHDOT
 10
198.5149867216339
 20
407.4286921325939
 30
0
 40
245.0000000000001
 50
274.6454355640864
 51
279.4728096835904
  0
ARC
  8
1
 62
3
  6
DASHDOT
 10
198.5149867216339
 20
407.4286921325939
 30
0
 40
245
 50
94.85781140550218
 51
99.29765811659527
  0
ARC
  8
1
 62
3
  6
DASHDOT
 10
198.5149867216339
 20
407.4286921325939
 30
0
 40
245
 50
92.21197876657638
 51
94.85781140550218
  0
ARC
  8
1
 62
3
  6
DASHDOT
 10
198.5149867216339
 20
407.4286921325939
 30
0
 40
245
 50
155.4464041549387
 51
159.4029981145206
  0
ARC
  8
1
 62
3
  6
DASHDOT
 10
198.5149867216339
 20
407.4286921325939
 30
0
 40
245.0000000000001
 50
335.5324145276844
 51
339.3462377846028
  0
ARC
  8
1
 62
3
  6
DASHDOT
 10
198.5149867216339
 20
407.4286921325939
 30
0
 40
245.0000000000001
 50
87.48281161559336
 51
92.21197876657638
  0
ARC
  8
1
 62
7
 10
198.5149867216339
 20
407.4286921325939
 30
0
 40
44.99999999999992
 50
195.4660099534206
 51
164.5339900465794
  0
ARC
  8
1
 62
7
 10
198.5149867216339
 20
407.4286921325939
 30
0
 40
192
 50
282.1570477396076
 51
297.8429522603925
  0
ARC
  8
1
 62
7
 10
198.5149867216339
 20
407.4286921325939
 30
0
 40
191.9999999999999
 50
262.1570477396074
 51
277.8429522603926
  0
ARC
  8
1
 62
7
 10
198.5149867216339
 20
407.4286921325939
 30
0
 40
191.9999999999999
 50
62.15704773960747
 51
77.84295226039247
  0
ARC
  8
1
 62
7
 10
198.5149867216339
 20
407.4286921325939
 30
0
 40
192
 50
42.15704773960751
 51
57.84295226039252
  0
ARC
  8
1
 62
7
 10
198.5149867216339
 20
407.4286921325939
 30
0
 40
191.9999999999999
 50
322.1570477396075
 51
337.8429522603926
  0
ARC
  8
1
 62
7
 10
198.5149867216339
 20
407.4286921325939
 30
0
 40
192
 50
302.1570477396075
 51
317.8429522603926
  0
ARC
  8
1
 62
7
 10
198.5149867216339
 20
407.4286921325939
 30
0
 40
126.0000000000001
 50
283.3128658578903
 51
296.6871341421098
  0
ARC
  8
1
 62
7
 10
198.5149867216339
 20
407.4286921325939
 30
0
 40
126
 50
343.3128658578903
 51
356.6871341421098
  0
ARC
  8
1
 62
7
 10
198.5149867216339
 20
407.4286921325939
 30
0
 40
126
 50
3.312865857890258
 51
16.68713414210982
  0
ARC
  8
1
 62
7
 10
198.5149867216339
 20
407.4286921325939
 30
0
 40
126
 50
23.31286585789026
 51
36.68713414210981
  0
ARC
  8
1
 62
7
 10
198.5149867216339
 20
407.4286921325939
 30
0
 40
126
 50
83.31286585789027
 51
96.68713414210964
  0
ARC
  8
1
 62
7
 10
198.5149867216339
 20
407.4286921325939
 30
0
 40
191.9999999999999
 50
342.1570477396076
 51
357.8429522603926
  0
ARC
  8
1
 62
7
 10
198.5149867216339
 20
407.4286921325939
 30
0
 40
192
 50
2.15704773960745
 51
17.84295226039255
  0
ARC
  8
1
 62
7
 10
198.5149867216339
 20
407.4286921325939
 30
0
 40
191.9999999999999
 50
22.15704773960746
 51
37.84295226039251
  0
ARC
  8
1
 62
7
 10
198.5149867216339
 20
407.4286921325939
 30
0
 40
126.0000000000001
 50
323.3128658578904
 51
336.6871341421099
  0
ARC
  8
1
 62
7
 10
198.5149867216339
 20
407.4286921325939
 30
0
 40
120
 50
343.7654123509743
 51
16.23458764902576
  0
ARC
  8
1
 62
7
 10
198.5149867216339
 20
407.4286921325939
 30
0
 40
126.0000000000001
 50
43.31286585789022
 51
56.68713414210974
  0
ARC
  8
1
 62
7
 10
198.5149867216339
 20
407.4286921325939
 30
0
 40
126
 50
63.3128658578902
 51
76.6871341421098
  0
ARC
  8
1
 62
7
 10
198.5149867216339
 20
407.4286921325939
 30
0
 40
119.9999999999999
 50
23.7654123509742
 51
56.23458764902589
  0
ARC
  8
1
 62
7
 10
198.5149867216339
 20
407.4286921325939
 30
0
 40
119.9999999999999
 50
63.76541235097425
 51
116.2345876490257
  0
ARC
  8
1
 62
7
 10
209.5149867216339
 20
313.0676832359102
 30
0
 40
11.98829140280635
 50
276.8673794914913
 51
96.45694668903606
  0
ARC
  8
1
 62
7
 10
209.5149867216339
 20
501.7897010292775
 30
0
 40
11.98829140280648
 50
263.5430533108187
 51
83.13262050850875
  0
ARC
  8
1
 62
7
 10
198.5149867216339
 20
407.4286921325939
 30
0
 40
120.0000000000001
 50
303.7654123509743
 51
336.2345876490258
  0
ARC
  8
1
 62
7
 10
198.5149867216339
 20
407.4286921325939
 30
0
 40
126
 50
303.3128658578902
 51
316.6871341421098
  0
ARC
  8
1
 62
7
 10
198.5149867216339
 20
407.4286921325939
 30
0
 40
192
 50
82.15704773960748
 51
97.84295226039251
  0
ARC
  8
1
 62
7
 10
198.5149867216339
 20
407.4286921325939
 30
0
 40
191.9999999999999
 50
242.1570477396074
 51
257.8429522603925
  0
ARC
  8
1
 62
7
 10
198.5149867216339
 20
407.4286921325939
 30
0
 40
191.9999999999998
 50
102.1570477396075
 51
117.8429522603925
  0
ARC
  8
1
 62
7
 10
198.5149867216339
 20
407.4286921325939
 30
0
 40
191.9999999999999
 50
202.1570477396074
 51
217.8429522603925
  0
ARC
  8
1
 62
7
 10
198.5149867216339
 20
407.4286921325939
 30
0
 40
192.0000000000001
 50
222.1570477396075
 51
237.8429522603925
  0
ARC
  8
1
 62
7
 10
198.5149867216339
 20
407.4286921325939
 30
0
 40
126
 50
243.3128658578902
 51
256.6871341421098
  0
ARC
  8
1
 62
7
 10
198.5149867216339
 20
407.4286921325939
 30
0
 40
126
 50
163.3128658578902
 51
176.6871341421097
  0
ARC
  8
1
 62
7
 10
198.5149867216339
 20
407.4286921325939
 30
0
 40
125.9999999999998
 50
123.3128658578902
 51
136.6871341421097
  0
ARC
  8
1
 62
7
 10
198.5149867216339
 20
407.4286921325939
 30
0
 40
126
 50
103.3128658578902
 51
116.6871341421098
  0
ARC
  8
1
 62
7
 10
198.5149867216339
 20
407.4286921325939
 30
0
 40
191.9999999999999
 50
182.1570477396075
 51
197.8429522603925
  0
ARC
  8
1
 62
7
 10
198.5149867216339
 20
407.4286921325939
 30
0
 40
191.9999999999999
 50
162.1570477396074
 51
177.8429522603925
  0
ARC
  8
1
 62
7
 10
198.5149867216339
 20
407.4286921325939
 30
0
 40
191.9999999999998
 50
142.1570477396075
 51
157.8429522603926
  0
ARC
  8
1
 62
7
 10
198.5149867216339
 20
407.4286921325939
 30
0
 40
191.9999999999997
 50
122.1570477396074
 51
137.8429522603925
  0
ARC
  8
1
 62
7
 10
198.5149867216339
 20
407.4286921325939
 30
0
 40
125.9999999999999
 50
203.3128658578902
 51
216.6871341421097
  0
ARC
  8
1
 62
7
 10
198.5149867216339
 20
407.4286921325939
 30
0
 40
125.9999999999999
 50
183.3128658578902
 51
196.6871341421097
  0
ARC
  8
1
 62
7
 10
198.5149867216339
 20
407.4286921325939
 30
0
 40
119.9999999999998
 50
163.7654123509742
 51
196.2345876490257
  0
ARC
  8
1
 62
7
 10
198.5149867216339
 20
407.4286921325939
 30
0
 40
125.9999999999999
 50
143.3128658578901
 51
156.6871341421097
  0
ARC
  8
1
 62
7
 10
198.5149867216339
 20
407.4286921325939
 30
0
 40
120
 50
123.7654123509741
 51
156.2345876490258
  0
ARC
  8
1
 62
7
 10
187.5149867216339
 20
313.0676832359102
 30
0
 40
11.98829140280648
 50
83.5430533109634
 51
263.1326205085097
  0
ARC
  8
1
 62
7
 10
198.5149867216339
 20
407.4286921325939
 30
0
 40
83.0117858021333
 50
263.3230780670306
 51
276.6769219329696
  0
ARC
  8
1
 62
7
 10
198.5149867216339
 20
407.4286921325939
 30
0
 40
106.9882141978667
 50
263.3263855747163
 51
276.6736144252839
  0
ARC
  8
1
 62
7
 10
187.5149867216339
 20
501.7897010292775
 30
0
 40
11.98829140280638
 50
96.8673794914903
 51
276.4569466890221
  0
ARC
  8
1
 62
7
 10
198.5149867216339
 20
407.4286921325939
 30
0
 40
83.01178580213312
 50
83.32307806705147
 51
96.67692193297152
  0
ARC
  8
1
 62
7
 10
198.5149867216339
 20
407.4286921325939
 30
0
 40
106.9882141978667
 50
83.32638557471614
 51
96.67361442528375
  0
ARC
  8
1
 62
7
 10
198.5149867216339
 20
407.4286921325939
 30
0
 40
120
 50
243.7654123509742
 51
296.2345876490259
  0
ARC
  8
1
 62
7
 10
198.5149867216339
 20
407.4286921325939
 30
0
 40
126.0000000000001
 50
263.3128658578901
 51
276.6871341421099
  0
ARC
  8
1
 62
7
 10
198.5149867216339
 20
407.4286921325939
 30
0
 40
119.9999999999999
 50
203.7654123509742
 51
236.2345876490258
  0
ARC
  8
1
 62
7
 10
198.5149867216339
 20
407.4286921325939
 30
0
 40
126
 50
223.3128658578902
 51
236.6871341421097
  0
ARC
  8
1
 62
7
 10
867.6397967140424
 20
510.6411921325939
 30
0
 40
3.891077120705615
 50
315.288875168076
 51
44.71112483192344
  0
ARC
  8
1
 62
7
 10
857.6553148893054
 20
502.4286921325939
 30
0
 40
13.87555894544264
 50
336.7602987942961
 51
23.23970120570412
  0
ARC
  8
1
 62
7
 10
867.6397967140424
 20
494.2161921325939
 30
0
 40
3.891077120705615
 50
315.288875168076
 51
44.71112483192403
  0
ARC
  8
1
 62
7
 10
868.4219509554537
 20
510.6411921325939
 30
0
 40
3.891077120705575
 50
135.2888751680765
 51
224.7111248319241
  0
ARC
  8
1
 62
7
 10
878.4064327801905
 20
502.4286921325939
 30
0
 40
13.87555894544245
 50
156.7602987942955
 51
203.2397012057043
  0
ARC
  8
1
 62
7
 10
868.4219509554536
 20
494.2161921325939
 30
0
 40
3.891077120705534
 50
135.2888751680748
 51
224.7111248319252
  0
ARC
  8
1
 62
7
 10
1303.121304505142
 20
407.4286921325939
 30
0
 40
209.9999999999993
 50
341.1730163981191
 51
358.8269836018811
  0
ARC
  8
1
 62
7
 10
1303.121304505142
 20
407.4286921325939
 30
0
 40
209.9999999999995
 50
321.1730163981191
 51
338.8269836018811
  0
ARC
  8
1
 62
7
 10
1303.121304505142
 20
407.4286921325939
 30
0
 40
209.9999999999995
 50
301.1730163981191
 51
318.826983601881
  0
ARC
  8
1
 62
7
 10
1303.121304505142
 20
407.4286921325939
 30
0
 40
209.9999999999994
 50
281.1730163981192
 51
298.8269836018809
  0
ARC
  8
1
 62
7
 10
1303.121304505142
 20
407.4286921325939
 30
0
 40
209.9999999999995
 50
261.173016398119
 51
278.826983601881
  0
ARC
  8
1
 62
7
 10
1303.121304505142
 20
407.4286921325939
 30
0
 40
209.9999999999999
 50
241.1730163981191
 51
258.8269836018809
  0
ARC
  8
1
 62
7
 10
1303.121304505142
 20
407.4286921325939
 30
0
 40
209.9999999999995
 50
221.1730163981191
 51
238.826983601881
  0
ARC
  8
1
 62
7
 10
1303.121304505142
 20
407.4286921325939
 30
0
 40
209.9999999999995
 50
201.1730163981191
 51
218.826983601881
  0
ARC
  8
1
 62
7
 10
1303.121304505142
 20
407.4286921325939
 30
0
 40
209.9999999999996
 50
181.1730163981191
 51
198.8269836018809
  0
ARC
  8
1
 62
7
 10
1303.121304505142
 20
407.4286921325939
 30
0
 40
210.0000000000005
 50
161.1730163981191
 51
178.826983601881
  0
ARC
  8
1
 62
7
 10
1303.121304505142
 20
407.4286921325939
 30
0
 40
210.0000000000002
 50
141.1730163981192
 51
158.8269836018811
  0
ARC
  8
1
 62
7
 10
1303.121304505142
 20
407.4286921325939
 30
0
 40
209.9999999999997
 50
121.173016398119
 51
138.8269836018811
  0
ARC
  8
1
 62
7
 10
1303.121304505142
 20
407.4286921325939
 30
0
 40
210.0000000000001
 50
101.1730163981193
 51
118.8269836018812
  0
ARC
  8
1
 62
7
 10
1303.121304505142
 20
407.4286921325939
 30
0
 40
209.9999999999996
 50
81.17301639811933
 51
98.82698360188122
  0
ARC
  8
1
 62
7
 10
1303.121304505142
 20
407.4286921325939
 30
0
 40
210
 50
61.17301639811912
 51
78.82698360188124
  0
ARC
  8
1
 62
7
 10
1303.121304505142
 20
407.4286921325939
 30
0
 40
209.9999999999996
 50
41.1730163981191
 51
58.826983601881
  0
ARC
  8
1
 62
7
 10
1303.121304505142
 20
407.4286921325939
 30
0
 40
209.9999999999996
 50
21.17301639811909
 51
38.82698360188088
  0
ARC
  8
1
 62
7
 10
1303.121304505142
 20
407.4286921325939
 30
0
 40
209.9999999999986
 50
1.173016398119025
 51
18.82698360188096
  0
ARC
  8
1
 62
7
 10
1303.121304505142
 20
407.4286921325939
 30
0
 40
79.99999999999992
 50
271.0743588228542
 51
230.8050325740166
  0
ARC
  8
1
 62
7
 10
1303.121304505142
 20
407.4286921325939
 30
0
 40
79.9999999999999
 50
259.9213418922123
 51
268.9256411771458
  0
ARC
  8
1
 62
7
 10
1303.121304505142
 20
407.4286921325939
 30
0
 40
53.91499999999989
 50
271.5942643130283
 51
268.4057356869718
  0
ARC
  8
1
 62
3
 10
1303.121304505142
 20
407.4286921325939
 30
0
 40
54.99999999999988
 50
271.5628059456572
 51
268.4371940543428
  0
ARC
  8
1
 62
7
 10
1303.121304505142
 20
407.4286921325939
 30
0
 40
107.4999999999993
 50
312.6065399116832
 51
47.39346008831682
  0
ARC
  8
1
 62
7
 10
1303.121304505142
 20
407.4286921325939
 30
0
 40
107.5000000000002
 50
132.6065399116837
 51
227.3934600883163
  0
ARC
  8
1
 62
7
 10
1303.121304505142
 20
407.4286921325939
 30
0
 40
87.00000000000009
 50
49.99999999999995
 51
130.0000000000001
  0
ARC
  8
1
 62
7
 10
1303.121304505142
 20
407.4286921325939
 30
0
 40
87.00000000000009
 50
229.9999999999999
 51
310.0000000000001
  0
CIRCLE
  8
1
 62
3
 10
1370.670282811962
 20
593.0179847378107
 30
0
 40
4.278000000000048
  0
CIRCLE
  8
1
 62
7
 10
1370.670282811962
 20
593.0179847378107
 30
0
 40
4.863999999999396
  0
CIRCLE
  8
1
 62
7
 10
1370.670282811962
 20
593.0179847378107
 30
0
 40
2.886751345948429
  0
CIRCLE
  8
1
 62
7
 10
403.514986721634
 20
82.42869213259388
 30
0
 40
20
  0
CIRCLE
  8
1
 62
7
 10
-6.485013278366068
 20
82.42869213259388
 30
0
 40
20
  0
CIRCLE
  8
1
 62
3
 10
198.5149867216339
 20
407.4286921325939
 30
0
 40
212.5000000000002
  0
CIRCLE
  8
1
 62
7
 10
198.5149867216339
 20
407.4286921325939
 30
0
 40
203.5000000000002
  0
CIRCLE
  8
1
 62
7
 10
371.7561481123384
 20
580.6698535232979
 30
0
 40
7.000000000000218
  0
CIRCLE
  8
1
 62
7
 10
443.5149867216341
 20
407.4286921325937
 30
0
 40
7.000000000000114
  0
CIRCLE
  8
1
 62
7
 10
371.7561481123381
 20
234.1875307418896
 30
0
 40
7.000000000000157
  0
CIRCLE
  8
1
 62
7
 10
198.5149867216339
 20
162.4286921325938
 30
0
 40
7
  0
CIRCLE
  8
1
 62
7
 10
25.27382533092964
 20
234.1875307418898
 30
0
 40
7.000000000000159
  0
CIRCLE
  8
1
 62
7
 10
-46.48501327836607
 20
407.4286921325941
 30
0
 40
7.000000000000227
  0
CIRCLE
  8
1
 62
7
 10
25.27382533092992
 20
580.6698535232981
 30
0
 40
7.000000000000054
  0
CIRCLE
  8
1
 62
3
 10
424.8654721868993
 20
313.6712512031468
 30
0
 40
6
  0
CIRCLE
  8
1
 62
7
 10
424.8654721868993
 20
313.6712512031468
 30
0
 40
4.800000000000011
  0
CIRCLE
  8
1
 62
3
 10
-27.83549874363138
 20
501.1861330620409
 30
0
 40
6.000000000000004
  0
CIRCLE
  8
1
 62
7
 10
-27.83549874363138
 20
501.1861330620409
 30
0
 40
4.799999999999951
  0
CIRCLE
  8
1
 62
7
 10
228.5149867216339
 20
164.2723638168372
 30
0
 40
7.5
  0
CIRCLE
  8
1
 62
7
 10
168.5149867216339
 20
650.5850204483505
 30
0
 40
7.5
  0
CIRCLE
  8
1
 62
7
 10
198.5149867216339
 20
652.4286921325939
 30
0
 40
7
  0
CIRCLE
  8
1
 62
7
 10
198.5149867216339
 20
407.4286921325939
 30
0
 40
265.0000000000002
  0
CIRCLE
  8
1
 62
7
 10
198.5149867216339
 20
407.4286921325939
 30
0
 40
262.5
  0
CIRCLE
  8
1
 62
7
 10
198.5149867216339
 20
407.4286921325939
 30
0
 40
260.0000000000002
  0
CIRCLE
  8
1
 62
7
 10
271.2892088179369
 20
346.3638692123728
 30
0
 40
11.50000000000008
  0
CIRCLE
  8
1
 62
7
 10
271.2892088179369
 20
346.3638692123728
 30
0
 40
17
  0
CIRCLE
  8
1
 62
7
 10
293.5149867216339
 20
407.4286921325939
 30
0
 40
11.50000000000007
  0
CIRCLE
  8
1
 62
7
 10
293.5149867216339
 20
407.4286921325939
 30
0
 40
16.99999999999993
  0
CIRCLE
  8
1
 62
7
 10
271.2892088179368
 20
468.493515052815
 30
0
 40
11.5
  0
CIRCLE
  8
1
 62
7
 10
271.2892088179368
 20
468.493515052815
 30
0
 40
17.00000000000011
  0
CIRCLE
  8
1
 62
7
 10
125.7407646253309
 20
346.3638692123728
 30
0
 40
16.99999999999998
  0
CIRCLE
  8
1
 62
7
 10
125.7407646253309
 20
346.3638692123728
 30
0
 40
11.50000000000005
  0
CIRCLE
  8
1
 62
7
 10
103.5149867216339
 20
407.4286921325939
 30
0
 40
11.49999999999983
  0
CIRCLE
  8
1
 62
7
 10
103.5149867216339
 20
407.4286921325939
 30
0
 40
16.99999999999978
  0
CIRCLE
  8
1
 62
7
 10
125.7407646253312
 20
468.493515052815
 30
0
 40
11.5
  0
CIRCLE
  8
1
 62
7
 10
125.7407646253312
 20
468.493515052815
 30
0
 40
17
  0
CIRCLE
  8
1
 62
7
 10
198.5149867216339
 20
407.4286921325939
 30
0
 40
65.0000000000002
  0
CIRCLE
  8
1
 62
7
 10
198.5149867216339
 20
407.4286921325939
 30
0
 40
42.5
  0
CIRCLE
  8
1
 62
7
 10
198.5149867216339
 20
542.4286921325938
 30
0
 40
6
  0
CIRCLE
  8
1
 62
7
 10
198.5149867216339
 20
407.4286921325939
 30
0
 40
198.0000000000001
  0
CIRCLE
  8
1
 62
7
 10
271.2892088179369
 20
346.3638692123728
 30
0
 40
21.49999999999992
  0
CIRCLE
  8
1
 62
7
 10
271.2892088179368
 20
468.493515052815
 30
0
 40
21.5
  0
CIRCLE
  8
1
 62
7
 10
293.5149867216339
 20
407.4286921325939
 30
0
 40
21.5
  0
CIRCLE
  8
1
 62
7
 10
244.6877060705996
 20
280.5701883264962
 30
0
 40
6.000000000000035
  0
CIRCLE
  8
1
 62
7
 10
315.4284162325332
 20
339.9286921325939
 30
0
 40
6.000000000000099
  0
CIRCLE
  8
1
 62
7
 10
331.464033378282
 20
430.8711961176295
 30
0
 40
6.000000000000024
  0
CIRCLE
  8
1
 62
7
 10
285.2913140293167
 20
510.844691953656
 30
0
 40
5.999999999999929
  0
CIRCLE
  8
1
 62
7
 10
125.7407646253309
 20
346.3638692123728
 30
0
 40
21.50000000000001
  0
CIRCLE
  8
1
 62
7
 10
125.7407646253312
 20
468.493515052815
 30
0
 40
21.49999999999992
  0
CIRCLE
  8
1
 62
7
 10
103.5149867216339
 20
407.4286921325939
 30
0
 40
21.5
  0
CIRCLE
  8
1
 62
7
 10
152.3422673726684
 20
280.5701883264962
 30
0
 40
6.000000000000115
  0
CIRCLE
  8
1
 62
7
 10
81.60155721073477
 20
339.9286921325939
 30
0
 40
6.000000000000099
  0
CIRCLE
  8
1
 62
7
 10
65.56594006498597
 20
430.8711961176295
 30
0
 40
6.000000000000024
  0
CIRCLE
  8
1
 62
7
 10
111.7386594139513
 20
510.844691953656
 30
0
 40
5.999999999999941
  0
CIRCLE
  8
1
 62
7
 10
1539.475165228072
 20
365.7531294925309
 30
0
 40
14.99999999999943
  0
CIRCLE
  8
1
 62
7
 10
1510.967401413407
 20
287.4286921325943
 30
0
 40
15.00000000000028
  0
CIRCLE
  8
1
 62
7
 10
1457.39033082991
 20
223.5780257840396
 30
0
 40
14.99999999999993
  0
CIRCLE
  8
1
 62
7
 10
1385.206138903302
 20
181.9024631439765
 30
0
 40
15.00000000000011
  0
CIRCLE
  8
1
 62
7
 10
1303.121304505142
 20
167.4286921325942
 30
0
 40
14.99999999999976
  0
CIRCLE
  8
1
 62
7
 10
1221.036470106982
 20
181.902463143976
 30
0
 40
15.00000000000003
  0
CIRCLE
  8
1
 62
7
 10
1148.852278180373
 20
223.5780257840394
 30
0
 40
15.00000000000028
  0
CIRCLE
  8
1
 62
7
 10
1095.275207596877
 20
287.4286921325941
 30
0
 40
15.00000000000029
  0
CIRCLE
  8
1
 62
7
 10
1066.767443782212
 20
365.7531294925306
 30
0
 40
15
  0
CIRCLE
  8
1
 62
7
 10
1066.767443782212
 20
449.104254772657
 30
0
 40
15.00000000000033
  0
CIRCLE
  8
1
 62
7
 10
1095.275207596876
 20
527.4286921325935
 30
0
 40
14.99999999999958
  0
CIRCLE
  8
1
 62
7
 10
1148.852278180372
 20
591.2793584811484
 30
0
 40
14.99999999999995
  0
CIRCLE
  8
1
 62
7
 10
1221.036470106981
 20
632.9549211212117
 30
0
 40
15.00000000000007
  0
CIRCLE
  8
1
 62
7
 10
1303.121304505141
 20
647.4286921325938
 30
0
 40
15.00000000000007
  0
CIRCLE
  8
1
 62
7
 10
1385.206138903302
 20
632.9549211212119
 30
0
 40
15.00000000000005
  0
CIRCLE
  8
1
 62
7
 10
1457.39033082991
 20
591.2793584811485
 30
0
 40
15.00000000000021
  0
CIRCLE
  8
1
 62
7
 10
1510.967401413407
 20
527.4286921325938
 30
0
 40
15.00000000000033
  0
CIRCLE
  8
1
 62
7
 10
1539.475165228072
 20
449.1042547726572
 30
0
 40
15
  0
CIRCLE
  8
1
 62
7
 10
1303.121304505142
 20
407.4286921325939
 30
0
 40
265.0000000000001
  0
CIRCLE
  8
1
 62
7
 10
1303.121304505142
 20
407.4286921325939
 30
0
 40
81
  0
CIRCLE
  8
1
 62
3
  6
DASHED
 10
780.5308738347479
 20
407.4286921325939
 30
0
 40
13
  0
CIRCLE
  8
1
 62
7
 10
1098.121304505142
 20
82.42869213259397
 30
0
 40
20
  0
CIRCLE
  8
1
 62
7
 10
1508.121304505142
 20
82.42869213259397
 30
0
 40
20
  0
CIRCLE
  8
1
 62
7
 10
1365.021233183398
 20
433.0684821010549
 30
0
 40
5.25
  0
CIRCLE
  8
1
 62
7
 10
1328.761094473602
 20
469.3286208108501
 30
0
 40
5.250000000000364
  0
CIRCLE
  8
1
 62
7
 10
1277.481514536681
 20
469.3286208108501
 30
0
 40
5.25
  0
CIRCLE
  8
1
 62
7
 10
1241.221375826886
 20
433.0684821010551
 30
0
 40
5.250000000000324
  0
CIRCLE
  8
1
 62
7
 10
1241.221375826886
 20
381.7889021641332
 30
0
 40
5.25
  0
CIRCLE
  8
1
 62
7
 10
1365.021233183398
 20
381.7889021641329
 30
0
 40
5.249999999999721
  0
CIRCLE
  8
1
 62
7
 10
1303.121304505142
 20
407.4286921325939
 30
0
 40
42.5
  0
CIRCLE
  8
1
 62
7
 10
1375.895526601445
 20
468.4935150528152
 30
0
 40
9.5
  0
CIRCLE
  8
1
 62
7
 10
1375.895526601445
 20
468.4935150528152
 30
0
 40
6
  0
CIRCLE
  8
1
 62
7
 10
1398.121304505142
 20
407.4286921325939
 30
0
 40
9.5
  0
CIRCLE
  8
1
 62
7
 10
1398.121304505142
 20
407.4286921325939
 30
0
 40
6
  0
CIRCLE
  8
1
 62
7
 10
1375.895526601445
 20
346.3638692123727
 30
0
 40
9.5
  0
CIRCLE
  8
1
 62
7
 10
1375.895526601445
 20
346.3638692123727
 30
0
 40
6
  0
CIRCLE
  8
1
 62
7
 10
1230.347082408839
 20
468.4935150528152
 30
0
 40
9.5
  0
CIRCLE
  8
1
 62
7
 10
1230.347082408839
 20
468.4935150528152
 30
0
 40
6
  0
CIRCLE
  8
1
 62
7
 10
1208.121304505142
 20
407.4286921325939
 30
0
 40
9.5
  0
CIRCLE
  8
1
 62
7
 10
1208.121304505142
 20
407.4286921325939
 30
0
 40
6
  0
CIRCLE
  8
1
 62
7
 10
1230.347082408839
 20
346.3638692123727
 30
0
 40
9.5
  0
CIRCLE
  8
1
 62
7
 10
1230.347082408839
 20
346.3638692123727
 30
0
 40
6
  0
ARC
  8
1
 62
7
 10
443.5149867216341
 20
42.42869213259388
 30
0
 40
20
 50
270
 51
0
  0
ARC
  8
1
 62
7
 10
363.514986721634
 20
42.42869213259388
 30
0
 40
20
 50
180
 51
270
  0
ARC
  8
1
 62
7
 10
-46.48501327836607
 20
42.42869213259388
 30
0
 40
20
 50
180
 51
270
  0
ARC
  8
1
 62
7
 10
33.51498672163393
 20
42.42869213259388
 30
0
 40
20
 50
270
 51
0
  0
ARC
  8
1
 62
7
 10
303.514986721634
 20
82.42869213259388
 30
0
 40
40
 50
0
 51
90
  0
ARC
  8
1
 62
7
 10
93.51498672163393
 20
82.42869213259388
 30
0
 40
40.00000000000001
 50
90
 51
180
  0
ARC
  8
1
 62
7
 10
260.1927109172248
 20
376.4955652610237
 30
0
 40
3.999999999999913
 50
70.43046206827945
 51
153.3649375340531
  0
ARC
  8
1
 62
7
 10
262.9870762379853
 20
310.9955563679845
 30
0
 40
4.000000000000071
 50
209.5695379317207
 51
303.7654123509733
  0
ARC
  8
1
 62
7
 10
224.169138969153
 20
221.1872776393048
 30
0
 40
3.999999999999955
 50
277.8429522603932
 51
10.4304620682797
  0
ARC
  8
1
 62
7
 10
238.1062844402923
 20
223.6447724199255
 30
0
 40
3.99999999999985
 50
189.5695379317212
 51
282.1570477396073
  0
ARC
  8
1
 62
7
 10
286.3203195593158
 20
241.1932460771154
 30
0
 40
3.999999999999957
 50
297.8429522603925
 51
30.43046206827978
  0
ARC
  8
1
 62
7
 10
224.1691389691528
 20
593.670106625883
 30
0
 40
4.000000000000084
 50
349.5695379317199
 51
82.15704773960684
  0
ARC
  8
1
 62
7
 10
238.1062844402923
 20
591.2126118452621
 30
0
 40
4.00000000000002
 50
77.84295226039264
 51
170.4304620682776
  0
ARC
  8
1
 62
7
 10
286.3203195593158
 20
573.6641381880723
 30
0
 40
3.999999999999854
 50
329.5695379317208
 51
62.1570477396096
  0
ARC
  8
1
 62
7
 10
298.576439596275
 20
566.5880639855135
 30
0
 40
3.999999999999937
 50
57.84295226039147
 51
150.4304620682802
  0
ARC
  8
1
 62
7
 10
298.5764395962752
 20
248.2693202796743
 30
0
 40
3.999999999999993
 50
209.5695379317204
 51
302.1570477396079
  0
ARC
  8
1
 62
7
 10
337.8808811405554
 20
281.2496626831087
 30
0
 40
4.000000000000126
 50
317.8429522603936
 51
50.4304620682797
  0
ARC
  8
1
 62
7
 10
346.9777067858103
 20
292.0908373270443
 30
0
 40
4.000000000000027
 50
229.5695379317195
 51
322.1570477396066
  0
ARC
  8
1
 62
7
 10
213.6531898172219
 20
278.3131051299521
 30
0
 40
4.000000000000091
 50
10.43046206827843
 51
96.68713414210899
  0
ARC
  8
1
 62
7
 10
228.4498605529732
 20
280.9221574053245
 30
0
 40
3.999999999999901
 50
103.3128658578909
 51
189.5695379317232
  0
ARC
  8
1
 62
7
 10
302.7632635426677
 20
329.7608301828458
 30
0
 40
3.999999999999925
 50
143.312865857888
 51
229.569537931723
  0
ARC
  8
1
 62
7
 10
293.105422624518
 20
318.2510635719374
 30
0
 40
4.000000000000261
 50
50.43046206827949
 51
136.6871341421072
  0
ARC
  8
1
 62
7
 10
269.9123499041551
 20
298.789764806413
 30
0
 40
4.00000000000019
 50
123.3128658578932
 51
209.5695379317225
  0
ARC
  8
1
 62
7
 10
256.9003760347376
 20
291.2772981902165
 30
0
 40
4.00000000000002
 50
30.43046206827679
 51
116.6871341421097
  0
ARC
  8
1
 62
7
 10
323.0402964558571
 20
370.0997859659811
 30
0
 40
4.000000000000057
 50
163.3128658578917
 51
249.5695379317212
  0
ARC
  8
1
 62
7
 10
317.9014666382554
 20
355.9809670797004
 30
0
 40
4.000000000000039
 50
70.43046206827924
 51
156.6871341421085
  0
ARC
  8
1
 62
7
 10
328.2977392172585
 20
414.9411587487905
 30
0
 40
4.000000000000054
 50
183.3128658578913
 51
269.5695379317214
  0
ARC
  8
1
 62
7
 10
317.9014666382554
 20
458.8764171854876
 30
0
 40
4.000000000000044
 50
203.3128658578909
 51
289.5695379317208
  0
ARC
  8
1
 62
7
 10
323.0402964558571
 20
444.7575982992069
 30
0
 40
3.999999999999929
 50
110.4304620682814
 51
196.6871341421083
  0
ARC
  8
1
 62
7
 10
328.2977392172585
 20
399.9162255163974
 30
0
 40
4.000000000000068
 50
90.43046206827944
 51
176.6871341421079
  0
ARC
  8
1
 62
7
 10
302.7632635426675
 20
485.096554082342
 30
0
 40
4.000000000000003
 50
130.4304620682776
 51
216.687134142109
  0
ARC
  8
1
 62
7
 10
256.9003760347375
 20
523.5800860749712
 30
0
 40
3.999999999999981
 50
243.312865857891
 51
329.5695379317205
  0
ARC
  8
1
 62
7
 10
269.9123499041547
 20
516.0676194587746
 30
0
 40
4.000000000000071
 50
150.4304620682793
 51
236.6871341421111
  0
ARC
  8
1
 62
7
 10
293.1054226245179
 20
496.6063206932503
 30
0
 40
3.999999999999984
 50
223.312865857891
 51
309.5695379317201
  0
ARC
  8
1
 62
7
 10
228.449860552973
 20
533.9352268598632
 30
0
 40
3.99999999999985
 50
170.4304620682788
 51
256.6871341421091
  0
ARC
  8
1
 62
7
 10
213.6531898172217
 20
536.5442791352356
 30
0
 40
3.999999999999976
 50
263.3128658578893
 51
349.5695379317212
  0
ARC
  8
1
 62
7
 10
386.3817724339569
 20
414.5047663351528
 30
0
 40
3.999999999999954
 50
269.5695379317206
 51
2.157047739605783
  0
ARC
  8
1
 62
7
 10
386.3817724339568
 20
400.3526179300351
 30
0
 40
4.000000000000068
 50
357.8429522603926
 51
90.43046206827864
  0
ARC
  8
1
 62
7
 10
377.4721788592136
 20
349.8238018694109
 30
0
 40
4.000000000000083
 50
249.569537931722
 51
342.1570477396068
  0
ARC
  8
1
 62
7
 10
372.6318590333291
 20
336.5251324448545
 30
0
 40
3.999999999999963
 50
337.8429522603919
 51
70.43046206827744
  0
ARC
  8
1
 62
7
 10
346.9777067858101
 20
522.7665469381434
 30
0
 40
4.000000000000013
 50
37.84295226039211
 51
130.4304620682775
  0
ARC
  8
1
 62
7
 10
337.8808811405553
 20
533.6077215820791
 30
0
 40
3.99999999999997
 50
309.5695379317219
 51
42.15704773960808
  0
ARC
  8
1
 62
7
 10
377.4721788592135
 20
465.0335823957772
 30
0
 40
4.00000000000012
 50
17.84295226039268
 51
110.4304620682778
  0
ARC
  8
1
 62
7
 10
372.6318590333291
 20
478.3322518203333
 30
0
 40
3.999999999999932
 50
289.5695379317213
 51
22.15704773960801
  0
ARC
  8
1
 62
7
 10
304.6785473247938
 20
360.6815168162262
 30
0
 40
3.999999999999974
 50
336.2345876490267
 51
70.43046206827924
  0
ARC
  8
1
 62
7
 10
309.8894974646149
 20
374.998484659289
 30
0
 40
3.999999999999977
 50
249.5695379317214
 51
343.7654123509739
  0
ARC
  8
1
 62
7
 10
249.7924873022039
 20
303.3776568940647
 30
0
 40
4.000000000000037
 50
296.2345876490262
 51
30.43046206827803
  0
ARC
  8
1
 62
7
 10
309.8894974646149
 20
439.8588996058988
 30
0
 40
3.99999999999995
 50
16.23458764902658
 51
110.430462068278
  0
ARC
  8
1
 62
7
 10
304.6785473247937
 20
454.1758674489616
 30
0
 40
3.999999999999913
 50
289.5695379317206
 51
23.76541235097364
  0
ARC
  8
1
 62
7
 10
262.987076237985
 20
503.8618278972033
 30
0
 40
4.000000000000073
 50
56.23458764902714
 51
150.4304620682751
  0
ARC
  8
1
 62
7
 10
249.7924873022037
 20
511.4797273711231
 30
0
 40
3.999999999999903
 50
329.5695379317212
 51
63.76541235097494
  0
ARC
  8
1
 62
7
 10
261.1671748756295
 20
440.83083756543
 30
0
 40
5.999999999999995
 50
208.0636896962882
 51
289.5695379317217
  0
ARC
  8
1
 62
7
 10
267.9798325274218
 20
422.1132145006559
 30
0
 40
6.000000000000065
 50
110.4304620682788
 51
191.9363103037125
  0
ARC
  8
1
 62
7
 10
242.2891168109192
 20
463.3288310852506
 30
0
 40
6.000000000000022
 50
150.4304620682807
 51
231.9363103037116
  0
ARC
  8
1
 62
7
 10
225.0388620850719
 20
473.2882702948082
 30
0
 40
6.000000000000106
 50
248.0636896962886
 51
329.56953793172
  0
ARC
  8
1
 62
7
 10
267.9798325274219
 20
392.744169764532
 30
0
 40
5.999999999999909
 50
168.0636896962885
 51
249.5695379317203
  0
ARC
  8
1
 62
7
 10
242.2891168109194
 20
351.5285531799371
 30
0
 40
5.999999999999985
 50
128.0636896962879
 51
209.5695379317223
  0
ARC
  8
1
 62
7
 10
225.0388620850721
 20
341.5691139703795
 30
0
 40
6.000000000000165
 50
30.43046206827951
 51
111.936310303711
  0
ARC
  8
1
 62
7
 10
136.8372625260431
 20
376.4955652610237
 30
0
 40
3.999999999999967
 50
26.63506246594782
 51
109.5695379317209
  0
ARC
  8
1
 62
7
 10
134.0428972052827
 20
310.9955563679845
 30
0
 40
4.000000000000088
 50
236.2345876490253
 51
330.4304620682775
  0
ARC
  8
1
 62
7
 10
172.8608344741149
 20
221.1872776393048
 30
0
 40
4.000000000000078
 50
169.5695379317203
 51
262.1570477396052
  0
ARC
  8
1
 62
7
 10
158.9236890029756
 20
223.6447724199255
 30
0
 40
4.000000000000047
 50
257.8429522603927
 51
350.4304620682792
  0
ARC
  8
1
 62
7
 10
110.7096538839522
 20
241.1932460771154
 30
0
 40
4.000000000000142
 50
149.5695379317219
 51
242.157047739606
  0
ARC
  8
1
 62
7
 10
172.8608344741151
 20
593.670106625883
 30
0
 40
3.999999999999958
 50
97.84295226039357
 51
190.4304620682801
  0
ARC
  8
1
 62
7
 10
158.9236890029756
 20
591.2126118452621
 30
0
 40
4.000000000000066
 50
9.569537931722381
 51
102.1570477396074
  0
ARC
  8
1
 62
7
 10
110.7096538839522
 20
573.6641381880723
 30
0
 40
3.999999999999963
 50
117.8429522603927
 51
210.4304620682778
  0
ARC
  8
1
 62
7
 10
98.45353384699297
 20
566.5880639855135
 30
0
 40
4.000000000000003
 50
29.56953793171944
 51
122.1570477396085
  0
ARC
  8
1
 62
7
 10
98.45353384699263
 20
248.2693202796743
 30
0
 40
4.00000000000001
 50
237.8429522603922
 51
330.4304620682794
  0
ARC
  8
1
 62
7
 10
59.14909230271252
 20
281.2496626831087
 30
0
 40
4.00000000000006
 50
129.5695379317196
 51
222.157047739607
  0
ARC
  8
1
 62
7
 10
50.05226665745767
 20
292.0908373270443
 30
0
 40
3.999999999999805
 50
217.8429522603934
 51
310.4304620682805
  0
ARC
  8
1
 62
7
 10
168.5801128902949
 20
280.9221574053245
 30
0
 40
3.999999999999878
 50
350.4304620682764
 51
76.68713414211072
  0
ARC
  8
1
 62
7
 10
183.376783626046
 20
278.3131051299521
 30
0
 40
4.000000000000023
 50
83.31286585789061
 51
169.5695379317215
  0
ARC
  8
1
 62
7
 10
127.117623539113
 20
298.789764806413
 30
0
 40
4.000000000000031
 50
330.4304620682761
 51
56.68713414211085
  0
ARC
  8
1
 62
7
 10
140.1295974085302
 20
291.2772981902165
 30
0
 40
4.00000000000007
 50
63.3128658578885
 51
149.5695379317228
  0
ARC
  8
1
 62
7
 10
94.26670990060012
 20
329.7608301828458
 30
0
 40
4.000000000000076
 50
310.4304620682788
 51
36.68713414211102
  0
ARC
  8
1
 62
7
 10
103.9245508187498
 20
318.2510635719374
 30
0
 40
4.000000000000196
 50
43.31286585789042
 51
129.569537931718
  0
ARC
  8
1
 62
7
 10
73.98967698741086
 20
370.0997859659811
 30
0
 40
4.000000000000063
 50
290.4304620682772
 51
16.68713414210856
  0
ARC
  8
1
 62
7
 10
79.12850680501242
 20
355.9809670797004
 30
0
 40
4.000000000000096
 50
23.31286585789056
 51
109.5695379317185
  0
ARC
  8
1
 62
7
 10
68.73223422600944
 20
414.9411587487905
 30
0
 40
4.000000000000068
 50
270.4304620682786
 51
356.6871341421087
  0
ARC
  8
1
 62
7
 10
68.73223422600944
 20
399.9162255163974
 30
0
 40
4.000000000000058
 50
3.312865857892127
 51
89.56953793171975
  0
ARC
  8
1
 62
7
 10
94.26670990060046
 20
485.096554082342
 30
0
 40
3.999999999999915
 50
323.312865857891
 51
49.56953793172426
  0
ARC
  8
1
 62
7
 10
79.12850680501242
 20
458.8764171854876
 30
0
 40
3.999999999999982
 50
250.4304620682815
 51
336.6871341421098
  0
ARC
  8
1
 62
7
 10
73.98967698741086
 20
444.7575982992069
 30
0
 40
4.000000000000003
 50
343.3128658578914
 51
69.56953793171856
  0
ARC
  8
1
 62
7
 10
103.9245508187499
 20
496.6063206932503
 30
0
 40
3.99999999999995
 50
230.4304620682798
 51
316.6871341421106
  0
ARC
  8
1
 62
7
 10
183.3767836260462
 20
536.5442791352356
 30
0
 40
3.999999999999867
 50
190.430462068279
 51
276.6871341421123
  0
ARC
  8
1
 62
7
 10
168.5801128902949
 20
533.9352268598632
 30
0
 40
3.999999999999875
 50
283.3128658578893
 51
9.569537931720774
  0
ARC
  8
1
 62
7
 10
140.1295974085305
 20
523.5800860749712
 30
0
 40
3.999999999999903
 50
210.4304620682787
 51
296.6871341421079
  0
ARC
  8
1
 62
7
 10
127.1176235391131
 20
516.0676194587746
 30
0
 40
4.00000000000001
 50
303.3128658578908
 51
29.56953793172105
  0
ARC
  8
1
 62
7
 10
10.64820100931092
 20
414.5047663351528
 30
0
 40
3.99999999999989
 50
177.8429522603942
 51
270.4304620682803
  0
ARC
  8
1
 62
7
 10
10.64820100931104
 20
400.3526179300351
 30
0
 40
3.999999999999897
 50
89.56953793172137
 51
182.1570477396074
  0
ARC
  8
1
 62
7
 10
19.55779458405436
 20
349.8238018694109
 30
0
 40
4.00000000000006
 50
197.8429522603929
 51
290.4304620682773
  0
ARC
  8
1
 62
7
 10
24.39811440993884
 20
336.5251324448545
 30
0
 40
4.000000000000004
 50
109.5695379317218
 51
202.1570477396074
  0
ARC
  8
1
 62
7
 10
50.05226665745772
 20
522.7665469381434
 30
0
 40
4.000000000000038
 50
49.56953793172055
 51
142.1570477396064
  0
ARC
  8
1
 62
7
 10
59.14909230271263
 20
533.6077215820791
 30
0
 40
4.000000000000042
 50
137.8429522603925
 51
230.4304620682781
  0
ARC
  8
1
 62
7
 10
19.55779458405442
 20
465.0335823957772
 30
0
 40
3.999999999999979
 50
69.56953793172131
 51
162.1570477396073
  0
ARC
  8
1
 62
7
 10
24.39811440993884
 20
478.3322518203333
 30
0
 40
4.000000000000073
 50
157.8429522603926
 51
250.4304620682787
  0
ARC
  8
1
 62
7
 10
92.35142611847402
 20
360.6815168162262
 30
0
 40
3.999999999999982
 50
109.5695379317185
 51
203.765412350974
  0
ARC
  8
1
 62
7
 10
87.14047597865306
 20
374.998484659289
 30
0
 40
4.000000000000114
 50
196.2345876490259
 51
290.4304620682779
  0
ARC
  8
1
 62
7
 10
147.237486141064
 20
303.3776568940647
 30
0
 40
3.999999999999898
 50
149.5695379317222
 51
243.7654123509738
  0
ARC
  8
1
 62
7
 10
87.14047597865306
 20
439.8588996058988
 30
0
 40
4.000000000000063
 50
69.56953793172275
 51
163.7654123509736
  0
ARC
  8
1
 62
7
 10
92.35142611847414
 20
454.1758674489616
 30
0
 40
3.999999999999869
 50
156.234587649026
 51
250.4304620682802
  0
ARC
  8
1
 62
7
 10
134.0428972052829
 20
503.8618278972033
 30
0
 40
4.000000000000105
 50
29.56953793172328
 51
123.7654123509742
  0
ARC
  8
1
 62
7
 10
147.2374861410642
 20
511.4797273711231
 30
0
 40
3.999999999999898
 50
116.234587649024
 51
210.4304620682785
  0
ARC
  8
1
 62
7
 10
135.8627985676384
 20
440.83083756543
 30
0
 40
5.999999999999843
 50
250.4304620682794
 51
331.9363103037119
  0
ARC
  8
1
 62
7
 10
129.0501409158462
 20
422.1132145006559
 30
0
 40
5.999999999999877
 50
348.0636896962873
 51
69.56953793172043
  0
ARC
  8
1
 62
7
 10
154.7408566323487
 20
463.3288310852506
 30
0
 40
5.999999999999941
 50
308.0636896962882
 51
29.56953793171947
  0
ARC
  8
1
 62
7
 10
171.991111358196
 20
473.2882702948082
 30
0
 40
6.000000000000062
 50
210.4304620682795
 51
291.9363103037111
  0
ARC
  8
1
 62
7
 10
129.0501409158462
 20
392.744169764532
 30
0
 40
5.999999999999918
 50
290.4304620682782
 51
11.93631030371161
  0
ARC
  8
1
 62
7
 10
154.7408566323485
 20
351.5285531799371
 30
0
 40
6.000000000000109
 50
330.4304620682786
 51
51.93631030371216
  0
ARC
  8
1
 62
7
 10
171.9911113581958
 20
341.5691139703795
 30
0
 40
6.000000000000201
 50
68.06368969628926
 51
149.5695379317201
  0
ARC
  8
1
 62
7
 10
815.420358549348
 20
666.9286921325939
 30
0
 40
2.999999999999994
 50
19.74683660542727
 51
90
  0
ARC
  8
1
 62
7
 10
815.420358549348
 20
147.9286921325938
 30
0
 40
3
 50
270
 51
340.2531633945737
  0
ARC
  8
1
 62
7
 10
746.5308738347479
 20
188.6388079499778
 30
0
 40
3.000000000000045
 50
287.241459398943
 51
0
  0
ARC
  8
1
 62
7
 10
723.5308738347479
 20
175.21857631521
 30
0
 40
3.000000000000011
 50
107.241459398941
 51
180
  0
ARC
  8
1
 62
7
 10
746.5308738347479
 20
626.21857631521
 30
0
 40
3
 50
0
 51
72.75854060105681
  0
ARC
  8
1
 62
7
 10
723.5308738347479
 20
639.6388079499778
 30
0
 40
3
 50
180
 51
252.7585406010589
  0
ARC
  8
1
 62
7
 10
753.5234216346055
 20
609.4286921325937
 30
0
 40
4
 50
270
 51
352.4926533330499
  0
ARC
  8
1
 62
7
 10
768.1614629848547
 20
666.9286921325937
 30
0
 40
3
 50
90
 51
172.4926533330513
  0
ARC
  8
1
 62
7
 10
753.5234216346055
 20
205.428692132594
 30
0
 40
4.000000000000119
 50
7.507346666948862
 51
90
  0
ARC
  8
1
 62
7
 10
768.1614629848547
 20
147.928692132594
 30
0
 40
2.999999999999981
 50
187.5073466669498
 51
270
  0
ARC
  8
1
 62
7
 10
670.5308738347479
 20
338.8721885808999
 30
0
 40
3
 50
0
 51
69.99999999999869
  0
ARC
  8
1
 62
7
 10
670.5308738347479
 20
475.9851956842879
 30
0
 40
3.000000000000092
 50
290.0000000000005
 51
0
  0
ARC
  8
1
 62
7
 10
1325.621304505142
 20
496.6349138887024
 30
0
 40
5
 50
180
 51
255.8438591079498
  0
ARC
  8
1
 62
7
 10
1280.621304505142
 20
496.6349138887024
 30
0
 40
4.99999999999993
 50
284.1561408920402
 51
0
  0
ARC
  8
1
 62
7
 10
1323.621304505142
 20
529.4286921325938
 30
0
 40
3
 50
90
 51
180
  0
ARC
  8
1
 62
7
 10
1282.621304505142
 20
529.4286921325938
 30
0
 40
3
 50
0
 51
90
  0
ARC
  8
1
 62
7
 10
1325.782930807965
 20
537.4286921325938
 30
0
 40
5
 50
270
 51
350.3262574875296
  0
ARC
  8
1
 62
7
 10
1280.459678202318
 20
537.4286921325938
 30
0
 40
4.999999999999858
 50
189.6737425124708
 51
270
  0
ARC
  8
1
 62
7
 10
1317.962623449514
 20
547.4286921325938
 30
0
 40
5
 50
270
 51
349.6737425124716
  0
ARC
  8
1
 62
7
 10
1288.279985560769
 20
547.4286921325938
 30
0
 40
5.000000000000049
 50
190.3262574875297
 51
270
  0
ARC
  8
1
 62
7
 10
1357.487816169156
 20
333.2108882747157
 30
0
 40
4.999999999999829
 50
126.2237663060873
 51
209.673742512471
  0
ARC
  8
1
 62
7
 10
1340.212552227148
 20
323.2370099874753
 30
0
 40
4.999999999999958
 50
30.32625748753158
 51
113.7762336939137
  0
ARC
  8
1
 62
7
 10
1266.030056783136
 20
323.2370099874751
 30
0
 40
4.999999999999547
 50
66.22376630609533
 51
149.6737425124731
  0
ARC
  8
1
 62
7
 10
1248.754792841127
 20
333.2108882747154
 30
0
 40
5.000000000000675
 50
330.3262574875348
 51
53.77623369390395
  0
ARC
  8
1
 62
7
 10
1248.754792841127
 20
481.6464959904724
 30
0
 40
4.999999999999603
 50
306.2237663060859
 51
29.67374251247341
  0
ARC
  8
1
 62
7
 10
1266.030056783135
 20
491.6203742777129
 30
0
 40
5.000000000000155
 50
210.3262574875303
 51
293.7762336939134
  0
ARC
  8
1
 62
7
 10
1340.212552227148
 20
491.6203742777129
 30
0
 40
4.999999999999965
 50
246.2237663060861
 51
329.6737425124707
  0
ARC
  8
1
 62
7
 10
1357.487816169156
 20
481.6464959904726
 30
0
 40
4.999999999999885
 50
150.3262574875296
 51
233.7762336939124
  0
ARC
  8
1
 62
7
 10
1323.621304505142
 20
285.4286921325938
 30
0
 40
3
 50
180
 51
270
  0
ARC
  8
1
 62
7
 10
1282.621304505142
 20
285.4286921325938
 30
0
 40
3
 50
270
 51
0
  0
ARC
  8
1
 62
7
 10
1325.782930807965
 20
277.4286921325938
 30
0
 40
5.000000000000083
 50
9.673742512470399
 51
90
  0
ARC
  8
1
 62
7
 10
1280.459678202318
 20
277.4286921325938
 30
0
 40
5
 50
90
 51
170.3262574875292
  0
ARC
  8
1
 62
7
 10
1317.962623449514
 20
267.4286921325938
 30
0
 40
5.000000000000029
 50
10.32625748752845
 51
90
  0
ARC
  8
1
 62
7
 10
1288.279985560769
 20
267.4286921325938
 30
0
 40
5
 50
90
 51
169.6737425124709
  0
ARC
  8
1
 62
7
 10
1280.621304505142
 20
318.2224703764854
 30
0
 40
5
 50
0
 51
75.84385910795983
  0
ARC
  8
1
 62
7
 10
1325.621304505142
 20
318.2224703764854
 30
0
 40
5.000000000000153
 50
104.1561408920503
 51
180
  0
ARC
  8
1
 62
7
 10
1058.121304505142
 20
42.42869213259397
 30
0
 40
20
 50
180
 51
270
  0
ARC
  8
1
 62
7
 10
1138.121304505142
 20
42.42869213259397
 30
0
 40
20
 50
270
 51
0
  0
ARC
  8
1
 62
7
 10
1468.121304505142
 20
42.42869213259397
 30
0
 40
20
 50
180
 51
270
  0
ARC
  8
1
 62
7
 10
1548.121304505142
 20
42.42869213259397
 30
0
 40
20
 50
270
 51
0
  0
ARC
  8
1
 62
7
 10
1198.121304505142
 20
82.42869213259397
 30
0
 40
40.00000000000003
 50
90
 51
180
  0
ARC
  8
1
 62
7
 10
1408.121304505142
 20
82.42869213259397
 30
0
 40
40
 50
0
 51
90
  0
TEXT
  8
1
 62
7
 10
81.60179850753309
 20
774.5773951493881
 30
0
 40
30
  1
ACSB 400
 41
0.9
  7
SIMPLEX
 72
1
 11
189.6017985075331
 21
774.5773951493881
 31
0
  0
ENDSEC
  0
EOF
