  0
SECTION
  2
HEADER
  9
$ACADVER
  1
AC1009
  9
$INSBASE
 10
0
 20
0
  9
$EXTMIN
 10
-138.9244398788824
 20
-45.00000000000001
  9
$EXTMAX
 10
237.414458863705
 20
124.4670591226838
  9
$LIMMIN
 10
-138.9244398788824
 20
-45.00000000000001
  9
$LIMMAX
 10
237.414458863705
 20
124.4670591226838
  9
$VIEWCTR
 10
10
 20
10
  9
$VIEWSIZE
 40
10
  9
$SNAPMODE
 70
0
  9
$SNAPUNIT
 10
1
 20
1
  9
$SNAPBASE
 10
0
 20
0
  9
$SNAPANG
 50
0
  9
$SNAPSTYLE
 70
0
  9
$SNAPISOPAIR
 70
0
  9
$GRIDMODE
 70
0
  9
$GRIDUNIT
 10
0
 20
0
  9
$ORTHOMODE
 70
0
  9
$REGENMODE
 70
1
  9
$FILLMODE
 70
1
  9
$QTEXTMODE
 70
0
  9
$DRAGMODE
 70
2
  9
$LTSCALE
 40
1
  9
$OSMODE
 70
0
  9
$ATTMODE
 70
1
  9
$TEXTSIZE
 40
3.5
  9
$TRACEWID
 40
0.5
  9
$TEXTSTYLE
  7
STANDARD
  9
$CLAYER
  8
0
  9
$CELTYPE
  6
BYLAYER
  9
$CECOLOR
 62
256
  9
$DIMSCALE
 40
1
  9
$DIMASZ
 40
0.18
  9
$DIMEXO
 40
0.0625
  9
$DIMDLI
 40
0.38
  9
$DIMRND
 40
0
  9
$DIMDLE
 40
0
  9
$DIMEXE
 40
0.18
  9
$DIMTP
 40
0
  9
$DIMTM
 40
0
  9
$DIMTXT
 40
0.18
  9
$DIMCEN
 40
0.09
  9
$DIMTSZ
 40
0
  9
$DIMTOL
 70
0
  9
$DIMLIM
 70
0
  9
$DIMTIH
 70
1
  9
$DIMTOH
 70
1
  9
$DIMSE1
 70
0
  9
$DIMSE2
 70
0
  9
$DIMTAD
 70
0
  9
$DIMZIN
 70
0
  9
$DIMBLK
  1

  9
$DIMASO
 70
1
  9
$DIMSHO
 70
1
  9
$DIMPOST
  1

  9
$DIMAPOST
  1

  9
$DIMALT
 70
0
  9
$DIMALTD
 70
2
  9
$DIMALTF
 40
25.4
  9
$DIMLFAC
 40
1
  9
$DIMTOFL
 70
0
  9
$DIMTVP
 40
0
  9
$DIMTIX
 70
0
  9
$DIMSOXD
 70
0
  9
$DIMSAH
 70
0
  9
$DIMBLK1
  1

  9
$DIMBLK2
  1

  9
$DIMSTYLE
  2
*UNNAMED
  9
$DIMCLRD
 70
0
  9
$DIMCLRE
 70
0
  9
$DIMCLRT
 70
0
  9
$DIMTFAC
 40
1
  9
$DIMGAP
 40
0.09
  9
$LUNITS
 70
2
  9
$LUPREC
 70
4
  9
$AXISMODE
 70
0
  9
$AXISUNIT
 10
0
 20
0
  9
$SKETCHINC
 40
0.1
  9
$FILLETRAD
 40
2
  9
$AUNITS
 70
0
  9
$AUPREC
 70
0
  9
$MENU
  1
ACAD
  9
$ELEVATION
 40
0
  9
$THICKNESS
 40
0
  9
$VIEWDIR
 10
0
 20
0
 30
1
  9
$LIMCHECK
 70
0
  9
$BLIPMODE
 70
1
  9
$CHAMFERA
 40
0
  9
$CHAMFERB
 40
0
  9
$FASTZOOM
 70
1
  9
$SKPOLY
 70
0
  9
$ANGBASE
 50
0
  9
$ANGDIR
 70
0
  9
$PDMODE
 70
0
  9
$PDSIZE
 40
0
  9
$PLINEWID
 40
0
  9
$COORDS
 70
2
  0
ENDSEC
  0
SECTION
  2
TABLES
  0
TABLE
  2
DIMSTYLE
 70
0
  0
ENDTAB
  0
TABLE
  2
LTYPE
 70
9
  0
LTYPE
  2
CONTINUOUS
 70
64
  3
Solid line
 72
65
 73
0
 40
0
  0
LTYPE
  2
BORDER
 70
64
  3
__ __ . __ __ .
 72
65
 73
6
 40
17.33139665261916
 49
4.951827615034045
 49
-2.475913807517022
 49
4.951827615034045
 49
-2.475913807517022
 49
0
 49
-2.475913807517022
  0
LTYPE
  2
CENTER
 70
64
  3
____ _ ____ _
 72
65
 73
4
 40
19.80731046013618
 49
12.37956903758511
 49
-2.475913807517022
 49
2.475913807517022
 49
-2.475913807517022
  0
LTYPE
  2
DASHDOT
 70
64
  3
__ . __ . __ .
 72
65
 73
4
 40
9.90365523006809
 49
4.951827615034045
 49
-2.475913807517022
 49
0
 49
-2.475913807517022
  0
LTYPE
  2
DASHED
 70
64
  3
__ __ __ __ __
 72
65
 73
2
 40
7.427741422551067
 49
4.951827615034045
 49
-2.475913807517022
  0
LTYPE
  2
DIVIDE
 70
64
  3
__ . . __ . . 
 72
65
 73
6
 40
12.37956903758511
 49
4.951827615034045
 49
-2.475913807517022
 49
0
 49
-2.475913807517022
 49
0
 49
-2.475913807517022
  0
LTYPE
  2
DOT
 70
64
  3
..............
 72
65
 73
4
 40
4.951827615034045
 49
0
 49
-2.475913807517022
 49
0
 49
-2.475913807517022
  0
LTYPE
  2
HIDDEN
 70
64
  3
_ _ _ _ _ _ _
 72
65
 73
2
 40
3.713870711275534
 49
2.475913807517022
 49
-1.237956903758511
  0
LTYPE
  2
PHANTOM
 70
64
  3
_____ _ _ _____ _ _ 
 72
65
 73
6
 40
24.75913807517022
 49
12.37956903758511
 49
-2.475913807517022
 49
2.475913807517022
 49
-2.475913807517022
 49
2.475913807517022
 49
-2.475913807517022
  0
ENDTAB
  0
TABLE
  2
LAYER
 70
3
  0
LAYER
  2
1
 70
0
 62
7
  6
CONTINUOUS
  0
LAYER
  2
0
 70
0
 62
7
  6
CONTINUOUS
  0
ENDTAB
  0
TABLE
  2
STYLE
 70
4
  0
STYLE
  2
STANDARD
 70
0
 40
0
 41
1
 50
0
 71
0
 42
3.5
  3
txt
  4

  0
STYLE
  2
SIMPLEX
 70
0
 40
0
 41
1
 50
0
 71
0
 42
3.5
  3
simplex
  4

  0
STYLE
  2
COMPLEX
 70
0
 40
0
 41
1
 50
0
 71
0
 42
3.5
  3
complex
  4

  0
STYLE
  2
ITALIC
 70
0
 40
0
 41
1
 50
0
 71
0
 42
3.5
  3
italic
  4

  0
ENDTAB
  0
TABLE
  2
VIEW
 70
0
  0
ENDTAB
  0
ENDSEC
  0
SECTION
  2
BLOCKS
  0
ENDSEC
  0
SECTION
  2
ENTITIES
  0
POINT
  8
1
 62
7
  6
DOT
 10
192.414458863705
 20
-7.499999999999979
 30
0
  0
LINE
  8
1
 62
7
 10
114.468698917673
 20
-32.00000000000001
 30
0
 11
114.468698917673
 21
-34.50000000000001
 31
0
  0
LINE
  8
1
 62
7
 10
114.468698917673
 20
-25.50000000000001
 30
0
 11
114.468698917673
 21
-28.00000000000001
 31
0
  0
LINE
  8
1
 62
7
 10
189.914458863705
 20
9.500052325107802
 30
0
 11
194.914458863705
 21
9.500052325107802
 31
0
  0
LINE
  8
1
 62
3
  6
DASHDOT
 10
-93.9244398788824
 20
52.44294079210603
 30
0
 11
-93.9244398788824
 21
59.55705920789401
 31
0
  0
LINE
  8
1
 62
3
  6
DASHDOT
 10
-90.36738067098841
 20
56.00000000000003
 30
0
 11
-97.48149908677641
 21
56.00000000000003
 31
0
  0
LINE
  8
1
 62
3
  6
DASHDOT
 10
-93.9244398788824
 20
-3.90261998901498
 30
0
 11
-93.9244398788824
 21
3.902619989015022
 31
0
  0
LINE
  8
1
 62
3
  6
DASHDOT
 10
-90.0218198898674
 20
2.131628207280301e-014
 30
0
 11
-97.82705986789739
 21
2.131628207280301e-014
 31
0
  0
LINE
  8
1
 62
7
 10
-99.9244398788824
 20
62
 30
0
 11
-87.9244398788824
 21
62
 31
0
  0
LINE
  8
1
 62
7
 10
-85.9244398788824
 20
60
 30
0
 11
-85.9244398788824
 21
39.91240408695023
 31
0
  0
LINE
  8
1
 62
7
 10
-101.9244398788824
 20
60
 30
0
 11
-101.9244398788824
 21
39.91240408695023
 31
0
  0
LINE
  8
1
 62
7
 10
-96.4244398788824
 20
9.500052325107802
 30
0
 11
-91.4244398788824
 21
9.500052325107802
 31
0
  0
LINE
  8
1
 62
7
 10
-96.4244398788824
 20
7.07106781186549
 30
0
 11
-96.4244398788824
 21
9.500052325107802
 31
0
  0
LINE
  8
1
 62
7
 10
-91.4244398788824
 20
7.07106781186549
 30
0
 11
-91.4244398788824
 21
9.500052325107802
 31
0
  0
LINE
  8
1
 62
7
 10
25.7
 20
42.5
 30
0
 11
25.7
 21
-42.50000000000001
 31
0
  0
LINE
  8
1
 62
7
 10
24.2566243270259
 20
45.00000000000003
 30
0
 11
24.2566243270259
 21
-45.00000000000001
 31
0
  0
LINE
  8
1
 62
3
 10
33.1
 20
-31.30000000000001
 30
0
 11
40.10000000000001
 21
-31.30000000000001
 31
0
  0
LINE
  8
1
 62
3
 10
33.1
 20
-28.70000000000001
 30
0
 11
40.10000000000001
 21
-28.70000000000001
 31
0
  0
LINE
  8
1
 62
7
 10
0
 20
15
 30
0
 11
0
 21
-15.00000000000001
 31
0
  0
LINE
  8
1
 62
7
 10
14.69999999999999
 20
-42.34999999999999
 30
0
 11
13.78253411274031
 21
-42.34999999999999
 31
0
  0
LINE
  8
1
 62
7
 10
14.69999999999999
 20
43.56256544137983
 30
0
 11
14.69999999999999
 21
-45.00000000000001
 31
0
  0
LINE
  8
1
 62
3
  6
DASHDOT
 10
0
 20
0
 30
0
 11
-3.305946575605105
 21
0
 31
0
  0
LINE
  8
1
 62
3
  6
DASHDOT
 10
31.1
 20
0
 30
0
 11
34.3985294245209
 21
0
 31
0
  0
LINE
  8
1
 62
7
 10
13.78253411274031
 20
42.5
 30
0
 11
9
 21
42.5
 31
0
  0
LINE
  8
1
 62
7
 10
13.78253411274031
 20
42.5
 30
0
 11
13.78253411274031
 21
42.35000000000001
 31
0
  0
LINE
  8
1
 62
7
 10
13.78253411274031
 20
42.35000000000001
 30
0
 11
14.69999999999999
 21
42.35000000000001
 31
0
  0
LINE
  8
1
 62
7
 10
13.78253411274031
 20
-42.34999999999999
 30
0
 11
13.78253411274031
 21
-42.49999999999999
 31
0
  0
LINE
  8
1
 62
7
 10
9.000000000000002
 20
-42.5
 30
0
 11
13.78253411274031
 21
-42.49999999999999
 31
0
  0
LINE
  8
1
 62
7
 10
3
 20
-35.00000000000001
 30
0
 11
1
 21
-35.00000000000001
 31
0
  0
LINE
  8
1
 62
7
 10
1
 20
62
 30
0
 11
3
 21
62
 31
0
  0
LINE
  8
1
 62
7
 10
25.7
 20
-42.50000000000001
 30
0
 11
26.7
 21
-42.50000000000001
 31
0
  0
LINE
  8
1
 62
7
 10
14.69999999999999
 20
-45.00000000000001
 30
0
 11
24.2566243270259
 21
-45.00000000000001
 31
0
  0
LINE
  8
1
 62
7
 10
26.7
 20
42.5
 30
0
 11
26.7
 21
-42.50000000000001
 31
0
  0
LINE
  8
1
 62
7
 10
24.2566243270259
 20
45.00000000000003
 30
0
 11
14.69999999999999
 21
45.00000000000003
 31
0
  0
LINE
  8
1
 62
7
 10
25.7
 20
42.5
 30
0
 11
24.2566243270259
 21
45.00000000000003
 31
0
  0
LINE
  8
1
 62
7
 10
26.7
 20
42.5
 30
0
 11
25.7
 21
42.5
 31
0
  0
LINE
  8
1
 62
7
 10
14.69999999999999
 20
45.00000000000003
 30
0
 11
14.69999999999999
 21
42.64999999999999
 31
0
  0
LINE
  8
1
 62
7
 10
39.40000000000001
 20
-28.00000000000001
 30
0
 11
33.1
 21
-28.00000000000001
 31
0
  0
LINE
  8
1
 62
3
  6
DASHDOT
 10
27.35
 20
-30.00000000000001
 30
0
 11
41.60071442151291
 21
-30.00000000000001
 31
0
  0
LINE
  8
1
 62
7
 10
31.1
 20
-34.50000000000001
 30
0
 11
33.10000000000001
 21
-34.50000000000001
 31
0
  0
LINE
  8
1
 62
7
 10
31.1
 20
-25.50000000000001
 30
0
 11
33.10000000000001
 21
-25.50000000000001
 31
0
  0
LINE
  8
1
 62
7
 10
39.40000000000001
 20
-32.00000000000001
 30
0
 11
39.40000000000001
 21
-28.00000000000001
 31
0
  0
LINE
  8
1
 62
7
 10
40.10000000000001
 20
-28.70000000000001
 30
0
 11
39.40000000000001
 21
-28.00000000000001
 31
0
  0
LINE
  8
1
 62
7
 10
40.10000000000001
 20
-31.30000000000001
 30
0
 11
40.10000000000001
 21
-28.70000000000001
 31
0
  0
LINE
  8
1
 62
7
 10
39.40000000000001
 20
-32.00000000000001
 30
0
 11
40.10000000000001
 21
-31.30000000000001
 31
0
  0
LINE
  8
1
 62
7
 10
39.40000000000001
 20
-32.00000000000001
 30
0
 11
33.1
 21
-32.00000000000001
 31
0
  0
LINE
  8
1
 62
7
 10
30.6
 20
-42
 30
0
 11
31.1
 21
-42
 31
0
  0
LINE
  8
1
 62
7
 10
32.00000000000001
 20
33.90000000000001
 30
0
 11
32.50000000000001
 21
34.40000000000001
 31
0
  0
LINE
  8
1
 62
7
 10
32.50000000000001
 20
40.59999999999999
 30
0
 11
32.00000000000001
 21
41.09999999999999
 31
0
  0
LINE
  8
1
 62
7
 10
31.1
 20
41.09999999999999
 30
0
 11
31.1
 21
33.90000000000001
 31
0
  0
LINE
  8
1
 62
7
 10
30.6
 20
33.90000000000001
 30
0
 11
32.00000000000001
 21
33.90000000000001
 31
0
  0
LINE
  8
1
 62
7
 10
32.50000000000001
 20
40.59999999999999
 30
0
 11
32.50000000000001
 21
34.40000000000001
 31
0
  0
LINE
  8
1
 62
7
 10
30.6
 20
41.09999999999999
 30
0
 11
32.00000000000001
 21
41.09999999999999
 31
0
  0
LINE
  8
1
 62
7
 10
30.1
 20
31.86602540378443
 30
0
 11
30.6
 21
30
 31
0
  0
LINE
  8
1
 62
7
 10
30.6
 20
31.93185165257813
 30
0
 11
31.1
 21
30.06582624879368
 31
0
  0
LINE
  8
1
 62
7
 10
30.6
 20
42
 30
0
 11
30.6
 21
31.93185165257813
 31
0
  0
LINE
  8
1
 62
7
 10
30.1
 20
42
 30
0
 11
30.6
 21
42
 31
0
  0
LINE
  8
1
 62
7
 10
10.24775536069779
 20
74.379591790227
 30
0
 11
10.24775536069779
 21
71.0763447126523
 31
0
  0
LINE
  8
1
 62
7
 10
10.6769903542648
 20
74.379591790227
 30
0
 11
10.6769903542648
 21
71.0763447126523
 31
0
  0
LINE
  8
1
 62
7
 10
11.26903862125391
 20
74.379591790227
 30
0
 11
11.26903862125391
 21
71.0763447126523
 31
0
  0
LINE
  8
1
 62
7
 10
11.75747844151979
 20
74.379591790227
 30
0
 11
11.75747844151979
 21
71.0763447126523
 31
0
  0
LINE
  8
1
 62
7
 10
12.25
 20
71.0763447126523
 30
0
 11
12.25
 21
42.5
 31
0
  0
LINE
  8
1
 62
7
 10
9.75
 20
71.0763447126523
 30
0
 11
9.75
 21
42.5
 31
0
  0
LINE
  8
1
 62
7
 10
30.1
 20
-43.00000000000001
 30
0
 11
26.9
 21
-43.00000000000001
 31
0
  0
LINE
  8
1
 62
7
 10
30.6
 20
30
 30
0
 11
30.6
 21
-42
 31
0
  0
LINE
  8
1
 62
7
 10
26.9
 20
43
 30
0
 11
30.1
 21
43
 31
0
  0
LINE
  8
1
 62
7
 10
26.9
 20
43
 30
0
 11
26.9
 21
-43.00000000000001
 31
0
  0
LINE
  8
1
 62
3
  6
DASHDOT
 10
81.36869891767299
 20
0
 30
0
 11
78.06275234206788
 21
0
 31
0
  0
LINE
  8
1
 62
3
  6
DASHDOT
 10
112.468698917673
 20
0
 30
0
 11
115.7672283421938
 21
0
 31
0
  0
LINE
  8
1
 62
7
 10
84.36869891767299
 20
-14.3
 30
0
 11
82.76869891767299
 21
-14.3
 31
0
  0
LINE
  8
1
 62
7
 10
211.2317616111105
 20
70.22712991472272
 30
0
 11
204.0613158933184
 21
43.4666621830081
 31
0
  0
LINE
  8
1
 62
3
  6
DASHDOT
 10
192.414458863705
 20
59.55705920789401
 30
0
 11
192.414458863705
 21
52.44294079210603
 31
0
  0
LINE
  8
1
 62
3
  6
DASHDOT
 10
195.971518071599
 20
56.00000000000003
 30
0
 11
188.857399655811
 21
56.00000000000003
 31
0
  0
LINE
  8
1
 62
3
  6
DASHDOT
 10
192.414458863705
 20
-22.01927395321336
 30
0
 11
192.414458863705
 21
-36.14114664858776
 31
0
  0
LINE
  8
1
 62
3
  6
DASHDOT
 10
161.6705570293574
 20
17.75
 30
0
 11
172.9288872785551
 21
11.25000000000001
 31
0
  0
LINE
  8
1
 62
3
  6
DASHDOT
 10
192.414458863705
 20
3.902619989015022
 30
0
 11
192.414458863705
 21
-3.90261998901498
 31
0
  0
LINE
  8
1
 62
3
  6
DASHDOT
 10
196.31707885272
 20
2.131628207280301e-014
 30
0
 11
188.51183887469
 21
2.131628207280301e-014
 31
0
  0
LINE
  8
1
 62
7
 10
96.06869891767299
 20
-17.50000000000001
 30
0
 11
96.06869891767299
 21
-22.99999999999999
 31
0
  0
LINE
  8
1
 62
7
 10
104.068698917673
 20
-42.84999999999999
 30
0
 11
104.068698917673
 21
-22.99999999999998
 31
0
  0
LINE
  8
1
 62
7
 10
96.06869891767299
 20
-42.84999999999999
 30
0
 11
96.06869891767299
 21
-45.00000000000001
 31
0
  0
LINE
  8
1
 62
7
 10
107.068698917673
 20
-20
 30
0
 11
107.068698917673
 21
-23.00000000000001
 31
0
  0
LINE
  8
1
 62
7
 10
107.068698917673
 20
-20
 30
0
 11
107.868698917673
 21
-20
 31
0
  0
LINE
  8
1
 62
7
 10
104.068698917673
 20
-42.84999999999999
 30
0
 11
96.06869891767299
 21
-42.84999999999999
 31
0
  0
LINE
  8
1
 62
7
 10
104.068698917673
 20
-22.99999999999998
 30
0
 11
96.06869891767299
 21
-22.99999999999999
 31
0
  0
LINE
  8
1
 62
7
 10
104.068698917673
 20
42.85000000000001
 30
0
 11
104.068698917673
 21
23
 31
0
  0
LINE
  8
1
 62
7
 10
96.06869891767299
 20
42.85000000000001
 30
0
 11
104.068698917673
 21
42.85000000000001
 31
0
  0
LINE
  8
1
 62
7
 10
96.06869891767299
 20
23
 30
0
 11
104.068698917673
 21
23
 31
0
  0
LINE
  8
1
 62
7
 10
107.868698917673
 20
20
 30
0
 11
107.068698917673
 21
20
 31
0
  0
LINE
  8
1
 62
7
 10
93.86869891767299
 20
-17.50000000000001
 30
0
 11
96.06869891767299
 21
-17.50000000000001
 31
0
  0
LINE
  8
1
 62
7
 10
95.16869891767294
 20
-24.74999999999999
 30
0
 11
93.36869891767299
 21
-24.75000000000002
 31
0
  0
LINE
  8
1
 62
7
 10
93.36869891767299
 20
-21.45836477965032
 30
0
 11
90.14369891767299
 21
-21.45836477965034
 31
0
  0
LINE
  8
1
 62
7
 10
84.36869891767299
 20
-21.45836477965032
 30
0
 11
87.59369891767298
 21
-21.45836477965034
 31
0
  0
LINE
  8
1
 62
7
 10
84.36869891767299
 20
-17.0416352203497
 30
0
 11
87.59369891767298
 21
-17.04163522034969
 31
0
  0
LINE
  8
1
 62
7
 10
93.36869891767299
 20
-17.0416352203497
 30
0
 11
90.14369891767299
 21
-17.04163522034969
 31
0
  0
LINE
  8
1
 62
7
 10
92.46869891767298
 20
-21.8
 30
0
 11
92.46869891767298
 21
-16.70000000000002
 31
0
  0
LINE
  8
1
 62
7
 10
85.26869891767296
 20
-21.8
 30
0
 11
85.26869891767296
 21
-16.70000000000002
 31
0
  0
LINE
  8
1
 62
7
 10
93.36869891767299
 20
-20.75000000000001
 30
0
 11
95.16869891767294
 21
-20.75000000000001
 31
0
  0
LINE
  8
1
 62
7
 10
84.36869891767299
 20
-16.91140716424984
 30
0
 11
82.76869891767299
 21
-16.91140716424984
 31
0
  0
LINE
  8
1
 62
7
 10
82.76869891767299
 20
-14.3
 30
0
 11
82.76869891767299
 21
-16.91140716424984
 31
0
  0
LINE
  8
1
 62
7
 10
81.36869891767299
 20
-15.00000000000001
 30
0
 11
82.76869891767299
 21
-15.00000000000001
 31
0
  0
LINE
  8
1
 62
7
 10
102.868698917673
 20
23.5
 30
0
 11
102.868698917673
 21
42.35000000000001
 31
0
  0
LINE
  8
1
 62
7
 10
82.36869891767299
 20
-35.00000000000001
 30
0
 11
82.36869891767299
 21
-19.71000000000001
 31
0
  0
LINE
  8
1
 62
7
 10
82.76869891767299
 20
15
 30
0
 11
81.36869891767299
 21
15
 31
0
  0
LINE
  8
1
 62
7
 10
82.76869891767299
 20
16.91140716424984
 30
0
 11
82.76869891767299
 21
14.3
 31
0
  0
LINE
  8
1
 62
7
 10
82.76869891767299
 20
16.91140716424984
 30
0
 11
84.36869891767299
 21
16.91140716424984
 31
0
  0
LINE
  8
1
 62
7
 10
82.76869891767299
 20
14.3
 30
0
 11
84.36869891767299
 21
14.3
 31
0
  0
LINE
  8
1
 62
7
 10
95.16869891767294
 20
20.75
 30
0
 11
93.36869891767299
 21
20.75
 31
0
  0
LINE
  8
1
 62
7
 10
95.16869891767294
 20
24.75
 30
0
 11
95.16869891767294
 21
19.71000000000001
 31
0
  0
LINE
  8
1
 62
7
 10
85.26869891767296
 20
16.7
 30
0
 11
85.26869891767296
 21
21.8
 31
0
  0
LINE
  8
1
 62
7
 10
92.46869891767298
 20
16.7
 30
0
 11
92.46869891767298
 21
21.8
 31
0
  0
LINE
  8
1
 62
7
 10
90.14369891767299
 20
17.04163522034968
 30
0
 11
93.36869891767299
 21
17.04163522034969
 31
0
  0
LINE
  8
1
 62
7
 10
87.59369891767298
 20
17.04163522034968
 30
0
 11
84.36869891767299
 21
17.04163522034969
 31
0
  0
LINE
  8
1
 62
7
 10
87.59369891767298
 20
21.45836477965032
 30
0
 11
84.36869891767299
 21
21.45836477965031
 31
0
  0
LINE
  8
1
 62
7
 10
90.14369891767299
 20
21.45836477965032
 30
0
 11
93.36869891767299
 21
21.45836477965031
 31
0
  0
LINE
  8
1
 62
7
 10
82.36869891767299
 20
19.71000000000001
 30
0
 11
82.36869891767299
 21
62
 31
0
  0
LINE
  8
1
 62
7
 10
95.15123303041324
 20
42.5
 30
0
 11
90.36869891767299
 21
42.5
 31
0
  0
LINE
  8
1
 62
7
 10
95.15123303041324
 20
42.5
 30
0
 11
95.15123303041324
 21
42.35000000000001
 31
0
  0
LINE
  8
1
 62
7
 10
95.15123303041324
 20
42.35000000000001
 30
0
 11
102.868698917673
 21
42.35000000000001
 31
0
  0
LINE
  8
1
 62
7
 10
102.868698917673
 20
23.5
 30
0
 11
95.16869891767294
 21
23.5
 31
0
  0
LINE
  8
1
 62
7
 10
84.36869891767299
 20
62
 30
0
 11
84.36869891767299
 21
14.3
 31
0
  0
LINE
  8
1
 62
7
 10
102.868698917673
 20
-42.34999999999999
 30
0
 11
95.15123303041324
 21
-42.34999999999999
 31
0
  0
LINE
  8
1
 62
7
 10
95.15123303041324
 20
-42.34999999999999
 30
0
 11
95.15123303041324
 21
-42.49999999999999
 31
0
  0
LINE
  8
1
 62
7
 10
90.36869891767299
 20
-42.49999999999999
 30
0
 11
95.15123303041324
 21
-42.49999999999999
 31
0
  0
LINE
  8
1
 62
7
 10
102.868698917673
 20
-42.34999999999999
 30
0
 11
102.868698917673
 21
-23.49999999999999
 31
0
  0
LINE
  8
1
 62
7
 10
95.16869891767294
 20
-23.49999999999999
 30
0
 11
102.868698917673
 21
-23.49999999999999
 31
0
  0
LINE
  8
1
 62
7
 10
84.35123303041326
 20
-35.00000000000001
 30
0
 11
82.36869891767299
 21
-35.00000000000001
 31
0
  0
LINE
  8
1
 62
7
 10
82.36869891767299
 20
62
 30
0
 11
84.36869891767299
 21
62
 31
0
  0
LINE
  8
1
 62
7
 10
82.36869891767299
 20
-20.75
 30
0
 11
84.36869891767299
 21
-20.75
 31
0
  0
LINE
  8
1
 62
3
  6
DASHDOT
 10
80.68291104202802
 20
56.00000000000003
 30
0
 11
85.63211453704224
 21
56.00000000000003
 31
0
  0
LINE
  8
1
 62
7
 10
82.36869891767299
 20
58.75000000000001
 30
0
 11
84.36869891767299
 21
58.75000000000001
 31
0
  0
LINE
  8
1
 62
7
 10
82.36869891767299
 20
53.37441952545203
 30
0
 11
84.36869891767299
 21
53.37441952545203
 31
0
  0
LINE
  8
1
 62
7
 10
209.614992383269
 20
70.6603419236703
 30
0
 11
210.9192412782865
 21
75.48725038757161
 31
0
  0
LINE
  8
1
 62
7
 10
210.1111079445419
 20
70.52740815967482
 30
0
 11
211.4336472486522
 21
75.34941572323041
 31
0
  0
LINE
  8
1
 62
7
 10
210.7120650600261
 20
70.36638218589502
 30
0
 11
212.0163139550435
 21
75.19329064979632
 31
0
  0
LINE
  8
1
 62
7
 10
214.1324723949597
 20
74.6262677047645
 30
0
 11
212.8485308389519
 21
69.79391790577512
 31
0
  0
LINE
  8
1
 62
7
 10
213.618066424594
 20
74.76410236910573
 30
0
 11
212.3524152776791
 21
69.92685166977071
 31
0
  0
LINE
  8
1
 62
7
 10
213.0353997182026
 20
74.92022744253981
 30
0
 11
211.7514581621949
 21
70.08787764355043
 31
0
  0
LINE
  8
1
 62
7
 10
186.414458863705
 20
62
 30
0
 11
198.414458863705
 21
62
 31
0
  0
LINE
  8
1
 62
7
 10
81.36869891767299
 20
-15.00000000000001
 30
0
 11
81.36869891767299
 21
15
 31
0
  0
LINE
  8
1
 62
7
 10
107.868698917673
 20
-7.500000000000007
 30
0
 11
81.36869891767299
 21
-7.500000000000007
 31
0
  0
LINE
  8
1
 62
7
 10
93.86869891767299
 20
-17.50000000000001
 30
0
 11
96.06869891767299
 21
-17.50000000000001
 31
0
  0
LINE
  8
1
 62
7
 10
107.068698917673
 20
-42.50000000000001
 30
0
 11
108.068698917673
 21
-42.50000000000001
 31
0
  0
LINE
  8
1
 62
7
 10
105.6253232446989
 20
-45.00000000000001
 30
0
 11
107.068698917673
 21
-42.50000000000001
 31
0
  0
LINE
  8
1
 62
7
 10
96.06869891767299
 20
-45.00000000000001
 30
0
 11
105.6253232446989
 21
-45.00000000000001
 31
0
  0
LINE
  8
1
 62
7
 10
81.36869891767299
 20
-15.00000000000001
 30
0
 11
81.36869891767299
 21
-14.70000000000002
 31
0
  0
LINE
  8
1
 62
7
 10
108.068698917673
 20
-21.668
 30
0
 11
108.068698917673
 21
-42.50000000000001
 31
0
  0
LINE
  8
1
 62
7
 10
107.068698917673
 20
-23.00000000000001
 30
0
 11
108.068698917673
 21
-23.00000000000001
 31
0
  0
LINE
  8
1
 62
7
 10
107.068698917673
 20
23
 30
0
 11
107.068698917673
 21
20
 31
0
  0
LINE
  8
1
 62
7
 10
108.068698917673
 20
23
 30
0
 11
107.068698917673
 21
23
 31
0
  0
LINE
  8
1
 62
7
 10
108.068698917673
 20
42.5
 30
0
 11
108.068698917673
 21
21.668
 31
0
  0
LINE
  8
1
 62
7
 10
93.86869891767299
 20
17.5
 30
0
 11
93.36869891767299
 21
17
 31
0
  0
LINE
  8
1
 62
7
 10
105.6253232446989
 20
45.00000000000003
 30
0
 11
96.06869891767299
 21
45.00000000000003
 31
0
  0
LINE
  8
1
 62
7
 10
107.068698917673
 20
42.5
 30
0
 11
105.6253232446989
 21
45.00000000000003
 31
0
  0
LINE
  8
1
 62
7
 10
108.068698917673
 20
42.5
 30
0
 11
107.068698917673
 21
42.5
 31
0
  0
LINE
  8
1
 62
7
 10
96.06869891767299
 20
45.00000000000003
 30
0
 11
96.06869891767299
 21
42.85000000000001
 31
0
  0
LINE
  8
1
 62
7
 10
96.06869891767299
 20
17.5
 30
0
 11
93.86869891767299
 21
17.5
 31
0
  0
LINE
  8
1
 62
7
 10
81.36869891767299
 20
7.5
 30
0
 11
107.868698917673
 21
7.5
 31
0
  0
LINE
  8
1
 62
7
 10
81.36869891767299
 20
9.5
 30
0
 11
107.868698917673
 21
9.5
 31
0
  0
LINE
  8
1
 62
7
 10
111.968698917673
 20
-23.75
 30
0
 11
112.468698917673
 21
-23.75
 31
0
  0
LINE
  8
1
 62
7
 10
112.468698917673
 20
-32
 30
0
 11
112.468698917673
 21
-42
 31
0
  0
LINE
  8
1
 62
7
 10
111.968698917673
 20
-37.00000000000001
 30
0
 11
112.468698917673
 21
-37.00000000000001
 31
0
  0
LINE
  8
1
 62
7
 10
111.968698917673
 20
-42
 30
0
 11
111.968698917673
 21
30
 31
0
  0
LINE
  8
1
 62
7
 10
111.468698917673
 20
-34.25000000000001
 30
0
 11
111.468698917673
 21
-43.00000000000001
 31
0
  0
LINE
  8
1
 62
3
  6
DASHDOT
 10
108.268698917673
 20
-30.00000000000001
 30
0
 11
122.9694133391859
 21
-30.00000000000001
 31
0
  0
LINE
  8
1
 62
7
 10
112.468698917673
 20
-34.50000000000001
 30
0
 11
114.468698917673
 21
-34.50000000000001
 31
0
  0
LINE
  8
1
 62
7
 10
112.468698917673
 20
-25.50000000000001
 30
0
 11
114.468698917673
 21
-25.50000000000001
 31
0
  0
LINE
  8
1
 62
7
 10
108.268698917673
 20
-34.25000000000001
 30
0
 11
111.468698917673
 21
-34.25000000000001
 31
0
  0
LINE
  8
1
 62
7
 10
108.268698917673
 20
-25.75000000000001
 30
0
 11
111.968698917673
 21
-25.75000000000001
 31
0
  0
LINE
  8
1
 62
7
 10
111.968698917673
 20
-42
 30
0
 11
112.468698917673
 21
-42
 31
0
  0
LINE
  8
1
 62
7
 10
113.368698917673
 20
33.90000000000001
 30
0
 11
113.868698917673
 21
34.40000000000001
 31
0
  0
LINE
  8
1
 62
7
 10
113.868698917673
 20
40.59999999999999
 30
0
 11
113.368698917673
 21
41.09999999999999
 31
0
  0
LINE
  8
1
 62
7
 10
112.468698917673
 20
41.09999999999999
 30
0
 11
112.468698917673
 21
33.90000000000001
 31
0
  0
LINE
  8
1
 62
7
 10
111.968698917673
 20
33.90000000000001
 30
0
 11
113.368698917673
 21
33.90000000000001
 31
0
  0
LINE
  8
1
 62
7
 10
113.868698917673
 20
40.59999999999999
 30
0
 11
113.868698917673
 21
34.40000000000001
 31
0
  0
LINE
  8
1
 62
7
 10
111.968698917673
 20
41.09999999999999
 30
0
 11
113.368698917673
 21
41.09999999999999
 31
0
  0
LINE
  8
1
 62
7
 10
111.468698917673
 20
33
 30
0
 11
111.968698917673
 21
33
 31
0
  0
LINE
  8
1
 62
7
 10
111.468698917673
 20
31.86602540378443
 30
0
 11
111.968698917673
 21
30
 31
0
  0
LINE
  8
1
 62
7
 10
112.468698917673
 20
30.06582624879368
 30
0
 11
112.468698917673
 21
-28
 31
0
  0
LINE
  8
1
 62
7
 10
111.968698917673
 20
31.93185165257813
 30
0
 11
112.468698917673
 21
30.06582624879368
 31
0
  0
LINE
  8
1
 62
7
 10
111.968698917673
 20
42
 30
0
 11
111.968698917673
 21
31.93185165257813
 31
0
  0
LINE
  8
1
 62
7
 10
111.468698917673
 20
42
 30
0
 11
111.968698917673
 21
42
 31
0
  0
LINE
  8
1
 62
7
 10
91.61645427837078
 20
74.379591790227
 30
0
 11
91.61645427837078
 21
71.0763447126523
 31
0
  0
LINE
  8
1
 62
7
 10
92.04568927193782
 20
74.379591790227
 30
0
 11
92.04568927193782
 21
71.0763447126523
 31
0
  0
LINE
  8
1
 62
7
 10
92.63773753892687
 20
74.379591790227
 30
0
 11
92.63773753892687
 21
71.0763447126523
 31
0
  0
LINE
  8
1
 62
7
 10
93.12617735919284
 20
74.379591790227
 30
0
 11
93.12617735919284
 21
71.0763447126523
 31
0
  0
LINE
  8
1
 62
7
 10
93.61869891767299
 20
71.0763447126523
 30
0
 11
93.61869891767299
 21
42.5
 31
0
  0
LINE
  8
1
 62
7
 10
91.11869891767299
 20
71.0763447126523
 30
0
 11
91.11869891767299
 21
42.5
 31
0
  0
LINE
  8
1
 62
7
 10
111.468698917673
 20
-43.00000000000001
 30
0
 11
108.268698917673
 21
-43.00000000000001
 31
0
  0
LINE
  8
1
 62
7
 10
111.968698917673
 20
-22.50000000000001
 30
0
 11
108.268698917673
 21
-22.50000000000001
 31
0
  0
LINE
  8
1
 62
7
 10
108.268698917673
 20
22.5
 30
0
 11
111.968698917673
 21
22.5
 31
0
  0
LINE
  8
1
 62
7
 10
111.468698917673
 20
30
 30
0
 11
111.968698917673
 21
30
 31
0
  0
LINE
  8
1
 62
7
 10
108.268698917673
 20
43
 30
0
 11
111.468698917673
 21
43
 31
0
  0
LINE
  8
1
 62
7
 10
108.268698917673
 20
43
 30
0
 11
108.268698917673
 21
-43.00000000000001
 31
0
  0
LINE
  8
1
 62
7
 10
208.8169470453878
 20
70.87417752747902
 30
0
 11
213.6465761768331
 21
69.58008230196643
 31
0
  0
LINE
  8
1
 62
3
  6
DASHDOT
 10
211.9000304488548
 20
11.25000000000001
 30
0
 11
224.4573988037292
 21
18.50000000000001
 31
0
  0
LINE
  8
1
 62
7
 10
1
 20
15
 30
0
 11
0
 21
15
 31
0
  0
LINE
  8
1
 62
7
 10
1
 20
-15.00000000000001
 30
0
 11
0
 21
-15.00000000000001
 31
0
  0
LINE
  8
1
 62
3
  6
DASHDOT
 10
-0.02556989175209878
 20
56.00000000000003
 30
0
 11
4.172936756230712
 21
56.00000000000003
 31
0
  0
LINE
  8
1
 62
7
 10
206.458143024323
 20
42.75248454998619
 30
0
 11
213.6465761768331
 21
69.58008230196643
 31
0
  0
LINE
  8
1
 62
7
 10
201.6285138928777
 20
44.04657977549874
 30
0
 11
208.8169470453878
 21
70.87417752747902
 31
0
  0
LINE
  8
1
 62
7
 10
200.414458863705
 20
60
 30
0
 11
200.414458863705
 21
44.28317965096908
 31
0
  0
LINE
  8
1
 62
7
 10
184.414458863705
 20
60
 30
0
 11
184.414458863705
 21
44.28317965096908
 31
0
  0
LINE
  8
1
 62
7
 10
194.914458863705
 20
9.500052325107802
 30
0
 11
194.914458863705
 21
7.07106781186549
 31
0
  0
LINE
  8
1
 62
7
 10
189.914458863705
 20
9.500052325107802
 30
0
 11
189.914458863705
 21
7.07106781186549
 31
0
  0
LINE
  8
1
 62
7
 10
107.868698917673
 20
20
 30
0
 11
107.868698917673
 21
-20
 31
0
  0
LINE
  8
1
 62
7
 10
84.36869891767299
 20
-14.3
 30
0
 11
84.36869891767299
 21
-36.49999999999999
 31
0
  0
LINE
  8
1
 62
7
 10
93.36869891767299
 20
-23.50000000000002
 30
0
 11
84.36869891767299
 21
-23.50000000000002
 31
0
  0
LINE
  8
1
 62
7
 10
93.36869891767299
 20
-15.00000000000001
 30
0
 11
93.36869891767299
 21
-24.75000000000002
 31
0
  0
LINE
  8
1
 62
7
 10
93.36869891767299
 20
-17.00000000000001
 30
0
 11
93.86869891767299
 21
-17.50000000000001
 31
0
  0
LINE
  8
1
 62
7
 10
93.36869891767299
 20
-15.00000000000001
 30
0
 11
84.36869891767299
 21
-15.00000000000001
 31
0
  0
LINE
  8
1
 62
7
 10
95.16869891767294
 20
-24.74999999999999
 30
0
 11
95.16869891767294
 21
-19.71000000000001
 31
0
  0
LINE
  8
1
 62
7
 10
93.36869891767299
 20
24.75
 30
0
 11
93.36869891767299
 21
15
 31
0
  0
LINE
  8
1
 62
7
 10
93.36869891767299
 20
15
 30
0
 11
84.36869891767299
 21
15
 31
0
  0
LINE
  8
1
 62
7
 10
84.36869891767299
 20
23.5
 30
0
 11
93.36869891767299
 21
23.5
 31
0
  0
LINE
  8
1
 62
7
 10
82.36869891767299
 20
20.75
 30
0
 11
84.36869891767299
 21
20.75
 31
0
  0
LINE
  8
1
 62
7
 10
93.61869891767299
 20
71.0763447126523
 30
0
 11
91.11869891767299
 21
71.0763447126523
 31
0
  0
LINE
  8
1
 62
7
 10
96.06869891767299
 20
17.5
 30
0
 11
96.06869891767299
 21
23
 31
0
  0
LINE
  8
1
 62
7
 10
93.36869891767299
 20
24.75
 30
0
 11
95.16869891767294
 21
24.75
 31
0
  0
LINE
  8
1
 62
7
 10
111.468698917673
 20
30
 30
0
 11
111.468698917673
 21
43
 31
0
  0
LINE
  8
1
 62
7
 10
111.968698917673
 20
-33.50000000000001
 30
0
 11
111.468698917673
 21
-33.50000000000001
 31
0
  0
LINE
  8
1
 62
7
 10
111.468698917673
 20
-26.50000000000001
 30
0
 11
111.968698917673
 21
-26.50000000000001
 31
0
  0
LINE
  8
1
 62
7
 10
111.468698917673
 20
-26.25000000000001
 30
0
 11
111.068698917673
 21
-26.25000000000001
 31
0
  0
LINE
  8
1
 62
7
 10
111.068698917673
 20
-26.25000000000001
 30
0
 11
111.068698917673
 21
-33.75000000000001
 31
0
  0
LINE
  8
1
 62
7
 10
111.068698917673
 20
-33.75000000000001
 30
0
 11
111.468698917673
 21
-33.75000000000001
 31
0
  0
LINE
  8
1
 62
7
 10
111.468698917673
 20
-33.75000000000001
 30
0
 11
111.468698917673
 21
-26.25000000000001
 31
0
  0
LINE
  8
1
 62
7
 10
108.718698917673
 20
-28.00000000000001
 30
0
 11
108.718698917673
 21
-32.00000000000001
 31
0
  0
LINE
  8
1
 62
7
 10
111.968698917673
 20
-28.00000000000001
 30
0
 11
120.868698917673
 21
-28.00000000000001
 31
0
  0
LINE
  8
1
 62
7
 10
120.868698917673
 20
-28.00000000000001
 30
0
 11
121.468698917673
 21
-28.60000000000001
 31
0
  0
LINE
  8
1
 62
7
 10
121.468698917673
 20
-28.60000000000001
 30
0
 11
121.468698917673
 21
-31.40000000000001
 31
0
  0
LINE
  8
1
 62
7
 10
121.468698917673
 20
-31.40000000000001
 30
0
 11
120.868698917673
 21
-32.00000000000001
 31
0
  0
LINE
  8
1
 62
7
 10
120.868698917673
 20
-32.00000000000001
 30
0
 11
111.968698917673
 21
-32.00000000000001
 31
0
  0
LINE
  8
1
 62
7
 10
120.868698917673
 20
-28.00000000000001
 30
0
 11
120.868698917673
 21
-32.00000000000001
 31
0
  0
LINE
  8
1
 62
3
 10
121.468698917673
 20
-28.60000000000001
 30
0
 11
113.0079294022143
 21
-28.60000000000001
 31
0
  0
LINE
  8
1
 62
3
 10
113.0079294022143
 20
-28.60000000000001
 30
0
 11
111.968698917673
 21
-28.00000000000001
 31
0
  0
LINE
  8
1
 62
3
 10
121.468698917673
 20
-31.40000000000001
 30
0
 11
113.0079294022143
 21
-31.40000000000001
 31
0
  0
LINE
  8
1
 62
3
 10
113.0079294022143
 20
-31.40000000000001
 30
0
 11
111.968698917673
 21
-32.00000000000001
 31
0
  0
LINE
  8
1
 62
3
 10
113.0079294022143
 20
-28.00000000000001
 30
0
 11
113.0079294022143
 21
-32.00000000000001
 31
0
  0
LINE
  8
1
 62
7
 10
1
 20
62
 30
0
 11
1
 21
-35.00000000000001
 31
0
  0
LINE
  8
1
 62
7
 10
3
 20
62
 30
0
 11
3
 21
-36.49999999999999
 31
0
  0
LINE
  8
1
 62
7
 10
12.25
 20
71.0763447126523
 30
0
 11
9.75
 21
71.0763447126523
 31
0
  0
LINE
  8
1
 62
7
 10
25.7
 20
-42.50000000000001
 30
0
 11
24.2566243270259
 21
-45.00000000000001
 31
0
  0
LINE
  8
1
 62
7
 10
33.10000000000001
 20
-25.50000000000001
 30
0
 11
33.10000000000001
 21
-34.50000000000001
 31
0
  0
LINE
  8
1
 62
7
 10
31.1
 20
30.06582624879368
 30
0
 11
31.1
 21
-42
 31
0
  0
LINE
  8
1
 62
7
 10
30.1
 20
-43.00000000000001
 30
0
 11
30.1
 21
43
 31
0
  0
LINE
  8
1
 62
7
 10
30.1
 20
30
 30
0
 11
30.6
 21
30
 31
0
  0
LINE
  8
1
 62
7
 10
-105.0536588182908
 20
41.53481053043
 30
0
 11
-112.7417426262879
 21
70.22712991472272
 31
0
  0
LINE
  8
1
 62
7
 10
-112.4292222934639
 20
75.48725038757161
 30
0
 11
-111.1249733984464
 21
70.6603419236703
 31
0
  0
LINE
  8
1
 62
7
 10
-112.9436282638296
 20
75.34941572323041
 30
0
 11
-111.6210889597193
 21
70.52740815967482
 31
0
  0
LINE
  8
1
 62
7
 10
-113.5262949702209
 20
75.19329064979632
 30
0
 11
-112.2220460752035
 21
70.36638218589502
 31
0
  0
LINE
  8
1
 62
7
 10
-114.3585118541293
 20
69.79391790577512
 30
0
 11
-115.6424534101371
 21
74.6262677047645
 31
0
  0
LINE
  8
1
 62
7
 10
-113.8623962928565
 20
69.92685166977071
 30
0
 11
-115.1280474397714
 21
74.76410236910573
 31
0
  0
LINE
  8
1
 62
7
 10
-113.2614391773723
 20
70.08787764355043
 30
0
 11
-114.54538073338
 21
74.92022744253981
 31
0
  0
LINE
  8
1
 62
7
 10
-115.1565571920105
 20
69.58008230196643
 30
0
 11
-110.3269280605652
 21
70.87417752747902
 31
0
  0
LINE
  8
1
 62
7
 10
-115.1565571920105
 20
69.58008230196643
 30
0
 11
-107.4496479384518
 21
40.81750539836268
 31
0
  0
LINE
  8
1
 62
7
 10
-110.3269280605652
 20
70.87417752747902
 30
0
 11
-102.6200188070065
 21
42.11160062387523
 31
0
  0
ARC
  8
1
 62
7
 10
-93.9244398788824
 20
2.131628207280301e-014
 30
0
 40
45.00000000000001
 50
100.2403483211862
 51
101.8152614632796
  0
ARC
  8
1
 62
7
 10
-93.9244398788824
 20
2.131628207280301e-014
 30
0
 40
44.99999999999999
 50
108.1847385367203
 51
79.75965167881378
  0
ARC
  8
1
 62
7
 10
-93.9244398788824
 20
2.131628207280301e-014
 30
0
 40
43.00000000000004
 50
100.7221524155397
 51
79.27784758446032
  0
ARC
  8
1
 62
7
 10
-93.9244398788824
 20
2.131628207280301e-014
 30
0
 40
35.00000000000001
 50
111.8447574857633
 51
68.15524251423669
  0
ARC
  8
1
 62
7
 10
-87.9244398788824
 20
60
 30
0
 40
2
 50
0
 51
90
  0
ARC
  8
1
 62
7
 10
-99.9244398788824
 20
60
 30
0
 40
2
 50
90
 51
180
  0
ARC
  8
1
 62
7
 10
-93.9244398788824
 20
2.131628207280301e-014
 30
0
 40
7.499999999999994
 50
109.4712206344907
 51
70.52877936550928
  0
ARC
  8
1
 62
3
  6
DASHDOT
 10
192.414458863705
 20
2.131628207280301e-014
 30
0
 40
29.99999999999995
 50
16.25937749994871
 51
44.87295791844054
  0
ARC
  8
1
 62
3
  6
DASHDOT
 10
192.414458863705
 20
2.131628207280301e-014
 30
0
 40
30.00000000000009
 50
136.1328964059741
 51
164.0791393255669
  0
ARC
  8
1
 62
7
 10
186.414458863705
 20
60
 30
0
 40
2
 50
90
 51
180
  0
ARC
  8
1
 62
7
 10
198.414458863705
 20
60
 30
0
 40
2
 50
0
 51
90
  0
ARC
  8
1
 62
7
 10
192.414458863705
 20
2.131628207280301e-014
 30
0
 40
30.00000000000007
 50
169.3746472082035
 51
250.6253527917964
  0
ARC
  8
1
 62
7
 10
192.414458863705
 20
2.131628207280301e-014
 30
0
 40
29.99999999999994
 50
49.37464720820352
 51
130.6253527917967
  0
ARC
  8
1
 62
7
 10
192.414458863705
 20
2.131628207280301e-014
 30
0
 40
29.99999999999998
 50
290.6056188518252
 51
10.62535279179661
  0
ARC
  8
1
 62
7
 10
192.414458863705
 20
2.131628207280301e-014
 30
0
 40
32.99999999999998
 50
65.00000000000011
 51
115
  0
ARC
  8
1
 62
7
 10
202.134678883741
 20
20.84507910184296
 30
0
 40
9.99999999999997
 50
326.8845333183473
 51
65
  0
ARC
  8
1
 62
7
 10
192.414458863705
 20
2.131628207280301e-014
 30
0
 40
23.74999999999994
 50
19.63499375823044
 51
40.36500624176976
  0
ARC
  8
1
 62
7
 10
215.3269369198151
 20
-2.004582083196127
 30
0
 40
10.00000000000005
 50
354.9999999999999
 51
93.11546668165258
  0
ARC
  8
1
 62
7
 10
192.414458863705
 20
2.131628207280301e-014
 30
0
 40
42
 50
299.9999999999998
 51
359.9999999999999
  0
ARC
  8
1
 62
7
 10
192.414458863705
 20
2.131628207280301e-014
 30
0
 40
32.99999999999997
 50
304.9999999999998
 51
355
  0
ARC
  8
1
 62
7
 10
205.606716899779
 20
-18.84049701864679
 30
0
 40
10.00000000000001
 50
206.8845333183475
 51
304.9999999999994
  0
ARC
  8
1
 62
7
 10
192.414458863705
 20
2.131628207280301e-014
 30
0
 40
23.75000000000002
 50
259.6349937582301
 51
280.3650062417694
  0
ARC
  8
1
 62
7
 10
179.2222008276308
 20
-18.84049701864679
 30
0
 40
9.999999999999957
 50
235.0000000000004
 51
333.1154666816525
  0
ARC
  8
1
 62
7
 10
192.414458863705
 20
2.131628207280301e-014
 30
0
 40
42.00000000000009
 50
180
 51
239.9999999999999
  0
ARC
  8
1
 62
7
 10
192.414458863705
 20
2.131628207280301e-014
 30
0
 40
33.00000000000009
 50
185
 51
234.9999999999999
  0
ARC
  8
1
 62
7
 10
169.5019808075948
 20
-2.004582083196119
 30
0
 40
10.00000000000002
 50
86.88453331834744
 51
184.9999999999999
  0
ARC
  8
1
 62
7
 10
192.414458863705
 20
2.131628207280301e-014
 30
0
 40
23.75000000000007
 50
139.6349937582305
 51
160.3650062417696
  0
ARC
  8
1
 62
7
 10
192.414458863705
 20
2.131628207280301e-014
 30
0
 40
42
 50
59.99999999999999
 51
120
  0
ARC
  8
1
 62
7
 10
182.6942388436689
 20
20.84507910184298
 30
0
 40
9.999999999999995
 50
115.0000000000001
 51
213.1154666816522
  0
ARC
  8
1
 62
7
 10
192.414458863705
 20
2.131628207280301e-014
 30
0
 40
7.499999999999994
 50
109.4712206344907
 51
70.52877936550928
  0
ARC
  8
1
 62
7
 10
-77.9244398788824
 20
39.91240408695023
 30
0
 40
8
 50
180
 51
248.1552425142369
  0
ARC
  8
1
 62
7
 10
-109.9244398788824
 20
39.91240408695023
 30
0
 40
7.999999999999991
 50
291.8447574857632
 51
0
  0
ARC
  8
1
 62
7
 10
9.008732943629864
 20
36.50873294362986
 30
0
 40
5.991273420989112
 50
90.08351496497292
 51
180.0835149649729
  0
ARC
  8
1
 62
7
 10
9
 20
-36.49999999999999
 30
0
 40
6
 50
180
 51
270
  0
ARC
  8
1
 62
7
 10
90.36869891767299
 20
36.49999999999999
 30
0
 40
6.000000000000007
 50
90
 51
180
  0
ARC
  8
1
 62
7
 10
89.35996597404312
 20
28.49126705637013
 30
0
 40
4.991274696138275
 50
179.8997528490282
 51
269.8997528490282
  0
ARC
  8
1
 62
7
 10
89.35996597404312
 20
-28.49126705637012
 30
0
 40
4.991274696138271
 50
90.10024715097175
 51
180.1002471509718
  0
ARC
  8
1
 62
7
 10
90.368698917673
 20
-36.49999999999999
 30
0
 40
6.000000000000014
 50
180
 51
270
  0
ARC
  8
1
 62
7
 10
233.5506655434658
 20
23.75000000000001
 30
0
 40
10.50000000000003
 50
188.8596096617644
 51
231.1403903382372
  0
ARC
  8
1
 62
7
 10
214.414458863705
 20
0
 30
0
 40
20.00011321438862
 50
0
 51
51.14039033823685
  0
ARC
  8
1
 62
7
 10
203.414458863705
 20
19.05255888325767
 30
0
 40
20.00011321438857
 50
8.859609661762313
 51
59.99999999999925
  0
ARC
  8
1
 62
7
 10
181.414458863705
 20
19.05255888325767
 30
0
 40
20.00011321438876
 50
120.0000000000007
 51
171.1403903382377
  0
ARC
  8
1
 62
7
 10
151.2782521839442
 20
23.75000000000001
 30
0
 40
10.49999999999996
 50
308.8596096617628
 51
351.1403903382356
  0
ARC
  8
1
 62
7
 10
170.414458863705
 20
0
 30
0
 40
20.00011321438864
 50
128.8596096617631
 51
180
  0
ARC
  8
1
 62
7
 10
203.414458863705
 20
-19.05255888325763
 30
0
 40
20.00011321438864
 50
248.8596096617629
 51
299.9999999999999
  0
ARC
  8
1
 62
7
 10
192.4144588637049
 20
-47.49999999999997
 30
0
 40
10.5
 50
68.8596096617629
 51
111.1403903382355
  0
ARC
  8
1
 62
7
 10
181.4144588637049
 20
-19.05255888325762
 30
0
 40
20.00011321438873
 50
240.0000000000009
 51
291.1403903382378
  0
ARC
  8
1
 62
3
  6
DASHDOT
 10
192.414458863705
 20
2.131628207280301e-014
 30
0
 40
30.0000000000001
 50
256.132896405974
 51
284.0791393255669
  0
ARC
  8
1
 62
7
 10
112.1808266653741
 20
-30.19628583262717
 30
0
 40
4.100000000000065
 50
105.7387025673127
 51
147.6099967718341
  0
ARC
  8
1
 62
7
 10
112.1808266653741
 20
-29.80371416737279
 30
0
 40
4.100000000000115
 50
212.3900032281666
 51
254.2612974326875
  0
CIRCLE
  8
1
 62
7
 10
192.414458863705
 20
2.131628207280301e-014
 30
0
 40
22.5
  0
CIRCLE
  8
1
 62
7
 10
-93.9244398788824
 20
2.131628207280301e-014
 30
0
 40
20.75
  0
CIRCLE
  8
1
 62
7
 10
-93.9244398788824
 20
2.131628207280301e-014
 30
0
 40
15
  0
CIRCLE
  8
1
 62
7
 10
-93.9244398788824
 20
56.00000000000003
 30
0
 40
2.75
  0
CIRCLE
  8
1
 62
7
 10
192.414458863705
 20
2.131628207280301e-014
 30
0
 40
20
  0
CIRCLE
  8
1
 62
7
 10
88.86869891767299
 20
-19.25000000000001
 30
0
 40
2.549999999999997
  0
CIRCLE
  8
1
 62
7
 10
88.86869891767299
 20
19.25
 30
0
 40
2.549999999999997
  0
CIRCLE
  8
1
 62
7
 10
224.8904115056214
 20
-18.75
 30
0
 40
3.600000000000023
  0
CIRCLE
  8
1
 62
7
 10
159.9385062217885
 20
-18.74999999999996
 30
0
 40
3.600000000000023
  0
CIRCLE
  8
1
 62
7
 10
192.414458863705
 20
2.131628207280301e-014
 30
0
 40
43
  0
CIRCLE
  8
1
 62
7
 10
192.414458863705
 20
37.50000000000001
 30
0
 40
3.599999999999909
  0
CIRCLE
  8
1
 62
7
 10
218.3952209772381
 20
15.00000000000001
 30
0
 40
5.5
  0
CIRCLE
  8
1
 62
7
 10
218.3952209772381
 20
15.00000000000001
 30
0
 40
1.5
  0
CIRCLE
  8
1
 62
7
 10
218.3952209772381
 20
15.00000000000001
 30
0
 40
2
  0
CIRCLE
  8
1
 62
7
 10
192.4144588637049
 20
-29.99999999999998
 30
0
 40
2
  0
CIRCLE
  8
1
 62
3
 10
192.4144588637049
 20
-29.99999999999998
 30
0
 40
1.5
  0
CIRCLE
  8
1
 62
7
 10
192.4144588637049
 20
-29.99999999999998
 30
0
 40
1.5
  0
CIRCLE
  8
1
 62
7
 10
192.4144588637049
 20
-29.99999999999998
 30
0
 40
5.5
  0
CIRCLE
  8
1
 62
7
 10
166.4336967501718
 20
15.00000000000001
 30
0
 40
1.5
  0
CIRCLE
  8
1
 62
7
 10
166.4336967501718
 20
15.00000000000001
 30
0
 40
2
  0
CIRCLE
  8
1
 62
7
 10
166.4336967501718
 20
15.00000000000001
 30
0
 40
5.5
  0
CIRCLE
  8
1
 62
7
 10
192.414458863705
 20
56.00000000000003
 30
0
 40
2.75
  0
CIRCLE
  8
1
 62
7
 10
192.414458863705
 20
2.131628207280301e-014
 30
0
 40
45
  0
TEXT
  8
1
 62
7
 10
-123.9215932211909
 20
119.4670591226838
 30
0
 40
5
  1
TMC 1.2
 41
0.9
  7
SIMPLEX
  0
TEXT
  8
1
 62
7
 10
-123.9215932211908
 20
110.8752000823868
 30
0
 40
5
  1
DC1402
 41
0.9
  7
SIMPLEX
  0
ENDSEC
  0
EOF
