  0
SECTION
  2
HEADER
  9
$ACADVER
  1
AC1009
  9
$INSBASE
 10
0
 20
0
  9
$EXTMIN
 10
-211.9984284418453
 20
-71
  9
$EXTMAX
 10
365.390181829551
 20
152.0288827287991
  9
$LIMMIN
 10
-211.9984284418453
 20
-71
  9
$LIMMAX
 10
365.390181829551
 20
152.0288827287991
  9
$VIEWCTR
 10
10
 20
10
  9
$VIEWSIZE
 40
10
  9
$SNAPMODE
 70
0
  9
$SNAPUNIT
 10
1
 20
1
  9
$SNAPBASE
 10
0
 20
0
  9
$SNAPANG
 50
0
  9
$SNAPSTYLE
 70
0
  9
$SNAPISOPAIR
 70
0
  9
$GRIDMODE
 70
0
  9
$GRIDUNIT
 10
0
 20
0
  9
$ORTHOMODE
 70
0
  9
$REGENMODE
 70
1
  9
$FILLMODE
 70
1
  9
$QTEXTMODE
 70
0
  9
$DRAGMODE
 70
2
  9
$LTSCALE
 40
1
  9
$OSMODE
 70
0
  9
$ATTMODE
 70
1
  9
$TEXTSIZE
 40
3.5
  9
$TRACEWID
 40
0.5
  9
$TEXTSTYLE
  7
STANDARD
  9
$CLAYER
  8
0
  9
$CELTYPE
  6
BYLAYER
  9
$CECOLOR
 62
256
  9
$DIMSCALE
 40
1
  9
$DIMASZ
 40
0.18
  9
$DIMEXO
 40
0.0625
  9
$DIMDLI
 40
0.38
  9
$DIMRND
 40
0
  9
$DIMDLE
 40
0
  9
$DIMEXE
 40
0.18
  9
$DIMTP
 40
0
  9
$DIMTM
 40
0
  9
$DIMTXT
 40
0.18
  9
$DIMCEN
 40
0.09
  9
$DIMTSZ
 40
0
  9
$DIMTOL
 70
0
  9
$DIMLIM
 70
0
  9
$DIMTIH
 70
1
  9
$DIMTOH
 70
1
  9
$DIMSE1
 70
0
  9
$DIMSE2
 70
0
  9
$DIMTAD
 70
0
  9
$DIMZIN
 70
0
  9
$DIMBLK
  1

  9
$DIMASO
 70
1
  9
$DIMSHO
 70
1
  9
$DIMPOST
  1

  9
$DIMAPOST
  1

  9
$DIMALT
 70
0
  9
$DIMALTD
 70
2
  9
$DIMALTF
 40
25.4
  9
$DIMLFAC
 40
1
  9
$DIMTOFL
 70
0
  9
$DIMTVP
 40
0
  9
$DIMTIX
 70
0
  9
$DIMSOXD
 70
0
  9
$DIMSAH
 70
0
  9
$DIMBLK1
  1

  9
$DIMBLK2
  1

  9
$DIMSTYLE
  2
*UNNAMED
  9
$DIMCLRD
 70
0
  9
$DIMCLRE
 70
0
  9
$DIMCLRT
 70
0
  9
$DIMTFAC
 40
1
  9
$DIMGAP
 40
0.09
  9
$LUNITS
 70
2
  9
$LUPREC
 70
4
  9
$AXISMODE
 70
0
  9
$AXISUNIT
 10
0
 20
0
  9
$SKETCHINC
 40
0.1
  9
$FILLETRAD
 40
2
  9
$AUNITS
 70
0
  9
$AUPREC
 70
0
  9
$MENU
  1
ACAD
  9
$ELEVATION
 40
0
  9
$THICKNESS
 40
0
  9
$VIEWDIR
 10
0
 20
0
 30
1
  9
$LIMCHECK
 70
0
  9
$BLIPMODE
 70
1
  9
$CHAMFERA
 40
0
  9
$CHAMFERB
 40
0
  9
$FASTZOOM
 70
1
  9
$SKPOLY
 70
0
  9
$ANGBASE
 50
0
  9
$ANGDIR
 70
0
  9
$PDMODE
 70
0
  9
$PDSIZE
 40
0
  9
$PLINEWID
 40
0
  9
$COORDS
 70
2
  0
ENDSEC
  0
SECTION
  2
TABLES
  0
TABLE
  2
DIMSTYLE
 70
0
  0
ENDTAB
  0
TABLE
  2
LTYPE
 70
9
  0
LTYPE
  2
CONTINUOUS
 70
64
  3
Solid line
 72
65
 73
0
 40
0
  0
LTYPE
  2
BORDER
 70
64
  3
__ __ . __ __ .
 72
65
 73
6
 40
26.59026494670905
 49
7.597218556202584
 49
-3.798609278101292
 49
7.597218556202584
 49
-3.798609278101292
 49
0
 49
-3.798609278101292
  0
LTYPE
  2
CENTER
 70
64
  3
____ _ ____ _
 72
65
 73
4
 40
30.38887422481034
 49
18.99304639050646
 49
-3.798609278101292
 49
3.798609278101292
 49
-3.798609278101292
  0
LTYPE
  2
DASHDOT
 70
64
  3
__ . __ . __ .
 72
65
 73
4
 40
15.19443711240517
 49
7.597218556202584
 49
-3.798609278101292
 49
0
 49
-3.798609278101292
  0
LTYPE
  2
DASHED
 70
64
  3
__ __ __ __ __
 72
65
 73
2
 40
11.39582783430388
 49
7.597218556202584
 49
-3.798609278101292
  0
LTYPE
  2
DIVIDE
 70
64
  3
__ . . __ . . 
 72
65
 73
6
 40
18.99304639050646
 49
7.597218556202584
 49
-3.798609278101292
 49
0
 49
-3.798609278101292
 49
0
 49
-3.798609278101292
  0
LTYPE
  2
DOT
 70
64
  3
..............
 72
65
 73
4
 40
7.597218556202584
 49
0
 49
-3.798609278101292
 49
0
 49
-3.798609278101292
  0
LTYPE
  2
HIDDEN
 70
64
  3
_ _ _ _ _ _ _
 72
65
 73
2
 40
5.697913917151938
 49
3.798609278101292
 49
-1.899304639050646
  0
LTYPE
  2
PHANTOM
 70
64
  3
_____ _ _ _____ _ _ 
 72
65
 73
6
 40
37.98609278101292
 49
18.99304639050646
 49
-3.798609278101292
 49
3.798609278101292
 49
-3.798609278101292
 49
3.798609278101292
 49
-3.798609278101292
  0
ENDTAB
  0
TABLE
  2
LAYER
 70
3
  0
LAYER
  2
1
 70
0
 62
7
  6
CONTINUOUS
  0
LAYER
  2
0
 70
0
 62
7
  6
CONTINUOUS
  0
ENDTAB
  0
TABLE
  2
STYLE
 70
4
  0
STYLE
  2
STANDARD
 70
0
 40
0
 41
1
 50
0
 71
0
 42
3.5
  3
txt
  4

  0
STYLE
  2
SIMPLEX
 70
0
 40
0
 41
1
 50
0
 71
0
 42
3.5
  3
simplex
  4

  0
STYLE
  2
COMPLEX
 70
0
 40
0
 41
1
 50
0
 71
0
 42
3.5
  3
complex
  4

  0
STYLE
  2
ITALIC
 70
0
 40
0
 41
1
 50
0
 71
0
 42
3.5
  3
italic
  4

  0
ENDTAB
  0
TABLE
  2
VIEW
 70
0
  0
ENDTAB
  0
ENDSEC
  0
SECTION
  2
BLOCKS
  0
ENDSEC
  0
SECTION
  2
ENTITIES
  0
LINE
  8
1
 62
7
 10
114.6999999999999
 20
-21.69999999999993
 30
0
 11
114.6999999999999
 21
-60.47587613882921
 31
0
  0
LINE
  8
1
 62
7
 10
3
 20
84
 30
0
 11
3
 21
-60.47587613882923
 31
0
  0
LINE
  8
1
 62
7
 10
0
 20
22.5
 30
0
 11
0
 21
-22.49999999999989
 31
0
  0
LINE
  8
1
 62
7
 10
145.3999999999998
 20
67.50000000000001
 30
0
 11
145.3999999999998
 21
31.88700783102311
 31
0
  0
LINE
  8
1
 62
7
 10
114.6999999999999
 20
84
 30
0
 11
114.6999999999999
 21
21.70000000000005
 31
0
  0
LINE
  8
1
 62
7
 10
114.6999999999999
 20
34
 30
0
 11
126.6999999999999
 21
34
 31
0
  0
LINE
  8
1
 62
7
 10
126.6999999999999
 20
22.5
 30
0
 11
114.6999999999999
 21
22.5
 31
0
  0
LINE
  8
1
 62
7
 10
126.6999999999999
 20
35.5
 30
0
 11
126.6999999999999
 21
22.5
 31
0
  0
LINE
  8
1
 62
7
 10
151.2999999999999
 20
-44.49999999999999
 30
0
 11
164.9999999999999
 21
-44.49999999999999
 31
0
  0
LINE
  8
1
 62
3
 10
152.1392304845412
 20
-44.49999999999999
 30
0
 11
152.1392304845412
 21
-50.49999999999999
 31
0
  0
LINE
  8
1
 62
3
 10
152.1392304845412
 20
-49.89999999999999
 30
0
 11
151.2999999999999
 21
-50.38452994616205
 31
0
  0
LINE
  8
1
 62
3
 10
165.5999999999999
 20
-49.89999999999999
 30
0
 11
152.1392304845412
 21
-49.89999999999999
 31
0
  0
LINE
  8
1
 62
3
 10
152.1392304845412
 20
-45.09999999999999
 30
0
 11
151.2999999999999
 21
-44.61547005383793
 31
0
  0
LINE
  8
1
 62
3
 10
165.5999999999999
 20
-45.09999999999999
 30
0
 11
152.1392304845412
 21
-45.09999999999999
 31
0
  0
LINE
  8
1
 62
7
 10
164.9999999999999
 20
-44.49999999999999
 30
0
 11
164.9999999999999
 21
-50.49999999999999
 31
0
  0
LINE
  8
1
 62
7
 10
164.9999999999999
 20
-50.49999999999999
 30
0
 11
151.2999999999999
 21
-50.49999999999999
 31
0
  0
LINE
  8
1
 62
7
 10
165.5999999999999
 20
-49.89999999999999
 30
0
 11
164.9999999999999
 21
-50.49999999999999
 31
0
  0
LINE
  8
1
 62
7
 10
165.5999999999999
 20
-45.09999999999999
 30
0
 11
165.5999999999999
 21
-49.89999999999999
 31
0
  0
LINE
  8
1
 62
7
 10
164.9999999999999
 20
-44.49999999999999
 30
0
 11
165.5999999999999
 21
-45.09999999999999
 31
0
  0
LINE
  8
1
 62
7
 10
146.3999999999999
 20
-44.49999999999999
 30
0
 11
146.3999999999999
 21
-50.49999999999999
 31
0
  0
LINE
  8
1
 62
7
 10
150.5999999999999
 20
-52.74999999999999
 30
0
 11
150.5999999999999
 21
-42.24999999999999
 31
0
  0
LINE
  8
1
 62
7
 10
150.0999999999999
 20
-52.74999999999999
 30
0
 11
150.5999999999999
 21
-52.74999999999999
 31
0
  0
LINE
  8
1
 62
7
 10
150.0999999999999
 20
-42.24999999999999
 30
0
 11
150.0999999999999
 21
-52.74999999999999
 31
0
  0
LINE
  8
1
 62
7
 10
150.5999999999999
 20
-42.24999999999999
 30
0
 11
150.0999999999999
 21
-42.24999999999999
 31
0
  0
LINE
  8
1
 62
7
 10
150.5999999999999
 20
-42.49999999999999
 30
0
 11
151.2999999999999
 21
-42.49999999999999
 31
0
  0
LINE
  8
1
 62
7
 10
151.2999999999999
 20
-52.49999999999999
 30
0
 11
150.5999999999999
 21
-52.49999999999999
 31
0
  0
LINE
  8
1
 62
7
 10
114.6999999999999
 20
-22.49999999999988
 30
0
 11
126.6999999999999
 21
-22.49999999999988
 31
0
  0
LINE
  8
1
 62
7
 10
126.6999999999999
 20
-35.49999999999988
 30
0
 11
126.6999999999999
 21
-22.49999999999988
 31
0
  0
LINE
  8
1
 62
7
 10
145.3999999999998
 20
-67.49999999999989
 30
0
 11
145.3999999999998
 21
-31.8870078310231
 31
0
  0
LINE
  8
1
 62
7
 10
124.6999999999999
 20
93.51174946208454
 30
0
 11
124.6999999999999
 21
91.61594261184092
 31
0
  0
LINE
  8
1
 62
7
 10
124.1999999999999
 20
93.45511915936615
 30
0
 11
124.1999999999999
 21
91.61594261184092
 31
0
  0
LINE
  8
1
 62
7
 10
125.1999999999999
 20
91.61594261184092
 30
0
 11
125.1999999999999
 21
93.45511915936615
 31
0
  0
LINE
  8
1
 62
3
  6
DASHDOT
 10
-0.122637906940696
 20
78
 30
0
 11
4.483117488742806
 21
78
 31
0
  0
LINE
  8
1
 62
3
  6
DASHDOT
 10
294.3901818295511
 20
81.80442113192126
 30
0
 11
294.3901818295511
 21
74.19557886807877
 31
0
  0
LINE
  8
1
 62
3
  6
DASHDOT
 10
298.1946029614723
 20
78
 30
0
 11
290.5857606976298
 21
78
 31
0
  0
LINE
  8
1
 62
3
  6
DASHDOT
 10
294.3901818295511
 20
-39.36835275235138
 30
0
 11
294.3901818295511
 21
-56.63845377001417
 31
0
  0
LINE
  8
1
 62
3
  6
DASHDOT
 10
294.3901818295511
 20
8.22473887675476
 30
0
 11
294.3901818295511
 21
-8.224738876754749
 31
0
  0
LINE
  8
1
 62
3
  6
DASHDOT
 10
302.6149207063058
 20
3.552713678800501e-015
 30
0
 11
286.1654429527963
 21
3.552713678800501e-015
 31
0
  0
LINE
  8
1
 62
7
 10
290.8901818295511
 20
15.5
 30
0
 11
290.8901818295511
 21
12.00000000000001
 31
0
  0
LINE
  8
1
 62
7
 10
297.8901818295511
 20
15.5
 30
0
 11
297.8901818295511
 21
12.00000000000001
 31
0
  0
LINE
  8
1
 62
7
 10
290.8901818295511
 20
15.5
 30
0
 11
297.8901818295511
 21
15.5
 31
0
  0
LINE
  8
1
 62
7
 10
286.3901818295511
 20
70.54785609782908
 30
0
 11
286.3901818295511
 21
82
 31
0
  0
LINE
  8
1
 62
7
 10
302.3901818295511
 20
70.54785609782908
 30
0
 11
302.3901818295511
 21
82
 31
0
  0
LINE
  8
1
 62
3
  6
DASHDOT
 10
245.067592704046
 20
28.47641010873962
 30
0
 11
261.0482037838502
 21
19.25
 31
0
  0
LINE
  8
1
 62
3
  6
DASHDOT
 10
329.0691727233919
 20
20.02192472778358
 30
0
 11
343.590036317342
 21
28.40554923261652
 31
0
  0
LINE
  8
1
 62
7
 10
316.7879181197053
 20
92.85707039830993
 30
0
 11
321.6247802199592
 21
91.58996897988044
 31
0
  0
LINE
  8
1
 62
7
 10
321.6247802199592
 20
91.58996897988044
 30
0
 11
315.1697533810917
 21
67.89115852697171
 31
0
  0
LINE
  8
1
 62
7
 10
320.7935461214731
 20
95.76785702847835
 30
0
 11
319.7974418369965
 21
92.06867252962215
 31
0
  0
LINE
  8
1
 62
7
 10
321.3662522642512
 20
95.55309222493656
 30
0
 11
320.435458655517
 21
91.90153276028971
 31
0
  0
LINE
  8
1
 62
7
 10
321.9389584070293
 20
95.33832742139481
 30
0
 11
321.0910249180349
 21
91.72979560427956
 31
0
  0
LINE
  8
1
 62
7
 10
318.6170243243409
 20
92.38496444886977
 30
0
 11
319.6039649585937
 21
96.08660434040314
 31
0
  0
LINE
  8
1
 62
7
 10
317.9809156667942
 20
92.55922557190547
 30
0
 11
319.0006044882736
 21
96.18696563608623
 31
0
  0
LINE
  8
1
 62
7
 10
317.3273100515846
 20
92.73827996328595
 30
0
 11
318.3972440179535
 21
96.28732693176934
 31
0
  0
LINE
  8
1
 62
7
 10
288.3901818295511
 20
84
 30
0
 11
300.3901818295511
 21
84
 31
0
  0
LINE
  8
1
 62
7
 10
316.7879181197053
 20
92.85707039830993
 30
0
 11
310.3401242496463
 21
69.18525375248433
 31
0
  0
LINE
  8
1
 62
3
  6
DASHDOT
 10
45.5999999999999
 20
3.552713678800501e-015
 30
0
 11
40.5999999999999
 21
3.552713678800501e-015
 31
0
  0
LINE
  8
1
 62
3
  6
DASHDOT
 10
0
 20
0
 30
0
 11
-5
 21
0
 31
0
  0
LINE
  8
1
 62
7
 10
33.89999999999991
 20
68.00000000000001
 30
0
 11
38.80000000000001
 21
68.00000000000001
 31
0
  0
LINE
  8
1
 62
7
 10
38.80000000000001
 20
47.50000000000001
 30
0
 11
39.60000000000002
 21
47.50000000000001
 31
0
  0
LINE
  8
1
 62
7
 10
39.60000000000002
 20
47.50000000000001
 30
0
 11
39.60000000000002
 21
-66.53672573724259
 31
0
  0
LINE
  8
1
 62
7
 10
38.80000000000001
 20
-68
 30
0
 11
33.89999999999991
 21
-68
 31
0
  0
LINE
  8
1
 62
7
 10
33.89999999999991
 20
-68
 30
0
 11
33.89999999999991
 21
68.00000000000001
 31
0
  0
LINE
  8
1
 62
7
 10
42.60000000000002
 20
65.00000000000001
 30
0
 11
42.60000000000002
 21
56.00000000000001
 31
0
  0
LINE
  8
1
 62
7
 10
39.80000000000001
 20
55.50000000000001
 30
0
 11
42.10000000000002
 21
55.50000000000001
 31
0
  0
LINE
  8
1
 62
7
 10
39.80000000000001
 20
65.50000000000001
 30
0
 11
42.10000000000002
 21
65.50000000000001
 31
0
  0
LINE
  8
1
 62
7
 10
39.80000000000001
 20
66.50000000000001
 30
0
 11
39.80000000000001
 21
50.61729314364248
 31
0
  0
LINE
  8
1
 62
7
 10
38.80000000000001
 20
66.50000000000001
 30
0
 11
39.80000000000001
 21
66.50000000000001
 31
0
  0
LINE
  8
1
 62
7
 10
40.49999999999999
 20
65.50000000000001
 30
0
 11
40.49999999999999
 21
55.50000000000001
 31
0
  0
LINE
  8
1
 62
7
 10
42.10000000000002
 20
65.50000000000001
 30
0
 11
42.60000000000002
 21
65.00000000000001
 31
0
  0
LINE
  8
1
 62
7
 10
42.10000000000002
 20
55.50000000000001
 30
0
 11
42.60000000000002
 21
56.00000000000001
 31
0
  0
LINE
  8
1
 62
7
 10
38.80000000000001
 20
50.4856406460551
 30
0
 11
39.60000000000002
 21
47.50000000000001
 31
0
  0
LINE
  8
1
 62
7
 10
39.80000000000001
 20
50.61729314364248
 30
0
 11
40.60000000000002
 21
47.63165249758739
 31
0
  0
LINE
  8
1
 62
7
 10
39.60000000000002
 20
-66.53672573724259
 30
0
 11
40.60000000000002
 21
-66.53672573724259
 31
0
  0
LINE
  8
1
 62
3
  6
DASHDOT
 10
33.89999999999991
 20
-47.49999999999999
 30
0
 11
56.15910746940591
 21
-47.49999999999999
 31
0
  0
LINE
  8
1
 62
7
 10
38.80000000000001
 20
-68
 30
0
 11
38.80000000000001
 21
68.00000000000001
 31
0
  0
LINE
  8
1
 62
3
 10
53.90000000000001
 20
-49.49999999999999
 30
0
 11
43.5
 21
-49.49999999999999
 31
0
  0
LINE
  8
1
 62
7
 10
52.90000000000001
 20
-50.49999999999999
 30
0
 11
43.5
 21
-50.49999999999999
 31
0
  0
LINE
  8
1
 62
7
 10
52.90000000000001
 20
-50.49999999999999
 30
0
 11
53.90000000000001
 21
-49.49999999999999
 31
0
  0
LINE
  8
1
 62
7
 10
53.90000000000001
 20
-49.49999999999999
 30
0
 11
53.90000000000001
 21
-45.49999999999999
 31
0
  0
LINE
  8
1
 62
7
 10
53.90000000000001
 20
-45.49999999999999
 30
0
 11
52.90000000000001
 21
-44.49999999999999
 31
0
  0
LINE
  8
1
 62
7
 10
52.90000000000001
 20
-50.49999999999999
 30
0
 11
52.90000000000001
 21
-44.49999999999999
 31
0
  0
LINE
  8
1
 62
7
 10
40.60000000000002
 20
-66.53672573724259
 30
0
 11
40.60000000000002
 21
47.63165249758739
 31
0
  0
LINE
  8
1
 62
7
 10
40.60000000000002
 20
-40.99999999999999
 30
0
 11
43.5
 21
-40.99999999999999
 31
0
  0
LINE
  8
1
 62
7
 10
40.60000000000002
 20
-53.99999999999999
 30
0
 11
43.5
 21
-53.99999999999999
 31
0
  0
LINE
  8
1
 62
7
 10
1
 20
84
 30
0
 11
1
 21
-52.5
 31
0
  0
LINE
  8
1
 62
7
 10
0
 20
-22.49999999999989
 30
0
 11
1
 21
-22.49999999999989
 31
0
  0
LINE
  8
1
 62
7
 10
31.6999999999999
 20
-67.49999999999989
 30
0
 11
29.6792740578363
 21
-70.99999999999989
 31
0
  0
LINE
  8
1
 62
7
 10
33.6999999999999
 20
-67.49999999999989
 30
0
 11
31.6999999999999
 21
-67.49999999999989
 31
0
  0
LINE
  8
1
 62
7
 10
17.6999999999999
 20
-70.99999999999989
 30
0
 11
17.6999999999999
 21
71
 31
0
  0
LINE
  8
1
 62
7
 10
29.6792740578363
 20
-70.99999999999989
 30
0
 11
17.6999999999999
 21
-70.99999999999989
 31
0
  0
LINE
  8
1
 62
7
 10
17.6999999999999
 20
71
 30
0
 11
29.6792740578363
 21
71
 31
0
  0
LINE
  8
1
 62
7
 10
31.6999999999999
 20
67.5
 30
0
 11
33.6999999999999
 21
67.5
 31
0
  0
LINE
  8
1
 62
7
 10
29.6792740578363
 20
71
 30
0
 11
31.6999999999999
 21
67.5
 31
0
  0
LINE
  8
1
 62
7
 10
10
 20
-67.5
 30
0
 11
17.6999999999999
 21
-67.5
 31
0
  0
LINE
  8
1
 62
7
 10
1
 20
-52.5
 30
0
 11
3
 21
-52.5
 31
0
  0
LINE
  8
1
 62
7
 10
1
 20
84
 30
0
 11
3
 21
84
 31
0
  0
LINE
  8
1
 62
7
 10
10
 20
67.5
 30
0
 11
17.6999999999999
 21
67.5
 31
0
  0
LINE
  8
1
 62
7
 10
33.6999999999999
 20
-67.49999999999989
 30
0
 11
33.6999999999999
 21
67.5
 31
0
  0
LINE
  8
1
 62
7
 10
11.80000000000001
 20
91.61594261184092
 30
0
 11
11.80000000000001
 21
67.5
 31
0
  0
LINE
  8
1
 62
7
 10
11.80000000000001
 20
91.61594261184092
 30
0
 11
14.20000000000002
 21
91.61594261184092
 31
0
  0
LINE
  8
1
 62
7
 10
14.20000000000002
 20
91.61594261184092
 30
0
 11
14.20000000000002
 21
67.5
 31
0
  0
LINE
  8
1
 62
7
 10
13
 20
93.51174946208454
 30
0
 11
13
 21
91.61594261184092
 31
0
  0
LINE
  8
1
 62
7
 10
12.5
 20
93.45511915936615
 30
0
 11
12.5
 21
91.61594261184092
 31
0
  0
LINE
  8
1
 62
7
 10
13.5
 20
91.61594261184092
 30
0
 11
13.5
 21
93.45511915936615
 31
0
  0
LINE
  8
1
 62
3
 10
53.90000000000001
 20
-45.49999999999999
 30
0
 11
43.5
 21
-45.49999999999999
 31
0
  0
LINE
  8
1
 62
7
 10
31.6999999999999
 20
67.5
 30
0
 11
31.6999999999999
 21
-67.49999999999989
 31
0
  0
LINE
  8
1
 62
7
 10
1
 20
22.5
 30
0
 11
0
 21
22.5
 31
0
  0
LINE
  8
1
 62
7
 10
29.6792740578363
 20
-70.99999999999989
 30
0
 11
29.6792740578363
 21
71
 31
0
  0
LINE
  8
1
 62
7
 10
43.5
 20
-40.99999999999999
 30
0
 11
43.5
 21
-53.99999999999999
 31
0
  0
LINE
  8
1
 62
7
 10
43.5
 20
-44.49999999999999
 30
0
 11
52.90000000000001
 21
-44.49999999999999
 31
0
  0
LINE
  8
1
 62
7
 10
128.2999999999999
 20
-35.5
 30
0
 11
126.6999999999999
 21
-35.49999999999988
 31
0
  0
LINE
  8
1
 62
3
  6
DASHDOT
 10
157.2999999999998
 20
3.552713678800501e-015
 30
0
 11
152.2999999999998
 21
3.552713678800501e-015
 31
0
  0
LINE
  8
1
 62
3
  6
DASHDOT
 10
111.6999999999999
 20
3.552713678800501e-015
 30
0
 11
106.6999999999999
 21
0
 31
0
  0
LINE
  8
1
 62
7
 10
128.2999999999999
 20
35.5
 30
0
 11
126.6999999999999
 21
35.5
 31
0
  0
LINE
  8
1
 62
7
 10
143.3999999999998
 20
29
 30
0
 11
145.1999999999999
 21
29
 31
0
  0
LINE
  8
1
 62
7
 10
145.5999999999998
 20
68.00000000000001
 30
0
 11
145.5999999999998
 21
-68
 31
0
  0
LINE
  8
1
 62
7
 10
145.5999999999998
 20
68.00000000000001
 30
0
 11
150.4999999999999
 21
68.00000000000001
 31
0
  0
LINE
  8
1
 62
7
 10
150.4999999999999
 20
68.00000000000001
 30
0
 11
150.4999999999999
 21
47.50000000000001
 31
0
  0
LINE
  8
1
 62
7
 10
150.4999999999999
 20
47.50000000000001
 30
0
 11
151.2999999999999
 21
47.50000000000001
 31
0
  0
LINE
  8
1
 62
7
 10
145.5999999999998
 20
33
 30
0
 11
151.2999999999999
 21
33
 31
0
  0
LINE
  8
1
 62
7
 10
151.2999999999999
 20
-32.99999999999999
 30
0
 11
145.5999999999998
 21
-32.99999999999999
 31
0
  0
LINE
  8
1
 62
7
 10
151.2999999999999
 20
47.50000000000001
 30
0
 11
151.2999999999999
 21
-66.53672573724259
 31
0
  0
LINE
  8
1
 62
7
 10
150.4999999999999
 20
-68
 30
0
 11
145.5999999999998
 21
-68
 31
0
  0
LINE
  8
1
 62
7
 10
154.2999999999999
 20
65.00000000000001
 30
0
 11
154.2999999999999
 21
56.00000000000001
 31
0
  0
LINE
  8
1
 62
7
 10
151.4999999999999
 20
55.50000000000001
 30
0
 11
153.7999999999999
 21
55.50000000000001
 31
0
  0
LINE
  8
1
 62
7
 10
151.4999999999999
 20
65.50000000000001
 30
0
 11
153.7999999999999
 21
65.50000000000001
 31
0
  0
LINE
  8
1
 62
7
 10
150.4999999999999
 20
66.50000000000001
 30
0
 11
151.4999999999999
 21
66.50000000000001
 31
0
  0
LINE
  8
1
 62
7
 10
152.1999999999999
 20
65.50000000000001
 30
0
 11
152.1999999999999
 21
55.50000000000001
 31
0
  0
LINE
  8
1
 62
7
 10
153.7999999999999
 20
65.50000000000001
 30
0
 11
154.2999999999999
 21
65.00000000000001
 31
0
  0
LINE
  8
1
 62
7
 10
153.7999999999999
 20
55.50000000000001
 30
0
 11
154.2999999999999
 21
56.00000000000001
 31
0
  0
LINE
  8
1
 62
7
 10
150.5588585534485
 20
54.50000000000001
 30
0
 11
151.4999999999999
 21
54.50000000000001
 31
0
  0
LINE
  8
1
 62
7
 10
151.4999999999999
 20
66.50000000000001
 30
0
 11
151.4999999999999
 21
50.61729314364243
 31
0
  0
LINE
  8
1
 62
7
 10
150.4999999999999
 20
50.4856406460551
 30
0
 11
151.2999999999999
 21
47.50000000000001
 31
0
  0
LINE
  8
1
 62
7
 10
151.4999999999999
 20
50.61729314364243
 30
0
 11
152.2999999999999
 21
47.63165249758737
 31
0
  0
LINE
  8
1
 62
7
 10
151.2999999999999
 20
-66.53672573724259
 30
0
 11
152.2999999999999
 21
-66.53672573724259
 31
0
  0
LINE
  8
1
 62
3
  6
DASHDOT
 10
145.5999999999998
 20
-47.49999999999999
 30
0
 11
167.7591074694058
 21
-47.49999999999999
 31
0
  0
LINE
  8
1
 62
7
 10
151.2999999999998
 20
-38.49999999999999
 30
0
 11
152.2999999999998
 21
-38.49999999999999
 31
0
  0
LINE
  8
1
 62
7
 10
145.5999999999998
 20
-41.49999999999999
 30
0
 11
151.2999999999999
 21
-41.49999999999999
 31
0
  0
LINE
  8
1
 62
7
 10
145.5999999999998
 20
-53.49999999999999
 30
0
 11
150.4999999999999
 21
-53.49999999999999
 31
0
  0
LINE
  8
1
 62
7
 10
150.4999999999999
 20
-53.49999999999999
 30
0
 11
150.4999999999999
 21
-68
 31
0
  0
LINE
  8
1
 62
7
 10
152.2999999999999
 20
-50.49999999999999
 30
0
 11
152.2999999999999
 21
-66.53672573724259
 31
0
  0
LINE
  8
1
 62
7
 10
152.2999999999999
 20
-40.99999999999999
 30
0
 11
155.1999999999999
 21
-40.99999999999999
 31
0
  0
LINE
  8
1
 62
7
 10
152.2999999999999
 20
47.63165249758737
 30
0
 11
152.2999999999999
 21
-44.49999999999999
 31
0
  0
LINE
  8
1
 62
7
 10
155.1999999999999
 20
-40.99999999999999
 30
0
 11
155.1999999999999
 21
-44.49999999999999
 31
0
  0
LINE
  8
1
 62
7
 10
155.1999999999999
 20
-50.49999999999999
 30
0
 11
155.1999999999999
 21
-53.99999999999999
 31
0
  0
LINE
  8
1
 62
7
 10
152.2999999999999
 20
-53.99999999999999
 30
0
 11
155.1999999999999
 21
-53.99999999999999
 31
0
  0
LINE
  8
1
 62
7
 10
151.2999999999998
 20
-58.28122618943674
 30
0
 11
152.2999999999998
 21
-58.28122618943677
 31
0
  0
LINE
  8
1
 62
7
 10
112.6999999999999
 20
-52.49999999999999
 30
0
 11
112.6999999999999
 21
-28.24599999999988
 31
0
  0
LINE
  8
1
 62
7
 10
112.6999999999999
 20
84
 30
0
 11
112.6999999999999
 21
28.24599999999989
 31
0
  0
LINE
  8
1
 62
7
 10
111.6999999999999
 20
-22.49999999999989
 30
0
 11
113.4499999999999
 21
-22.49999999999988
 31
0
  0
LINE
  8
1
 62
7
 10
113.4499999999999
 20
-21.69999999999993
 30
0
 11
113.4499999999999
 21
-25.49999999999988
 31
0
  0
LINE
  8
1
 62
7
 10
114.6999999999999
 20
-21.69999999999993
 30
0
 11
113.4499999999999
 21
-21.69999999999993
 31
0
  0
LINE
  8
1
 62
7
 10
129.3999999999998
 20
-25.49999999999988
 30
0
 11
126.6999999999999
 21
-25.49999999999988
 31
0
  0
LINE
  8
1
 62
7
 10
139.3999999999998
 20
-33.49999999999999
 30
0
 11
129.3999999999998
 21
-33.49999999999999
 31
0
  0
LINE
  8
1
 62
7
 10
129.3999999999998
 20
-67.85000000000002
 30
0
 11
139.3999999999998
 21
-67.85000000000002
 31
0
  0
LINE
  8
1
 62
7
 10
143.3999999999998
 20
-67.49999999999989
 30
0
 11
141.3792740578362
 21
-70.99999999999989
 31
0
  0
LINE
  8
1
 62
7
 10
145.3999999999998
 20
-67.49999999999989
 30
0
 11
143.3999999999998
 21
-67.49999999999989
 31
0
  0
LINE
  8
1
 62
7
 10
145.1999999999999
 20
-28.99999999999988
 30
0
 11
143.3999999999999
 21
-28.99999999999999
 31
0
  0
LINE
  8
1
 62
7
 10
145.3999999999998
 20
-33.49999999999988
 30
0
 11
143.3999999999998
 21
-33.49999999999989
 31
0
  0
LINE
  8
1
 62
7
 10
143.3999999999999
 20
-28.99999999999999
 30
0
 11
143.3999999999998
 21
-33.49999999999989
 31
0
  0
LINE
  8
1
 62
7
 10
145.1999999999999
 20
29
 30
0
 11
145.1999999999999
 21
-28.99999999999988
 31
0
  0
LINE
  8
1
 62
7
 10
141.3792740578362
 20
-70.99999999999989
 30
0
 11
129.3999999999998
 21
-70.99999999999989
 31
0
  0
LINE
  8
1
 62
7
 10
126.6999999999999
 20
-31.2377876430562
 30
0
 11
122.4249999999999
 21
-31.2377876430562
 31
0
  0
LINE
  8
1
 62
7
 10
114.6999999999999
 20
-31.2377876430562
 30
0
 11
118.9749999999999
 21
-31.2377876430562
 31
0
  0
LINE
  8
1
 62
7
 10
114.6999999999999
 20
-25.26221235694356
 30
0
 11
118.9749999999999
 21
-25.26221235694356
 31
0
  0
LINE
  8
1
 62
7
 10
126.6999999999999
 20
-25.26221235694356
 30
0
 11
122.4249999999999
 21
-25.26221235694356
 31
0
  0
LINE
  8
1
 62
7
 10
125.4999999999999
 20
-31.69999999999993
 30
0
 11
125.4999999999999
 21
-24.79999999999995
 31
0
  0
LINE
  8
1
 62
7
 10
115.8999999999998
 20
-31.69999999999993
 30
0
 11
115.8999999999998
 21
-24.79999999999995
 31
0
  0
LINE
  8
1
 62
7
 10
128.2999999999999
 20
-29.49999999999988
 30
0
 11
126.6999999999999
 21
-29.49999999999988
 31
0
  0
LINE
  8
1
 62
7
 10
128.2999999999999
 20
-28.24599999999988
 30
0
 11
128.2999999999999
 21
-35.5
 31
0
  0
LINE
  8
1
 62
7
 10
126.6999999999999
 20
-35.49999999999988
 30
0
 11
128.2999999999999
 21
-35.5
 31
0
  0
LINE
  8
1
 62
7
 10
114.6999999999999
 20
-25.49999999999988
 30
0
 11
113.4499999999999
 21
-25.49999999999988
 31
0
  0
LINE
  8
1
 62
7
 10
113.4499999999999
 20
25.5
 30
0
 11
114.6999999999999
 21
25.5
 31
0
  0
LINE
  8
1
 62
7
 10
113.4499999999999
 20
21.70000000000005
 30
0
 11
113.4499999999999
 21
25.5
 31
0
  0
LINE
  8
1
 62
7
 10
128.2999999999999
 20
35.5
 30
0
 11
126.6999999999999
 21
35.5
 31
0
  0
LINE
  8
1
 62
7
 10
128.2999999999999
 20
35.5
 30
0
 11
128.2999999999999
 21
28.24599999999989
 31
0
  0
LINE
  8
1
 62
7
 10
126.6999999999999
 20
29.5
 30
0
 11
128.2999999999999
 21
29.5
 31
0
  0
LINE
  8
1
 62
7
 10
115.8999999999998
 20
24.80000000000007
 30
0
 11
115.8999999999998
 21
31.70000000000005
 31
0
  0
LINE
  8
1
 62
7
 10
125.4999999999999
 20
24.80000000000007
 30
0
 11
125.4999999999999
 21
31.70000000000005
 31
0
  0
LINE
  8
1
 62
7
 10
122.4249999999999
 20
25.26221235694368
 30
0
 11
126.6999999999999
 21
25.26221235694368
 31
0
  0
LINE
  8
1
 62
7
 10
118.9749999999999
 20
25.26221235694368
 30
0
 11
114.6999999999999
 21
25.26221235694368
 31
0
  0
LINE
  8
1
 62
7
 10
118.9749999999999
 20
31.23778764305632
 30
0
 11
114.6999999999999
 21
31.23778764305632
 31
0
  0
LINE
  8
1
 62
7
 10
122.4249999999999
 20
31.23778764305632
 30
0
 11
126.6999999999999
 21
31.23778764305632
 31
0
  0
LINE
  8
1
 62
7
 10
129.3999999999998
 20
71.00000000000001
 30
0
 11
141.3792740578362
 21
71.00000000000001
 31
0
  0
LINE
  8
1
 62
7
 10
129.3999999999998
 20
71.00000000000001
 30
0
 11
129.3999999999998
 21
67.85000000000002
 31
0
  0
LINE
  8
1
 62
7
 10
143.3999999999998
 20
33.5
 30
0
 11
143.3999999999998
 21
29
 31
0
  0
LINE
  8
1
 62
7
 10
143.3999999999998
 20
33.5
 30
0
 11
145.3999999999998
 21
33.5
 31
0
  0
LINE
  8
1
 62
7
 10
143.3999999999998
 20
67.50000000000001
 30
0
 11
145.3999999999998
 21
67.50000000000001
 31
0
  0
LINE
  8
1
 62
7
 10
141.3792740578362
 20
71.00000000000001
 30
0
 11
143.3999999999998
 21
67.50000000000001
 31
0
  0
LINE
  8
1
 62
7
 10
139.3999999999998
 20
67.85000000000002
 30
0
 11
129.3999999999998
 21
67.85000000000002
 31
0
  0
LINE
  8
1
 62
7
 10
129.3999999999998
 20
33.5
 30
0
 11
139.3999999999998
 21
33.5
 31
0
  0
LINE
  8
1
 62
7
 10
129.3999999999998
 20
25.5
 30
0
 11
129.3999999999998
 21
33.5
 31
0
  0
LINE
  8
1
 62
7
 10
126.6999999999999
 20
25.5
 30
0
 11
129.3999999999998
 21
25.5
 31
0
  0
LINE
  8
1
 62
7
 10
113.4499999999999
 20
21.70000000000005
 30
0
 11
114.6999999999999
 21
21.70000000000005
 31
0
  0
LINE
  8
1
 62
7
 10
113.4499999999999
 20
22.5
 30
0
 11
111.6999999999999
 21
22.5
 31
0
  0
LINE
  8
1
 62
7
 10
111.6999999999999
 20
-22.49999999999989
 30
0
 11
111.6999999999999
 21
22.5
 31
0
  0
LINE
  8
1
 62
7
 10
127.6999999999999
 20
67.35000000000002
 30
0
 11
137.6999999999999
 21
67.35000000000002
 31
0
  0
LINE
  8
1
 62
7
 10
127.6999999999999
 20
67.35000000000002
 30
0
 11
127.6999999999999
 21
67.5
 31
0
  0
LINE
  8
1
 62
7
 10
137.6999999999999
 20
67.35000000000002
 30
0
 11
137.6999999999999
 21
34
 31
0
  0
LINE
  8
1
 62
7
 10
128.2999999999999
 20
34
 30
0
 11
137.6999999999999
 21
34
 31
0
  0
LINE
  8
1
 62
7
 10
137.6999999999999
 20
-33.99999999999999
 30
0
 11
128.2999999999999
 21
-33.99999999999999
 31
0
  0
LINE
  8
1
 62
7
 10
121.6999999999999
 20
-67.5
 30
0
 11
127.6999999999999
 21
-67.5
 31
0
  0
LINE
  8
1
 62
7
 10
114.7000415687432
 20
-33.99999999999999
 30
0
 11
126.6999999999999
 21
-33.99999999999999
 31
0
  0
LINE
  8
1
 62
7
 10
137.6999999999999
 20
-33.99999999999999
 30
0
 11
137.6999999999999
 21
-67.35000000000002
 31
0
  0
LINE
  8
1
 62
7
 10
127.6999999999999
 20
-67.5
 30
0
 11
127.6999999999999
 21
-67.35000000000002
 31
0
  0
LINE
  8
1
 62
7
 10
137.6999999999999
 20
-67.35000000000002
 30
0
 11
127.6999999999999
 21
-67.35000000000002
 31
0
  0
LINE
  8
1
 62
7
 10
112.6999999999999
 20
-52.49999999999999
 30
0
 11
114.6999999999999
 21
-52.49999999999999
 31
0
  0
LINE
  8
1
 62
7
 10
112.6999999999999
 20
-30.74999999999999
 30
0
 11
114.6999999999999
 21
-30.74999999999999
 31
0
  0
LINE
  8
1
 62
7
 10
112.6999999999999
 20
30.75
 30
0
 11
114.6999999999999
 21
30.75
 31
0
  0
LINE
  8
1
 62
7
 10
112.6999999999999
 20
84
 30
0
 11
114.6999999999999
 21
84
 31
0
  0
LINE
  8
1
 62
7
 10
112.6999999999999
 20
81.25
 30
0
 11
114.6999999999999
 21
81.25
 31
0
  0
LINE
  8
1
 62
3
  6
DASHDOT
 10
111.5773620930592
 20
78
 30
0
 11
116.1831174887427
 21
78
 31
0
  0
LINE
  8
1
 62
7
 10
112.6999999999999
 20
74.75
 30
0
 11
114.6999999999999
 21
74.75
 31
0
  0
LINE
  8
1
 62
7
 10
121.6999999999999
 20
67.50000000000001
 30
0
 11
127.6999999999999
 21
67.5
 31
0
  0
LINE
  8
1
 62
7
 10
111.6999999999999
 20
-12.5
 30
0
 11
145.1999999999999
 21
-12.5
 31
0
  0
LINE
  8
1
 62
7
 10
111.6999999999999
 20
15.5
 30
0
 11
145.1999999999999
 21
15.5
 31
0
  0
LINE
  8
1
 62
7
 10
111.6999999999999
 20
12.5
 30
0
 11
145.1999999999999
 21
12.5
 31
0
  0
LINE
  8
1
 62
7
 10
123.4999999999999
 20
91.61594261184087
 30
0
 11
123.4999999999999
 21
67.50000000000001
 31
0
  0
LINE
  8
1
 62
7
 10
123.4999999999999
 20
91.61594261184087
 30
0
 11
125.8999999999999
 21
91.61594261184092
 31
0
  0
LINE
  8
1
 62
7
 10
125.8999999999999
 20
91.61594261184092
 30
0
 11
125.8999999999999
 21
67.50000000000001
 31
0
  0
LINE
  8
1
 62
7
 10
38.80000000000001
 20
-52.49999999999999
 30
0
 11
39.60000000000002
 21
-52.49999999999999
 31
0
  0
LINE
  8
1
 62
3
  6
DASHDOT
 10
-140.9984284418453
 20
74.19557886807877
 30
0
 11
-140.9984284418453
 21
81.80442113192126
 31
0
  0
LINE
  8
1
 62
3
  6
DASHDOT
 10
-137.1940073099241
 20
78
 30
0
 11
-144.8028495737666
 21
78
 31
0
  0
LINE
  8
1
 62
3
  6
DASHDOT
 10
-140.9984284418453
 20
-8.224738876754749
 30
0
 11
-140.9984284418453
 21
8.22473887675476
 31
0
  0
LINE
  8
1
 62
3
  6
DASHDOT
 10
-132.7736895650906
 20
3.552713678800501e-015
 30
0
 11
-149.2231673186002
 21
3.552713678800501e-015
 31
0
  0
LINE
  8
1
 62
7
 10
-137.4984284418453
 20
12.00000000000001
 30
0
 11
-137.4984284418453
 21
15.5
 31
0
  0
LINE
  8
1
 62
7
 10
-144.4984284418453
 20
12.00000000000001
 30
0
 11
-144.4984284418453
 21
15.5
 31
0
  0
LINE
  8
1
 62
7
 10
-144.4984284418453
 20
15.5
 30
0
 11
-137.4984284418453
 21
15.5
 31
0
  0
LINE
  8
1
 62
7
 10
-168.2330268322535
 20
91.58996897988045
 30
0
 11
-163.3961647319995
 21
92.85707039830993
 31
0
  0
LINE
  8
1
 62
7
 10
-160.9889382902636
 20
64.99427250130447
 30
0
 11
-168.2330268322535
 21
91.58996897988045
 31
0
  0
LINE
  8
1
 62
7
 10
-166.4056884492908
 20
92.06867252962215
 30
0
 11
-167.4017927337674
 21
95.76785702847835
 31
0
  0
LINE
  8
1
 62
7
 10
-167.0437052678113
 20
91.90153276028971
 30
0
 11
-167.9744988765453
 21
95.55309222493656
 31
0
  0
LINE
  8
1
 62
7
 10
-167.6992715303293
 20
91.72979560427956
 30
0
 11
-168.5472050193234
 21
95.33832742139481
 31
0
  0
LINE
  8
1
 62
7
 10
-166.212211570888
 20
96.08660434040314
 30
0
 11
-165.2252709366351
 21
92.38496444886977
 31
0
  0
LINE
  8
1
 62
7
 10
-165.6088511005678
 20
96.18696563608623
 30
0
 11
-164.5891622790884
 21
92.55922557190547
 31
0
  0
LINE
  8
1
 62
7
 10
-165.0054906302478
 20
96.28732693176934
 30
0
 11
-163.9355566638787
 21
92.73827996328595
 31
0
  0
LINE
  8
1
 62
7
 10
-156.1593091588183
 20
66.28836772681709
 30
0
 11
-163.3961647319995
 21
92.85707039830993
 31
0
  0
LINE
  8
1
 62
3
  6
DASHDOT
 10
-140.9984284418453
 20
81.80442113192126
 30
0
 11
-140.9984284418453
 21
74.19557886807877
 31
0
  0
LINE
  8
1
 62
3
  6
DASHDOT
 10
-137.1940073099241
 20
78
 30
0
 11
-144.8028495737666
 21
78
 31
0
  0
LINE
  8
1
 62
7
 10
-148.9984284418453
 20
82
 30
0
 11
-148.9984284418453
 21
58.34614479672449
 31
0
  0
LINE
  8
1
 62
7
 10
-146.9984284418453
 20
84
 30
0
 11
-134.9984284418453
 21
84
 31
0
  0
LINE
  8
1
 62
7
 10
-132.9984284418453
 20
58.34614479672449
 30
0
 11
-132.9984284418453
 21
82
 31
0
  0
LINE
  8
1
 62
7
 10
319.1082831048634
 20
92.24920982609854
 30
0
 11
312.7865225903714
 21
68.57532097345059
 31
0
  0
LINE
  8
1
 62
7
 10
-165.7165297171576
 20
92.24920982609854
 30
0
 11
-158.6207836385732
 21
65.67688023437447
 31
0
  0
LINE
  8
1
 62
7
 10
139.3999999999998
 20
33.5
 30
0
 11
139.3999999999998
 21
67.85000000000002
 31
0
  0
LINE
  8
1
 62
7
 10
129.3999999999998
 20
-67.85000000000002
 30
0
 11
129.3999999999998
 21
-70.99999999999989
 31
0
  0
LINE
  8
1
 62
7
 10
129.3999999999998
 20
-33.49999999999999
 30
0
 11
129.3999999999998
 21
-25.49999999999988
 31
0
  0
LINE
  8
1
 62
7
 10
139.3999999999998
 20
-33.49999999999999
 30
0
 11
139.3999999999998
 21
-67.85000000000002
 31
0
  0
ARC
  8
1
 62
7
 10
9.999979215628345
 20
-60.49997928713381
 30
0
 40
7.000020712896999
 50
179.8027132409421
 51
270.0001701218931
  0
ARC
  8
1
 62
7
 10
150.9333647144038
 20
-47.21235580298026
 30
0
 40
5.600000000000001
 50
215.9500207261704
 51
261.4417322826474
  0
ARC
  8
1
 62
7
 10
150.9333647144038
 20
-47.78764419701973
 30
0
 40
5.599999999999988
 50
98.55826771735261
 51
144.0499792738295
  0
ARC
  8
1
 62
7
 10
121.6999792156283
 20
-60.49997928713382
 30
0
 40
7.000020712897054
 50
179.8027132409419
 51
270.0001701218927
  0
ARC
  8
1
 62
7
 10
-156.9984284418453
 20
58.34614479672449
 30
0
 40
7.99999999999996
 50
285.3349867939006
 51
0
  0
ARC
  8
1
 62
7
 10
-124.9984284418453
 20
58.34614479672449
 30
0
 40
8
 50
180
 51
254.6650132060988
  0
ARC
  8
1
 62
3
  6
DASHDOT
 10
294.3901818295511
 20
3.552713678800501e-015
 30
0
 40
47.50000000000009
 50
139.4667063369985
 51
161.6516877517188
  0
ARC
  8
1
 62
3
  6
DASHDOT
 10
294.3901818295511
 20
3.552713678800501e-015
 30
0
 40
47.50000000000001
 50
259.8227898374004
 51
279.9858774027902
  0
ARC
  8
1
 62
3
  6
DASHDOT
 10
294.3901818295511
 20
3.552713678800501e-015
 30
0
 40
47.50000000000003
 50
19.20240596955709
 51
40.35333861464869
  0
ARC
  8
1
 62
7
 10
294.3901818295511
 20
3.552713678800501e-015
 30
0
 40
12.50000000000001
 50
106.260204708312
 51
73.73979529168805
  0
ARC
  8
1
 62
7
 10
279.1759244068859
 20
32.6270803333194
 30
0
 40
17.99999999999997
 50
114.9999999999998
 51
211.1014122552603
  0
ARC
  8
1
 62
7
 10
275.8901818295511
 20
32.04293994002424
 30
0
 40
30.00000000000002
 50
120
 51
175.6197874655644
  0
ARC
  8
1
 62
7
 10
294.3901818295511
 20
3.552713678800501e-015
 30
0
 40
53.99999999999995
 50
65.00000000000007
 51
115
  0
ARC
  8
1
 62
7
 10
294.3901818295511
 20
3.552713678800501e-015
 30
0
 40
38.50000000000004
 50
142.702718084652
 51
157.2972819153481
  0
ARC
  8
1
 62
7
 10
294.3901818295511
 20
3.552713678800501e-015
 30
0
 40
67.00000000000003
 50
180.0000000000001
 51
239.9999999999999
  0
ARC
  8
1
 62
7
 10
227.2732130362571
 20
38.75
 30
0
 40
19.21877381056321
 50
313.2832916861445
 51
346.7167083138553
  0
ARC
  8
1
 62
7
 10
257.3901818295511
 20
-2.486899575160351e-014
 30
0
 40
30.00000000000006
 50
124.3802125344358
 51
180.0000000000001
  0
ARC
  8
1
 62
7
 10
258.5271726982483
 20
-3.137606738915709
 30
0
 40
17.99999999999999
 50
88.89858774474
 51
185
  0
ARC
  8
1
 62
7
 10
315.0389335381887
 20
-29.4894735944037
 30
0
 40
17.99999999999998
 50
208.8985877447398
 51
304.9999999999999
  0
ARC
  8
1
 62
7
 10
312.8901818295511
 20
-32.04293994002423
 30
0
 40
30.00000000000006
 50
244.3802125344354
 51
300.0000000000001
  0
ARC
  8
1
 62
7
 10
294.3901818295511
 20
-77.5
 30
0
 40
19.2187738105632
 50
73.28329168614509
 51
106.7167083138557
  0
ARC
  8
1
 62
7
 10
294.3901818295511
 20
3.552713678800501e-015
 30
0
 40
66.99999999999999
 50
300.0000000000001
 51
359.9999999999999
  0
ARC
  8
1
 62
7
 10
294.3901818295511
 20
3.552713678800501e-015
 30
0
 40
38.50000000000003
 50
262.7027180846519
 51
277.2972819153479
  0
ARC
  8
1
 62
7
 10
294.3901818295511
 20
3.552713678800501e-015
 30
0
 40
53.99999999999996
 50
185
 51
235
  0
ARC
  8
1
 62
7
 10
275.890181829551
 20
-32.04293994002422
 30
0
 40
30
 50
240
 51
295.6197874655643
  0
ARC
  8
1
 62
7
 10
273.7414301209134
 20
-29.4894735944037
 30
0
 40
17.99999999999996
 50
235.0000000000002
 51
331.1014122552602
  0
ARC
  8
1
 62
7
 10
309.6044392522163
 20
32.62708033331938
 30
0
 40
17.99999999999994
 50
328.8985877447397
 51
65.00000000000026
  0
ARC
  8
1
 62
7
 10
312.8901818295511
 20
32.04293994002422
 30
0
 40
29.99999999999999
 50
4.380212534435611
 51
59.99999999999999
  0
ARC
  8
1
 62
7
 10
294.3901818295511
 20
3.552713678800501e-015
 30
0
 40
66.99999999999999
 50
59.99999999999999
 51
120
  0
ARC
  8
1
 62
7
 10
294.3901818295511
 20
3.552713678800501e-015
 30
0
 40
38.49999999999996
 50
22.702718084652
 51
37.29728191534806
  0
ARC
  8
1
 62
7
 10
294.3901818295511
 20
3.552713678800501e-015
 30
0
 40
53.99999999999997
 50
304.9999999999999
 51
354.9999999999999
  0
ARC
  8
1
 62
7
 10
361.5071506228451
 20
38.74999999999996
 30
0
 40
19.21877381056321
 50
193.2832916861447
 51
226.7167083138553
  0
ARC
  8
1
 62
7
 10
331.3901818295511
 20
-4.973799150320701e-014
 30
0
 40
30
 50
359.9999999999999
 51
55.61978746556442
  0
ARC
  8
1
 62
7
 10
330.2531909608539
 20
-3.137606738915739
 30
0
 40
18.00000000000002
 50
354.9999999999999
 51
91.10141225526019
  0
ARC
  8
1
 62
7
 10
294.3901818295511
 20
3.552713678800501e-015
 30
0
 40
47.5
 50
45.72286046805808
 51
134.2771395319419
  0
ARC
  8
1
 62
7
 10
294.3901818295511
 20
3.552713678800501e-015
 30
0
 40
47.49999999999998
 50
285.7228604680581
 51
14.27713953194181
  0
ARC
  8
1
 62
7
 10
294.3901818295511
 20
3.552713678800501e-015
 30
0
 40
47.50000000000007
 50
165.7228604680582
 51
254.2771395319419
  0
ARC
  8
1
 62
7
 10
300.3901818295511
 20
82
 30
0
 40
2
 50
0
 51
90
  0
ARC
  8
1
 62
7
 10
288.3901818295511
 20
82
 30
0
 40
2
 50
90
 51
180
  0
ARC
  8
1
 62
7
 10
10
 20
60.5
 30
0
 40
7
 50
90
 51
180
  0
ARC
  8
1
 62
7
 10
10
 20
60.5
 30
0
 40
7
 50
180
 51
180.1974568809501
  0
ARC
  8
1
 62
7
 10
121.6999999999999
 20
60.50000000000001
 30
0
 40
7.000000000000007
 50
90
 51
180
  0
ARC
  8
1
 62
7
 10
121.6999999999999
 20
40.5
 30
0
 40
7
 50
180
 51
248.2132107017383
  0
ARC
  8
1
 62
7
 10
121.6999999999999
 20
-40.49999999999999
 30
0
 40
6.999999999999996
 50
111.7867892982617
 51
180
  0
ARC
  8
1
 62
7
 10
-140.9984284418453
 20
3.552713678800501e-015
 30
0
 40
12.50000000000001
 50
106.260204708312
 51
73.73979529168805
  0
ARC
  8
1
 62
7
 10
-134.9984284418453
 20
82
 30
0
 40
2
 50
0
 51
90
  0
ARC
  8
1
 62
7
 10
-146.9984284418453
 20
82
 30
0
 40
2
 50
90
 51
180
  0
ARC
  8
1
 62
7
 10
-140.9984284418453
 20
3.552713678800501e-015
 30
0
 40
71.00000000000003
 50
107.0178741429602
 51
83.53039838965736
  0
ARC
  8
1
 62
7
 10
-140.9984284418453
 20
3.552713678800501e-015
 30
0
 40
68.00000000000007
 50
96.75632703058783
 51
83.24367296941219
  0
ARC
  8
1
 62
7
 10
-140.9984284418453
 20
3.552713678800501e-015
 30
0
 40
52.50018688103653
 50
105.3349867939012
 51
74.66501320609889
  0
ARC
  8
1
 62
7
 10
-140.9984284418453
 20
3.552713678800501e-015
 30
0
 40
70.99999999999992
 50
96.46960161034264
 51
102.98212585704
  0
CIRCLE
  8
1
 62
7
 10
120.6999999999999
 20
28.25
 30
0
 40
3.450000000000002
  0
CIRCLE
  8
1
 62
7
 10
120.6999999999999
 20
-28.24999999999988
 30
0
 40
3.450000000000002
  0
CIRCLE
  8
1
 62
7
 10
294.3901818295511
 20
3.552713678800501e-015
 30
0
 40
33
  0
CIRCLE
  8
1
 62
7
 10
294.3901818295511
 20
3.552713678800501e-015
 30
0
 40
29
  0
CIRCLE
  8
1
 62
7
 10
294.3901818295511
 20
3.552713678800501e-015
 30
0
 40
70.99999999999989
  0
CIRCLE
  8
1
 62
7
 10
294.3901818295511
 20
60.5
 30
0
 40
5
  0
CIRCLE
  8
1
 62
7
 10
253.2539751497902
 20
23.75
 30
0
 40
6.500000000000028
  0
CIRCLE
  8
1
 62
7
 10
253.2539751497902
 20
23.75
 30
0
 40
3.000000000000028
  0
CIRCLE
  8
1
 62
7
 10
253.2539751497902
 20
23.75
 30
0
 40
2.5
  0
CIRCLE
  8
1
 62
7
 10
241.9956449005925
 20
-30.24999999999999
 30
0
 40
5
  0
CIRCLE
  8
1
 62
7
 10
346.7847187585096
 20
-30.25000000000005
 30
0
 40
5
  0
CIRCLE
  8
1
 62
7
 10
294.3901818295511
 20
-47.50000000000001
 30
0
 40
6.5
  0
CIRCLE
  8
1
 62
7
 10
335.5263885093119
 20
23.74999999999997
 30
0
 40
6.5
  0
CIRCLE
  8
1
 62
7
 10
294.3901818295511
 20
-47.50000000000001
 30
0
 40
3
  0
CIRCLE
  8
1
 62
7
 10
335.5263885093119
 20
23.74999999999997
 30
0
 40
3
  0
CIRCLE
  8
1
 62
7
 10
294.3901818295511
 20
-47.50000000000001
 30
0
 40
2.5
  0
CIRCLE
  8
1
 62
7
 10
335.5263885093119
 20
23.74999999999997
 30
0
 40
2.5
  0
CIRCLE
  8
1
 62
7
 10
294.3901818295511
 20
3.552713678800501e-015
 30
0
 40
68
  0
CIRCLE
  8
1
 62
7
 10
294.3901818295511
 20
78
 30
0
 40
3.25
  0
CIRCLE
  8
1
 62
7
 10
-140.9984284418453
 20
78
 30
0
 40
3.25
  0
CIRCLE
  8
1
 62
7
 10
-140.9984284418453
 20
3.552713678800501e-015
 30
0
 40
30.75
  0
CIRCLE
  8
1
 62
7
 10
-140.9984284418453
 20
3.552713678800501e-015
 30
0
 40
22.5017783783187
  0
TEXT
  8
1
 62
7
 10
-197.2483815033905
 20
132.0881363558601
 30
0
 40
7
  1
DC1404
 41
0.9
  7
SIMPLEX
  0
TEXT
  8
1
 62
7
 10
-197.2483815033905
 20
145.0288827287991
 30
0
 40
7
  1
TMC 5
 41
0.9
  7
SIMPLEX
  0
ENDSEC
  0
EOF
