  0
SECTION
  2
HEADER
  9
$ACADVER
  1
AC1009
  9
$INSBASE
 10
0
 20
0
  9
$EXTMIN
 10
-267.9979185138422
 20
-89.00000000000003
  9
$EXTMAX
 10
451.1966335421548
 20
204.5721157917673
  9
$LIMMIN
 10
-267.9979185138422
 20
-89.00000000000003
  9
$LIMMAX
 10
451.1966335421548
 20
204.5721157917673
  9
$VIEWCTR
 10
10
 20
10
  9
$VIEWSIZE
 40
10
  9
$SNAPMODE
 70
0
  9
$SNAPUNIT
 10
1
 20
1
  9
$SNAPBASE
 10
0
 20
0
  9
$SNAPANG
 50
0
  9
$SNAPSTYLE
 70
0
  9
$SNAPISOPAIR
 70
0
  9
$GRIDMODE
 70
0
  9
$GRIDUNIT
 10
0
 20
0
  9
$ORTHOMODE
 70
0
  9
$REGENMODE
 70
1
  9
$FILLMODE
 70
1
  9
$QTEXTMODE
 70
0
  9
$DRAGMODE
 70
2
  9
$LTSCALE
 40
1
  9
$OSMODE
 70
0
  9
$ATTMODE
 70
1
  9
$TEXTSIZE
 40
3.5
  9
$TRACEWID
 40
0.5
  9
$TEXTSTYLE
  7
STANDARD
  9
$CLAYER
  8
0
  9
$CELTYPE
  6
BYLAYER
  9
$CECOLOR
 62
256
  9
$DIMSCALE
 40
1
  9
$DIMASZ
 40
0.18
  9
$DIMEXO
 40
0.0625
  9
$DIMDLI
 40
0.38
  9
$DIMRND
 40
0
  9
$DIMDLE
 40
0
  9
$DIMEXE
 40
0.18
  9
$DIMTP
 40
0
  9
$DIMTM
 40
0
  9
$DIMTXT
 40
0.18
  9
$DIMCEN
 40
0.09
  9
$DIMTSZ
 40
0
  9
$DIMTOL
 70
0
  9
$DIMLIM
 70
0
  9
$DIMTIH
 70
1
  9
$DIMTOH
 70
1
  9
$DIMSE1
 70
0
  9
$DIMSE2
 70
0
  9
$DIMTAD
 70
0
  9
$DIMZIN
 70
0
  9
$DIMBLK
  1

  9
$DIMASO
 70
1
  9
$DIMSHO
 70
1
  9
$DIMPOST
  1

  9
$DIMAPOST
  1

  9
$DIMALT
 70
0
  9
$DIMALTD
 70
2
  9
$DIMALTF
 40
25.4
  9
$DIMLFAC
 40
1
  9
$DIMTOFL
 70
0
  9
$DIMTVP
 40
0
  9
$DIMTIX
 70
0
  9
$DIMSOXD
 70
0
  9
$DIMSAH
 70
0
  9
$DIMBLK1
  1

  9
$DIMBLK2
  1

  9
$DIMSTYLE
  2
*UNNAMED
  9
$DIMCLRD
 70
0
  9
$DIMCLRE
 70
0
  9
$DIMCLRT
 70
0
  9
$DIMTFAC
 40
1
  9
$DIMGAP
 40
0.09
  9
$LUNITS
 70
2
  9
$LUPREC
 70
4
  9
$AXISMODE
 70
0
  9
$AXISUNIT
 10
0
 20
0
  9
$SKETCHINC
 40
0.1
  9
$FILLETRAD
 40
2
  9
$AUNITS
 70
0
  9
$AUPREC
 70
0
  9
$MENU
  1
ACAD
  9
$ELEVATION
 40
0
  9
$THICKNESS
 40
0
  9
$VIEWDIR
 10
0
 20
0
 30
1
  9
$LIMCHECK
 70
0
  9
$BLIPMODE
 70
1
  9
$CHAMFERA
 40
0
  9
$CHAMFERB
 40
0
  9
$FASTZOOM
 70
1
  9
$SKPOLY
 70
0
  9
$ANGBASE
 50
0
  9
$ANGDIR
 70
0
  9
$PDMODE
 70
0
  9
$PDSIZE
 40
0
  9
$PLINEWID
 40
0
  9
$COORDS
 70
2
  0
ENDSEC
  0
SECTION
  2
TABLES
  0
TABLE
  2
DIMSTYLE
 70
0
  0
ENDTAB
  0
TABLE
  2
LTYPE
 70
9
  0
LTYPE
  2
CONTINUOUS
 70
64
  3
Solid line
 72
65
 73
0
 40
0
  0
LTYPE
  2
BORDER
 70
64
  3
__ __ . __ __ .
 72
65
 73
6
 40
33.12080173942092
 49
9.46308621126312
 49
-4.73154310563156
 49
9.46308621126312
 49
-4.73154310563156
 49
0
 49
-4.73154310563156
  0
LTYPE
  2
CENTER
 70
64
  3
____ _ ____ _
 72
65
 73
4
 40
37.85234484505248
 49
23.6577155281578
 49
-4.73154310563156
 49
4.73154310563156
 49
-4.73154310563156
  0
LTYPE
  2
DASHDOT
 70
64
  3
__ . __ . __ .
 72
65
 73
4
 40
18.92617242252624
 49
9.46308621126312
 49
-4.73154310563156
 49
0
 49
-4.73154310563156
  0
LTYPE
  2
DASHED
 70
64
  3
__ __ __ __ __
 72
65
 73
2
 40
14.19462931689468
 49
9.46308621126312
 49
-4.73154310563156
  0
LTYPE
  2
DIVIDE
 70
64
  3
__ . . __ . . 
 72
65
 73
6
 40
23.6577155281578
 49
9.46308621126312
 49
-4.73154310563156
 49
0
 49
-4.73154310563156
 49
0
 49
-4.73154310563156
  0
LTYPE
  2
DOT
 70
64
  3
..............
 72
65
 73
4
 40
9.46308621126312
 49
0
 49
-4.73154310563156
 49
0
 49
-4.73154310563156
  0
LTYPE
  2
HIDDEN
 70
64
  3
_ _ _ _ _ _ _
 72
65
 73
2
 40
7.09731465844734
 49
4.73154310563156
 49
-2.36577155281578
  0
LTYPE
  2
PHANTOM
 70
64
  3
_____ _ _ _____ _ _ 
 72
65
 73
6
 40
47.3154310563156
 49
23.6577155281578
 49
-4.73154310563156
 49
4.73154310563156
 49
-4.73154310563156
 49
4.73154310563156
 49
-4.73154310563156
  0
ENDTAB
  0
TABLE
  2
LAYER
 70
3
  0
LAYER
  2
1
 70
0
 62
7
  6
CONTINUOUS
  0
LAYER
  2
0
 70
0
 62
7
  6
CONTINUOUS
  0
ENDTAB
  0
TABLE
  2
STYLE
 70
4
  0
STYLE
  2
STANDARD
 70
0
 40
0
 41
1
 50
0
 71
0
 42
3.5
  3
txt
  4

  0
STYLE
  2
SIMPLEX
 70
0
 40
0
 41
1
 50
0
 71
0
 42
3.5
  3
simplex
  4

  0
STYLE
  2
COMPLEX
 70
0
 40
0
 41
1
 50
0
 71
0
 42
3.5
  3
complex
  4

  0
STYLE
  2
ITALIC
 70
0
 40
0
 41
1
 50
0
 71
0
 42
3.5
  3
italic
  4

  0
ENDTAB
  0
TABLE
  2
VIEW
 70
0
  0
ENDTAB
  0
ENDSEC
  0
SECTION
  2
BLOCKS
  0
ENDSEC
  0
SECTION
  2
ENTITIES
  0
POINT
  8
1
 62
7
  6
DOT
 10
362.1966335421549
 20
-15
 30
0
  0
LINE
  8
1
 62
7
 10
167.2999999999999
 20
-84.84999999999994
 30
0
 11
167.2999999999999
 21
-41.99999999999996
 31
0
  0
LINE
  8
1
 62
7
 10
155.7999999999999
 20
-41.99999999999996
 30
0
 11
155.7999999999999
 21
-33.50000000000001
 31
0
  0
LINE
  8
1
 62
7
 10
167.2999999999999
 20
42.00000000000002
 30
0
 11
167.2999999999999
 21
84.85000000000002
 31
0
  0
LINE
  8
1
 62
7
 10
155.7999999999999
 20
84.85000000000002
 30
0
 11
155.7999999999999
 21
89
 31
0
  0
LINE
  8
1
 62
7
 10
151.0999999999999
 20
128.8757933971991
 30
0
 11
151.0999999999999
 21
125.8757933971991
 31
0
  0
LINE
  8
1
 62
7
 10
151.5999999999999
 20
128.8757933971991
 30
0
 11
151.5999999999999
 21
125.8757933971991
 31
0
  0
LINE
  8
1
 62
7
 10
150.5999999999999
 20
125.8757933971991
 30
0
 11
150.5999999999999
 21
128.8757933971991
 31
0
  0
LINE
  8
1
 62
7
 10
-190.9979185138422
 20
108
 30
0
 11
-190.9979185138422
 21
72.80281587960728
 31
0
  0
LINE
  8
1
 62
7
 10
-168.9979185138422
 20
110
 30
0
 11
-188.9979185138422
 21
110
 31
0
  0
LINE
  8
1
 62
7
 10
-166.9979185138422
 20
108
 30
0
 11
-166.9979185138422
 21
72.80281587960728
 31
0
  0
LINE
  8
1
 62
7
 10
11
 20
84.50000000000001
 30
0
 11
19.19999999999999
 21
84.50000000000001
 31
0
  0
LINE
  8
1
 62
7
 10
11
 20
-84.49999999999994
 30
0
 11
19.19999999999999
 21
-84.49999999999994
 31
0
  0
LINE
  8
1
 62
7
 10
136.6999999999998
 20
38.50000000000001
 30
0
 11
139.5999999999999
 21
38.50000000000001
 31
0
  0
LINE
  8
1
 62
7
 10
19.19999999999999
 20
84.75
 30
0
 11
19.19999999999999
 21
-84.75000000000003
 31
0
  0
LINE
  8
1
 62
7
 10
32.6019237886465
 20
-89.00000000000003
 30
0
 11
32.6019237886465
 21
89
 31
0
  0
LINE
  8
1
 62
7
 10
35.19999999999999
 20
84.5
 30
0
 11
35.19999999999999
 21
-84.50000000000003
 31
0
  0
LINE
  8
1
 62
7
 10
46.59999999999991
 20
60.15798299710497
 30
0
 11
46.59999999999991
 21
-83.99999999999994
 31
0
  0
LINE
  8
1
 62
7
 10
-202.0328135279667
 20
85.96739853972704
 30
0
 11
-213.0187818413362
 21
126.9675904555641
 31
0
  0
LINE
  8
1
 62
7
 10
-215.7421404671958
 20
132.1557536060065
 30
0
 11
-214.2550955559756
 21
126.636321194135
 31
0
  0
LINE
  8
1
 62
7
 10
-213.2711677691897
 20
132.8658032318703
 30
0
 11
-211.7740368084794
 21
127.3011188819007
 31
0
  0
LINE
  8
1
 62
3
  6
DASHDOT
 10
-178.9979185138422
 20
93.83531610688661
 30
0
 11
-178.9979185138422
 21
106.1646838931134
 31
0
  0
LINE
  8
1
 62
3
  6
DASHDOT
 10
-172.8332346207287
 20
100
 30
0
 11
-185.1626024069555
 21
100
 31
0
  0
LINE
  8
1
 62
3
  6
DASHDOT
 10
-178.9979185138422
 20
-11.74019344289399
 30
0
 11
-178.9979185138422
 21
11.74019344289399
 31
0
  0
LINE
  8
1
 62
3
  6
DASHDOT
 10
-167.2577250709482
 20
0
 30
0
 11
-190.7381119567362
 21
0
 31
0
  0
LINE
  8
1
 62
7
 10
-215.4335964070589
 20
126.3205428428078
 30
0
 11
-210.6039672756135
 21
127.6146380683204
 31
0
  0
LINE
  8
1
 62
7
 10
-204.4385385529585
 20
85.28642829914571
 30
0
 11
-215.4335964070589
 21
126.3205428428078
 31
0
  0
LINE
  8
1
 62
7
 10
-199.608909421513
 20
86.58052352465833
 30
0
 11
-210.6039672756135
 21
127.6146380683204
 31
0
  0
LINE
  8
1
 62
7
 10
-182.4979185138422
 20
18
 30
0
 11
-175.4979185138422
 21
18
 31
0
  0
LINE
  8
1
 62
7
 10
-182.4979185138422
 20
14.58595214581481
 30
0
 11
-182.4979185138422
 21
18
 31
0
  0
LINE
  8
1
 62
7
 10
-175.4979185138422
 20
14.58595214581482
 30
0
 11
-175.4979185138422
 21
18
 31
0
  0
LINE
  8
1
 62
7
 10
-214.6797168447467
 20
126.5225442627197
 30
0
 11
-216.1504407590743
 21
132.0113606348976
 31
0
  0
LINE
  8
1
 62
7
 10
-213.6913851005035
 20
126.7873669554437
 30
0
 11
-215.1697138070185
 21
132.3045647984453
 31
0
  0
LINE
  8
1
 62
7
 10
-212.2637948032634
 20
127.1698886227117
 30
0
 11
-213.7234456835344
 21
132.6173798691964
 31
0
  0
LINE
  8
1
 62
7
 10
-211.3852776972694
 20
127.4052865717997
 30
0
 11
-212.8834701561029
 21
132.9966169476828
 31
0
  0
LINE
  8
1
 62
3
  6
DASHDOT
 10
0
 20
0
 30
0
 11
-5.016098629896476
 21
0
 31
0
  0
LINE
  8
1
 62
3
  6
DASHDOT
 10
46.59999999999991
 20
0
 30
0
 11
51.6200481291375
 21
0
 31
0
  0
LINE
  8
1
 62
7
 10
38
 20
85
 30
0
 11
38
 21
-52.49999999999999
 31
0
  0
LINE
  8
1
 62
7
 10
38
 20
85
 30
0
 11
44.4000000000002
 21
85
 31
0
  0
LINE
  8
1
 62
7
 10
45.4000000000002
 20
60
 30
0
 11
45.4000000000002
 21
-83.99999999999994
 31
0
  0
LINE
  8
1
 62
7
 10
44.4000000000002
 20
84
 30
0
 11
45.59999999999991
 21
84
 31
0
  0
LINE
  8
1
 62
7
 10
45.59999999999991
 20
63.89003380467385
 30
0
 11
46.59999999999991
 21
60.15798299710497
 31
0
  0
LINE
  8
1
 62
7
 10
44.4000000000002
 20
63.73205080756888
 30
0
 11
45.4000000000002
 21
60
 31
0
  0
LINE
  8
1
 62
7
 10
45.59999999999991
 20
82.5
 30
0
 11
48.9000000000002
 21
82.5
 31
0
  0
LINE
  8
1
 62
7
 10
49.4000000000002
 20
69
 30
0
 11
49.4000000000002
 21
82
 31
0
  0
LINE
  8
1
 62
7
 10
45.59999999999991
 20
68.5
 30
0
 11
48.9000000000002
 21
68.5
 31
0
  0
LINE
  8
1
 62
7
 10
46.59999999999991
 20
82.5
 30
0
 11
46.59999999999991
 21
68.5
 31
0
  0
LINE
  8
1
 62
7
 10
48.9000000000002
 20
68.5
 30
0
 11
49.4000000000002
 21
69
 31
0
  0
LINE
  8
1
 62
7
 10
49.4000000000002
 20
82
 30
0
 11
48.9000000000002
 21
82.5
 31
0
  0
LINE
  8
1
 62
7
 10
44.4000000000002
 20
-79.49999999999994
 30
0
 11
44.4000000000002
 21
-84.99999999999994
 31
0
  0
LINE
  8
1
 62
7
 10
44.4000000000002
 20
-84.99999999999994
 30
0
 11
38
 21
-84.99999999999994
 31
0
  0
LINE
  8
1
 62
7
 10
45.4000000000002
 20
-83.99999999999994
 30
0
 11
46.59999999999991
 21
-83.99999999999994
 31
0
  0
LINE
  8
1
 62
7
 10
63.3499999999999
 20
-63.99999999999994
 30
0
 11
50.59999999999991
 21
-63.99999999999994
 31
0
  0
LINE
  8
1
 62
7
 10
63.3499999999999
 20
-63.99999999999994
 30
0
 11
64.59999999999991
 21
-62.74999999999998
 31
0
  0
LINE
  8
1
 62
7
 10
64.59999999999991
 20
-62.74999999999998
 30
0
 11
64.59999999999991
 21
-57.24999999999998
 31
0
  0
LINE
  8
1
 62
7
 10
64.59999999999991
 20
-57.24999999999998
 30
0
 11
63.3499999999999
 21
-55.99999999999998
 31
0
  0
LINE
  8
1
 62
7
 10
63.3499999999999
 20
-55.99999999999998
 30
0
 11
50.59999999999991
 21
-55.99999999999998
 31
0
  0
LINE
  8
1
 62
7
 10
63.3499999999999
 20
-63.99999999999994
 30
0
 11
63.3499999999999
 21
-55.99999999999998
 31
0
  0
LINE
  8
1
 62
7
 10
46.59999999999991
 20
-51.99999999999999
 30
0
 11
50.59999999999991
 21
-51.99999999999999
 31
0
  0
LINE
  8
1
 62
7
 10
50.59999999999991
 20
-68.00000000000003
 30
0
 11
50.59999999999991
 21
-51.99999999999999
 31
0
  0
LINE
  8
1
 62
7
 10
46.59999999999991
 20
-68.00000000000003
 30
0
 11
50.59999999999991
 21
-68.00000000000003
 31
0
  0
LINE
  8
1
 62
7
 10
38
 20
-84.99999999999994
 30
0
 11
38
 21
-67.50000000000003
 31
0
  0
LINE
  8
1
 62
7
 10
38
 20
-67.50000000000003
 30
0
 11
38
 21
-59.99999999999999
 31
0
  0
LINE
  8
1
 62
7
 10
44.4000000000002
 20
-80.77439198680324
 30
0
 11
44.4000000000002
 21
85
 31
0
  0
LINE
  8
1
 62
3
 10
64.59999999999991
 20
-57.24999999999998
 30
0
 11
50.59999999999991
 21
-57.24999999999998
 31
0
  0
LINE
  8
1
 62
3
 10
64.59999999999991
 20
-62.74999999999998
 30
0
 11
50.59999999999991
 21
-62.74999999999998
 31
0
  0
LINE
  8
1
 62
3
  6
DASHDOT
 10
38
 20
-59.99999999999999
 30
0
 11
66.5180323867566
 21
-59.99999999999999
 31
0
  0
LINE
  8
1
 62
7
 10
38
 20
-59.99999999999999
 30
0
 11
38
 21
-52.49999999999999
 31
0
  0
LINE
  8
1
 62
7
 10
15.69999999999987
 20
100
 30
0
 11
15.69999999999987
 21
84.50000000000001
 31
0
  0
LINE
  8
1
 62
7
 10
13.29999999999978
 20
100
 30
0
 11
13.29999999999978
 21
84.50000000000001
 31
0
  0
LINE
  8
1
 62
7
 10
0.09999999999979536
 20
110
 30
0
 11
3
 21
110
 31
0
  0
LINE
  8
1
 62
7
 10
0.09999999999979536
 20
-67.49999999999994
 30
0
 11
3
 21
-67.49999999999994
 31
0
  0
LINE
  8
1
 62
7
 10
0.09999999999979536
 20
110
 30
0
 11
0.09999999999979536
 21
-67.49999999999994
 31
0
  0
LINE
  8
1
 62
7
 10
19.19999999999999
 20
84.75
 30
0
 11
19.19999999999999
 21
89
 31
0
  0
LINE
  8
1
 62
7
 10
19.19999999999999
 20
89
 30
0
 11
32.6019237886465
 21
89
 31
0
  0
LINE
  8
1
 62
7
 10
32.6019237886465
 20
89
 30
0
 11
35.19999999999999
 21
84.5
 31
0
  0
LINE
  8
1
 62
7
 10
35.19999999999999
 20
84.5
 30
0
 11
37.69999999999999
 21
84.5
 31
0
  0
LINE
  8
1
 62
7
 10
37.69999999999999
 20
84.5
 30
0
 11
37.69999999999999
 21
-84.50000000000003
 31
0
  0
LINE
  8
1
 62
7
 10
37.69999999999999
 20
-84.50000000000003
 30
0
 11
35.19999999999999
 21
-84.50000000000003
 31
0
  0
LINE
  8
1
 62
7
 10
35.19999999999999
 20
-84.50000000000003
 30
0
 11
32.6019237886465
 21
-89.00000000000003
 31
0
  0
LINE
  8
1
 62
7
 10
32.6019237886465
 20
-89.00000000000003
 30
0
 11
19.19999999999999
 21
-89.00000000000003
 31
0
  0
LINE
  8
1
 62
7
 10
19.19999999999999
 20
-89.00000000000003
 30
0
 11
19.19999999999999
 21
-84.75000000000003
 31
0
  0
LINE
  8
1
 62
7
 10
3
 20
-76.49999999999994
 30
0
 11
3
 21
110
 31
0
  0
LINE
  8
1
 62
7
 10
13.29999999999978
 20
125.8757933971991
 30
0
 11
13.29999999999978
 21
107.0020263170264
 31
0
  0
LINE
  8
1
 62
7
 10
13.29999999999978
 20
107.0020263170264
 30
0
 11
13.29999999999978
 21
100
 31
0
  0
LINE
  8
1
 62
7
 10
15.69999999999987
 20
107.0020263170264
 30
0
 11
15.69999999999987
 21
100
 31
0
  0
LINE
  8
1
 62
7
 10
15.69999999999987
 20
107.0020263170264
 30
0
 11
15.69999999999987
 21
125.8757933971991
 31
0
  0
LINE
  8
1
 62
7
 10
14.49999999999977
 20
128.8757933971991
 30
0
 11
14.49999999999977
 21
125.8757933971991
 31
0
  0
LINE
  8
1
 62
7
 10
14.99999999999977
 20
128.8757933971991
 30
0
 11
14.99999999999977
 21
125.8757933971991
 31
0
  0
LINE
  8
1
 62
7
 10
15.69999999999987
 20
125.8757933971991
 30
0
 11
13.29999999999978
 21
125.8757933971991
 31
0
  0
LINE
  8
1
 62
7
 10
13.99999999999977
 20
125.8757933971991
 30
0
 11
13.99999999999977
 21
128.8757933971991
 31
0
  0
LINE
  8
1
 62
3
  6
DASHDOT
 10
136.5999999999999
 20
0
 30
0
 11
131.5839013701034
 21
0
 31
0
  0
LINE
  8
1
 62
3
  6
DASHDOT
 10
183.1999999999999
 20
0
 30
0
 11
188.2200481291374
 21
0
 31
0
  0
LINE
  8
1
 62
7
 10
152.5999999999999
 20
-42.49999999999996
 30
0
 11
139.5999999999999
 21
-42.50000000000002
 31
0
  0
LINE
  8
1
 62
7
 10
174.0999999999999
 20
37.25000000000001
 30
0
 11
172.2999999999999
 21
37.25000000000001
 31
0
  0
LINE
  8
1
 62
7
 10
172.2999999999999
 20
42.00000000000002
 30
0
 11
172.2999999999999
 21
37.25000000000001
 31
0
  0
LINE
  8
1
 62
7
 10
174.2999999999999
 20
42.00000000000001
 30
0
 11
172.2999999999999
 21
42.00000000000002
 31
0
  0
LINE
  8
1
 62
7
 10
172.2999999999999
 20
-37.25000000000001
 30
0
 11
174.0999999999999
 21
-37.25000000000001
 31
0
  0
LINE
  8
1
 62
7
 10
139.5999999999999
 20
42.50000000000001
 30
0
 11
152.5999999999999
 21
42.50000000000002
 31
0
  0
LINE
  8
1
 62
7
 10
396.2174968696488
 20
126.9675904555641
 30
0
 11
385.2315285562792
 21
85.96739853972704
 31
0
  0
LINE
  8
1
 62
7
 10
397.4538105842881
 20
126.636321194135
 30
0
 11
398.9408554955083
 21
132.1557536060065
 31
0
  0
LINE
  8
1
 62
7
 10
394.972751836792
 20
127.3011188819007
 30
0
 11
396.4698827975022
 21
132.8658032318703
 31
0
  0
LINE
  8
1
 62
3
  6
DASHDOT
 10
362.1966335421549
 20
106.1646838931134
 30
0
 11
362.1966335421549
 21
93.83531610688661
 31
0
  0
LINE
  8
1
 62
3
  6
DASHDOT
 10
368.3613174352682
 20
100
 30
0
 11
356.0319496490415
 21
100
 31
0
  0
LINE
  8
1
 62
3
  6
DASHDOT
 10
362.1966335421549
 20
11.74019344289399
 30
0
 11
362.1966335421549
 21
-11.74019344289399
 31
0
  0
LINE
  8
1
 62
3
  6
DASHDOT
 10
373.9368269850488
 20
0
 30
0
 11
350.4564400992609
 21
0
 31
0
  0
LINE
  8
1
 62
3
  6
DASHDOT
 10
362.1966335421549
 20
-50.53904443954824
 30
0
 11
362.1966335421549
 21
-70.73122227983674
 31
0
  0
LINE
  8
1
 62
7
 10
393.8026823039261
 20
127.6146380683204
 30
0
 11
398.6323114353714
 21
126.3205428428078
 31
0
  0
LINE
  8
1
 62
7
 10
398.6323114353714
 20
126.3205428428078
 30
0
 11
387.637253581271
 21
85.28642829914571
 31
0
  0
LINE
  8
1
 62
7
 10
393.8026823039261
 20
127.6146380683204
 30
0
 11
382.8076244498257
 21
86.58052352465833
 31
0
  0
LINE
  8
1
 62
7
 10
174.5999999999999
 20
85
 30
0
 11
174.5999999999999
 21
-84.99999999999994
 31
0
  0
LINE
  8
1
 62
7
 10
174.5999999999999
 20
41.50000000000001
 30
0
 11
181.9999999999999
 21
41.50000000000001
 31
0
  0
LINE
  8
1
 62
7
 10
174.5999999999999
 20
85
 30
0
 11
181
 21
85
 31
0
  0
LINE
  8
1
 62
7
 10
181
 20
85
 30
0
 11
181
 21
60
 31
0
  0
LINE
  8
1
 62
7
 10
181
 20
60
 30
0
 11
182
 21
60
 31
0
  0
LINE
  8
1
 62
7
 10
182
 20
60
 30
0
 11
182
 21
-83.99999999999994
 31
0
  0
LINE
  8
1
 62
7
 10
181
 20
84
 30
0
 11
182.1999999999999
 21
84
 31
0
  0
LINE
  8
1
 62
7
 10
182.1999999999999
 20
63.89003380467385
 30
0
 11
183.1999999999999
 21
60.15798299710497
 31
0
  0
LINE
  8
1
 62
7
 10
183.1999999999999
 20
60.15798299710497
 30
0
 11
183.1999999999999
 21
-55.99999999999998
 31
0
  0
LINE
  8
1
 62
7
 10
181
 20
63.73205080756888
 30
0
 11
182
 21
60
 31
0
  0
LINE
  8
1
 62
7
 10
182.1999999999999
 20
82.5
 30
0
 11
185.5
 21
82.5
 31
0
  0
LINE
  8
1
 62
7
 10
186
 20
69
 30
0
 11
186
 21
82
 31
0
  0
LINE
  8
1
 62
7
 10
182.1999999999999
 20
68.5
 30
0
 11
185.5
 21
68.5
 31
0
  0
LINE
  8
1
 62
7
 10
183.1999999999999
 20
82.5
 30
0
 11
183.1999999999999
 21
68.5
 31
0
  0
LINE
  8
1
 62
7
 10
185.5
 20
68.5
 30
0
 11
186
 21
69
 31
0
  0
LINE
  8
1
 62
7
 10
186
 20
82
 30
0
 11
185.5
 21
82.5
 31
0
  0
LINE
  8
1
 62
7
 10
181
 20
67
 30
0
 11
182.1999999999999
 21
67
 31
0
  0
LINE
  8
1
 62
7
 10
181
 20
-67.50000000000003
 30
0
 11
181
 21
-84.99999999999994
 31
0
  0
LINE
  8
1
 62
7
 10
181
 20
-84.99999999999994
 30
0
 11
174.5999999999999
 21
-84.99999999999994
 31
0
  0
LINE
  8
1
 62
7
 10
181.9999999999999
 20
-41.49999999999999
 30
0
 11
174.5999999999999
 21
-41.49999999999999
 31
0
  0
LINE
  8
1
 62
7
 10
182
 20
-83.99999999999994
 30
0
 11
183.1999999999999
 21
-83.99999999999994
 31
0
  0
LINE
  8
1
 62
7
 10
183.1999999999999
 20
-51.99999999999999
 30
0
 11
187.1999999999999
 21
-51.99999999999999
 31
0
  0
LINE
  8
1
 62
7
 10
187.1999999999999
 20
-51.99999999999999
 30
0
 11
187.1999999999999
 21
-55.99999999999998
 31
0
  0
LINE
  8
1
 62
7
 10
187.1999999999999
 20
-63.99999999999994
 30
0
 11
187.1999999999999
 21
-68.00000000000003
 31
0
  0
LINE
  8
1
 62
7
 10
183.1999999999999
 20
-68.00000000000003
 30
0
 11
187.1999999999999
 21
-68.00000000000003
 31
0
  0
LINE
  8
1
 62
7
 10
174.5999999999999
 20
-67.50000000000003
 30
0
 11
181
 21
-67.50000000000003
 31
0
  0
LINE
  8
1
 62
7
 10
174.5999999999999
 20
-52.49999999999999
 30
0
 11
182
 21
-52.49999999999999
 31
0
  0
LINE
  8
1
 62
3
  6
DASHDOT
 10
174.5999999999999
 20
-59.99999999999999
 30
0
 11
202.9180323867569
 21
-59.99999999999999
 31
0
  0
LINE
  8
1
 62
7
 10
182
 20
-73.32981656940063
 30
0
 11
183.1999999999999
 21
-73.32981656940063
 31
0
  0
LINE
  8
1
 62
7
 10
183.1999999999999
 20
-63.99999999999994
 30
0
 11
183.1999999999999
 21
-83.99999999999994
 31
0
  0
LINE
  8
1
 62
7
 10
182
 20
-49.49999999999999
 30
0
 11
183.1999999999999
 21
-49.49999999999999
 31
0
  0
LINE
  8
1
 62
7
 10
374.1966335421549
 20
88.18730067305609
 30
0
 11
374.1966335421548
 21
108
 31
0
  0
LINE
  8
1
 62
7
 10
350.1966335421549
 20
88.18730067305609
 30
0
 11
350.1966335421549
 21
108
 31
0
  0
LINE
  8
1
 62
7
 10
358.6966335421549
 20
18
 30
0
 11
365.6966335421549
 21
18
 31
0
  0
LINE
  8
1
 62
7
 10
365.6966335421549
 20
18
 30
0
 11
365.6966335421549
 21
14.58595214581482
 31
0
  0
LINE
  8
1
 62
7
 10
358.6966335421549
 20
18
 30
0
 11
358.6966335421549
 21
14.58595214581481
 31
0
  0
LINE
  8
1
 62
7
 10
399.349155787387
 20
132.0113606348976
 30
0
 11
397.8784318730592
 21
126.5225442627197
 31
0
  0
LINE
  8
1
 62
7
 10
398.368428835331
 20
132.3045647984453
 30
0
 11
396.8901001288161
 21
126.7873669554437
 31
0
  0
LINE
  8
1
 62
7
 10
396.922160711847
 20
132.6173798691964
 30
0
 11
395.4625098315759
 21
127.1698886227117
 31
0
  0
LINE
  8
1
 62
7
 10
396.0821851844154
 20
132.9966169476828
 30
0
 11
394.5839927255819
 21
127.4052865717997
 31
0
  0
LINE
  8
1
 62
7
 10
372.1966335421548
 20
110
 30
0
 11
352.1966335421549
 21
110
 31
0
  0
LINE
  8
1
 62
7
 10
138.3499999999999
 20
-33.00240473580839
 30
0
 11
138.3499999999999
 21
-29.00000000000001
 31
0
  0
LINE
  8
1
 62
7
 10
139.5999999999999
 20
-33.00240473580839
 30
0
 11
138.3499999999999
 21
-33.00240473580839
 31
0
  0
LINE
  8
1
 62
7
 10
138.3499999999999
 20
33.00240473580838
 30
0
 11
138.3499999999999
 21
29.00000000000001
 31
0
  0
LINE
  8
1
 62
7
 10
139.5999999999999
 20
33.00240473580838
 30
0
 11
138.3499999999999
 21
33.00240473580838
 31
0
  0
LINE
  8
1
 62
7
 10
174.0999999999999
 20
37.25000000000001
 30
0
 11
174.0999999999999
 21
-37.25000000000001
 31
0
  0
LINE
  8
1
 62
7
 10
136.5999999999999
 20
-15
 30
0
 11
174.0999999999999
 21
-15
 31
0
  0
LINE
  8
1
 62
7
 10
136.5999999999999
 20
18
 30
0
 11
174.0999999999999
 21
18
 31
0
  0
LINE
  8
1
 62
7
 10
147.5999999999999
 20
84.50000000000001
 30
0
 11
153.0999999999999
 21
84.50000000000001
 31
0
  0
LINE
  8
1
 62
7
 10
149.8999999999998
 20
125.8757933971991
 30
0
 11
149.8999999999998
 21
84.50000000000001
 31
0
  0
LINE
  8
1
 62
7
 10
136.6999999999998
 20
95.75000000000001
 30
0
 11
139.6249656158745
 21
95.75000000000001
 31
0
  0
LINE
  8
1
 62
3
  6
DASHDOT
 10
135.1370234131422
 20
100
 30
0
 11
141.7826301364189
 21
100
 31
0
  0
LINE
  8
1
 62
7
 10
136.6999999999998
 20
104.25
 30
0
 11
139.6249656158745
 21
104.25
 31
0
  0
LINE
  8
1
 62
7
 10
136.6999999999998
 20
110
 30
0
 11
139.5999999999999
 21
110
 31
0
  0
LINE
  8
1
 62
7
 10
136.6999999999998
 20
38.50000000000001
 30
0
 11
139.5999999999999
 21
38.50000000000001
 31
0
  0
LINE
  8
1
 62
7
 10
136.6999999999998
 20
-38.49999999999999
 30
0
 11
139.5999999999999
 21
-38.49999999999999
 31
0
  0
LINE
  8
1
 62
7
 10
136.6999999999998
 20
-67.49999999999994
 30
0
 11
139.5999999999999
 21
-67.49999999999994
 31
0
  0
LINE
  8
1
 62
7
 10
136.6999999999998
 20
110
 30
0
 11
136.6999999999998
 21
35.14899999999998
 31
0
  0
LINE
  8
1
 62
7
 10
154.5999999999999
 20
-44.24999999999996
 30
0
 11
152.5999999999999
 21
-44.24999999999996
 31
0
  0
LINE
  8
1
 62
7
 10
139.5999999999999
 20
-76.49999999999994
 30
0
 11
139.5999999999999
 21
-29.00000000000001
 31
0
  0
LINE
  8
1
 62
7
 10
153.0999999999999
 20
-84.34999999999994
 30
0
 11
153.0999999999999
 21
-84.49999999999994
 31
0
  0
LINE
  8
1
 62
7
 10
164.5999999999999
 20
-84.34999999999994
 30
0
 11
153.0999999999999
 21
-84.34999999999994
 31
0
  0
LINE
  8
1
 62
7
 10
147.5999999999999
 20
-84.49999999999994
 30
0
 11
153.0999999999999
 21
-84.49999999999994
 31
0
  0
LINE
  8
1
 62
7
 10
164.5999999999999
 20
84.35000000000002
 30
0
 11
164.5999999999999
 21
42.50000000000002
 31
0
  0
LINE
  8
1
 62
7
 10
153.0999999999999
 20
84.35000000000002
 30
0
 11
164.5999999999999
 21
84.35000000000002
 31
0
  0
LINE
  8
1
 62
7
 10
153.0999999999999
 20
84.50000000000001
 30
0
 11
153.0999999999999
 21
84.35000000000002
 31
0
  0
LINE
  8
1
 62
7
 10
138.3499999999999
 20
30.00000000000001
 30
0
 11
136.5999999999999
 21
30.00000000000001
 31
0
  0
LINE
  8
1
 62
7
 10
138.3499999999999
 20
29.00000000000001
 30
0
 11
139.5999999999999
 21
29.00000000000001
 31
0
  0
LINE
  8
1
 62
7
 10
152.5999999999999
 20
33.50000000000001
 30
0
 11
155.7999999999999
 21
33.50000000000001
 31
0
  0
LINE
  8
1
 62
7
 10
155.7999999999999
 20
33.50000000000001
 30
0
 11
155.7999999999999
 21
42.00000000000002
 31
0
  0
LINE
  8
1
 62
7
 10
155.7999999999999
 20
42.00000000000002
 30
0
 11
167.2999999999999
 21
42.00000000000002
 31
0
  0
LINE
  8
1
 62
7
 10
167.2999999999999
 20
84.85000000000002
 30
0
 11
155.7999999999999
 21
84.85000000000002
 31
0
  0
LINE
  8
1
 62
7
 10
155.7999999999999
 20
89
 30
0
 11
169.2019237886465
 21
89
 31
0
  0
LINE
  8
1
 62
7
 10
169.2019237886465
 20
89
 30
0
 11
171.7999999999999
 21
84.5
 31
0
  0
LINE
  8
1
 62
7
 10
171.7999999999999
 20
84.5
 30
0
 11
174.2999999999999
 21
84.5
 31
0
  0
LINE
  8
1
 62
7
 10
174.2999999999999
 20
84.5
 30
0
 11
174.2999999999999
 21
40.51100000000002
 31
0
  0
LINE
  8
1
 62
7
 10
147.9749999999999
 20
39.49759526419165
 30
0
 11
152.5999999999999
 21
39.49759526419163
 31
0
  0
LINE
  8
1
 62
7
 10
144.2249999999999
 20
39.49759526419165
 30
0
 11
139.5999999999999
 21
39.49759526419163
 31
0
  0
LINE
  8
1
 62
7
 10
144.2249999999999
 20
33.00240473580836
 30
0
 11
139.5999999999999
 21
33.00240473580838
 31
0
  0
LINE
  8
1
 62
7
 10
147.9749999999999
 20
33.00240473580836
 30
0
 11
152.5999999999999
 21
33.00240473580838
 31
0
  0
LINE
  8
1
 62
7
 10
151.2999999999999
 20
32.50000000000001
 30
0
 11
151.2999999999999
 21
40.00000000000001
 31
0
  0
LINE
  8
1
 62
7
 10
140.8999999999998
 20
32.50000000000001
 30
0
 11
140.8999999999998
 21
40.00000000000001
 31
0
  0
LINE
  8
1
 62
7
 10
140.8999999999998
 20
-40.00000000000002
 30
0
 11
140.8999999999998
 21
-32.50000000000001
 31
0
  0
LINE
  8
1
 62
7
 10
151.2999999999999
 20
-40.00000000000002
 30
0
 11
151.2999999999999
 21
-32.50000000000001
 31
0
  0
LINE
  8
1
 62
7
 10
152.5999999999999
 20
-33.00240473580839
 30
0
 11
147.9749999999999
 21
-33.00240473580836
 31
0
  0
LINE
  8
1
 62
7
 10
139.5999999999999
 20
-33.00240473580839
 30
0
 11
144.2249999999999
 21
-33.00240473580836
 31
0
  0
LINE
  8
1
 62
7
 10
139.5999999999999
 20
-39.49759526419162
 30
0
 11
144.2249999999999
 21
-39.49759526419168
 31
0
  0
LINE
  8
1
 62
7
 10
152.5999999999999
 20
-39.49759526419162
 30
0
 11
147.9749999999999
 21
-39.49759526419168
 31
0
  0
LINE
  8
1
 62
7
 10
172.2999999999999
 20
-37.25000000000001
 30
0
 11
172.2999999999999
 21
-42.00000000000002
 31
0
  0
LINE
  8
1
 62
7
 10
172.2999999999999
 20
-42.00000000000002
 30
0
 11
174.2999999999999
 21
-42.00000000000002
 31
0
  0
LINE
  8
1
 62
7
 10
174.2999999999999
 20
-84.50000000000003
 30
0
 11
171.7999999999999
 21
-84.50000000000003
 31
0
  0
LINE
  8
1
 62
7
 10
171.7999999999999
 20
-84.50000000000003
 30
0
 11
169.2019237886465
 21
-89.00000000000003
 31
0
  0
LINE
  8
1
 62
7
 10
169.2019237886465
 20
-89.00000000000003
 30
0
 11
155.7999999999999
 21
-89.00000000000003
 31
0
  0
LINE
  8
1
 62
7
 10
155.7999999999999
 20
-89.00000000000003
 30
0
 11
155.7999999999999
 21
-84.84999999999995
 31
0
  0
LINE
  8
1
 62
7
 10
155.7999999999999
 20
-84.84999999999995
 30
0
 11
167.2999999999999
 21
-84.84999999999994
 31
0
  0
LINE
  8
1
 62
7
 10
167.2999999999999
 20
-41.99999999999996
 30
0
 11
155.7999999999999
 21
-41.99999999999996
 31
0
  0
LINE
  8
1
 62
7
 10
155.7999999999999
 20
-33.50000000000001
 30
0
 11
152.5999999999999
 21
-33.50000000000001
 31
0
  0
LINE
  8
1
 62
7
 10
136.5999999999999
 20
-30.00000000000001
 30
0
 11
138.3499999999999
 21
-30.00000000000001
 31
0
  0
LINE
  8
1
 62
7
 10
164.5999999999999
 20
42.50000000000002
 30
0
 11
154.5999999999999
 21
42.50000000000002
 31
0
  0
LINE
  8
1
 62
7
 10
164.5999999999999
 20
-42.49999999999996
 30
0
 11
154.5999999999999
 21
-42.49999999999996
 31
0
  0
LINE
  8
1
 62
7
 10
164.5999999999999
 20
-42.49999999999996
 30
0
 11
164.5999999999999
 21
-84.34999999999994
 31
0
  0
LINE
  8
1
 62
7
 10
154.5999999999999
 20
-42.49999999999996
 30
0
 11
154.5999999999999
 21
-44.24999999999996
 31
0
  0
LINE
  8
1
 62
7
 10
139.5999999999999
 20
-29.00000000000001
 30
0
 11
138.3499999999999
 21
-29.00000000000001
 31
0
  0
LINE
  8
1
 62
7
 10
152.5999999999999
 20
44.25000000000002
 30
0
 11
154.5999999999999
 21
44.25000000000001
 31
0
  0
LINE
  8
1
 62
7
 10
152.5999999999999
 20
-44.24999999999996
 30
0
 11
154.5999999999999
 21
-44.24999999999996
 31
0
  0
LINE
  8
1
 62
7
 10
152.5999999999999
 20
37.25000000000002
 30
0
 11
154.5999999999999
 21
37.25000000000002
 31
0
  0
LINE
  8
1
 62
7
 10
152.5999999999999
 20
-36.24999999999998
 30
0
 11
154.5999999999999
 21
-36.24999999999998
 31
0
  0
LINE
  8
1
 62
7
 10
154.5999999999999
 20
44.25000000000001
 30
0
 11
154.5999999999999
 21
35.14899999999998
 31
0
  0
LINE
  8
1
 62
7
 10
154.5999999999999
 20
44.25000000000001
 30
0
 11
152.5999999999999
 21
44.25000000000002
 31
0
  0
LINE
  8
1
 62
7
 10
154.5999999999999
 20
-42.49999999999996
 30
0
 11
154.5999999999999
 21
-35.14899999999998
 31
0
  0
LINE
  8
1
 62
7
 10
139.5999999999999
 20
29.00000000000001
 30
0
 11
139.5999999999999
 21
110
 31
0
  0
LINE
  8
1
 62
7
 10
174.2999999999999
 20
-40.51100000000002
 30
0
 11
174.2999999999999
 21
-84.50000000000003
 31
0
  0
LINE
  8
1
 62
7
 10
152.2999999999999
 20
84.50000000000001
 30
0
 11
152.2999999999999
 21
125.8757933971991
 31
0
  0
LINE
  8
1
 62
7
 10
152.2999999999999
 20
125.8757933971991
 30
0
 11
149.8999999999998
 21
125.8757933971991
 31
0
  0
LINE
  8
1
 62
3
  6
DASHDOT
 10
406.0695089425422
 20
25.33001642253658
 30
0
 11
422.716171898272
 21
34.94097176113615
 31
0
  0
LINE
  8
1
 62
3
  6
DASHDOT
 10
301.8446717092455
 20
34.84422141035223
 30
0
 11
318.4720427307576
 21
25.24440427516643
 31
0
  0
LINE
  8
1
 62
3
  6
DASHDOT
 10
-1.607036361230712
 20
100
 30
0
 11
5.038570362046016
 21
100
 31
0
  0
LINE
  8
1
 62
7
 10
152.5999999999999
 20
-30.00000000000001
 30
0
 11
139.5999999999999
 21
-30.00000000000001
 31
0
  0
LINE
  8
1
 62
7
 10
152.5999999999999
 20
-30.00000000000001
 30
0
 11
152.5999999999999
 21
-44.24999999999996
 31
0
  0
LINE
  8
1
 62
7
 10
136.6999999999998
 20
-67.49999999999994
 30
0
 11
136.6999999999998
 21
-35.14899999999998
 31
0
  0
LINE
  8
1
 62
7
 10
152.5999999999999
 20
44.25000000000002
 30
0
 11
152.5999999999999
 21
30.00000000000001
 31
0
  0
LINE
  8
1
 62
7
 10
152.5999999999999
 20
30.00000000000001
 30
0
 11
139.5999999999999
 21
30.00000000000001
 31
0
  0
LINE
  8
1
 62
7
 10
136.5999999999999
 20
30.00000000000001
 30
0
 11
136.5999999999999
 21
-30.00000000000001
 31
0
  0
LINE
  8
1
 62
7
 10
182.1999999999999
 20
63.89003380467385
 30
0
 11
182.1999999999999
 21
84
 31
0
  0
LINE
  8
1
 62
7
 10
182
 20
-66.5
 30
0
 11
181.2
 21
-66.5
 31
0
  0
LINE
  8
1
 62
7
 10
181.2
 20
-53.49999999999999
 30
0
 11
182
 21
-53.49999999999999
 31
0
  0
LINE
  8
1
 62
7
 10
181.2
 20
-52.99999999999999
 30
0
 11
180.4
 21
-52.99999999999999
 31
0
  0
LINE
  8
1
 62
7
 10
180.4
 20
-52.99999999999999
 30
0
 11
180.4
 21
-67
 31
0
  0
LINE
  8
1
 62
7
 10
180.4
 20
-67
 30
0
 11
181.2
 21
-67
 31
0
  0
LINE
  8
1
 62
7
 10
181.2
 20
-67
 30
0
 11
181.2
 21
-52.99999999999999
 31
0
  0
LINE
  8
1
 62
7
 10
176
 20
-55.99999999999999
 30
0
 11
176
 21
-63.99999999999999
 31
0
  0
LINE
  8
1
 62
7
 10
200.4
 20
-55.99999999999999
 30
0
 11
201.2
 21
-56.79999999999999
 31
0
  0
LINE
  8
1
 62
7
 10
201.2
 20
-56.79999999999999
 30
0
 11
201.2
 21
-63.2
 31
0
  0
LINE
  8
1
 62
7
 10
201.2
 20
-63.2
 30
0
 11
200.4
 21
-63.99999999999999
 31
0
  0
LINE
  8
1
 62
7
 10
200.4
 20
-63.99999999999999
 30
0
 11
182
 21
-63.99999999999999
 31
0
  0
LINE
  8
1
 62
7
 10
200.4
 20
-55.99999999999999
 30
0
 11
200.4
 21
-63.99999999999999
 31
0
  0
LINE
  8
1
 62
3
 10
201.2
 20
-56.79999999999999
 30
0
 11
183.0856406460551
 21
-56.79999999999999
 31
0
  0
LINE
  8
1
 62
3
 10
183.0856406460551
 20
-56.79999999999999
 30
0
 11
182
 21
-56.17320508075689
 31
0
  0
LINE
  8
1
 62
3
 10
201.2
 20
-63.2
 30
0
 11
183.0856406460551
 21
-63.2
 31
0
  0
LINE
  8
1
 62
3
 10
183.0856406460551
 20
-63.2
 30
0
 11
182
 21
-63.82679491924309
 31
0
  0
LINE
  8
1
 62
3
 10
183.0856406460551
 20
-55.99999999999999
 30
0
 11
183.0856406460551
 21
-63.99999999999999
 31
0
  0
LINE
  8
1
 62
7
 10
182
 20
-56
 30
0
 11
200.4
 21
-55.99999999999999
 31
0
  0
LINE
  8
1
 62
7
 10
0.09999999999979536
 20
-30.00000000000001
 30
0
 11
-2.04641859014032e-013
 21
-30.00000000000001
 31
0
  0
LINE
  8
1
 62
7
 10
-2.04641859014032e-013
 20
30.00000000000001
 30
0
 11
0.09999999999979536
 21
30.00000000000001
 31
0
  0
LINE
  8
1
 62
7
 10
-2.04641859014032e-013
 20
-30.00000000000001
 30
0
 11
-2.04641859014032e-013
 21
30.00000000000001
 31
0
  0
LINE
  8
1
 62
7
 10
45.59999999999991
 20
63.89003380467385
 30
0
 11
45.59999999999991
 21
84
 31
0
  0
LINE
  8
1
 62
7
 10
45.4000000000002
 20
60
 30
0
 11
44.4000000000002
 21
60
 31
0
  0
LINE
  8
1
 62
7
 10
174.0999999999999
 20
15
 30
0
 11
136.5999999999999
 21
15
 31
0
  0
ARC
  8
1
 62
7
 10
-178.9979185138422
 20
0
 30
0
 40
84.9999999999999
 50
98.11592924080134
 51
81.88407075919866
  0
ARC
  8
1
 62
7
 10
-178.9979185138422
 20
0
 30
0
 40
88.99999999999999
 50
97.74887419236507
 51
82.25112580763494
  0
ARC
  8
1
 62
7
 10
-178.9979185138422
 20
0
 30
0
 40
67.49999999999996
 50
105.3610502180117
 51
74.6389497819882
  0
ARC
  8
1
 62
7
 10
-178.9979185138422
 20
0
 30
0
 40
14.99999999999999
 50
103.4933988215517
 51
76.50660117844831
  0
ARC
  8
1
 62
7
 10
362.1966335421549
 20
0
 30
0
 40
59.99999999999998
 50
287.182698115413
 51
12.81730188458694
  0
ARC
  8
1
 62
3
  6
DASHDOT
 10
362.1966335421549
 20
0
 30
0
 40
59.99999999999994
 50
18.66865836396707
 51
40.98236588402148
  0
ARC
  8
1
 62
3
  6
DASHDOT
 10
362.1966335421549
 20
0
 30
0
 40
60.00000000000006
 50
138.2123163320447
 51
162.2200626512815
  0
ARC
  8
1
 62
3
  6
DASHDOT
 10
362.1966335421549
 20
0
 30
0
 40
59.99999999999999
 50
258.420990785112
 51
281.7801609505234
  0
ARC
  8
1
 62
7
 10
450.5312247281676
 20
50.99999999999997
 30
0
 40
28.67018343059944
 50
187.3001618313574
 51
232.6998381686424
  0
ARC
  8
1
 62
7
 10
409.1966335421548
 20
-3.552713678800501e-014
 30
0
 40
37
 50
359.9999999999999
 51
49.64006324378057
  0
ARC
  8
1
 62
7
 10
407.0253949562834
 20
-3.922008423644641
 30
0
 40
22.00000000000001
 50
354.9999999999999
 51
86.70031372287095
  0
ARC
  8
1
 62
7
 10
362.1966335421549
 20
0
 30
0
 40
84.00000000000003
 50
299.9999999999999
 51
359.9999999999999
  0
ARC
  8
1
 62
7
 10
362.1966335421549
 20
0
 30
0
 40
66.99999999999989
 50
304.9999999999998
 51
355
  0
ARC
  8
1
 62
7
 10
362.1966335421549
 20
0
 30
0
 40
49.49999999999989
 50
21.37528431144579
 51
29.99999999999996
  0
ARC
  8
1
 62
7
 10
362.1966335421549
 20
0
 30
0
 40
49.49999999999994
 50
29.99999999999996
 51
38.6247156885543
  0
ARC
  8
1
 62
7
 10
362.1966335421549
 20
0
 30
0
 40
83.99999999999997
 50
60.00000000000009
 51
120
  0
ARC
  8
1
 62
7
 10
381.2144553204864
 20
40.78385041664926
 30
0
 40
21.99999999999994
 50
333.2996862771291
 51
65.00000000000023
  0
ARC
  8
1
 62
7
 10
385.6966335421549
 20
40.70319397786863
 30
0
 40
36.99999999999988
 50
10.35993675621946
 51
60.00000000000018
  0
ARC
  8
1
 62
7
 10
362.1966335421548
 20
-102
 30
0
 40
28.67018343059946
 50
67.30016183135717
 51
112.6998381686426
  0
ARC
  8
1
 62
7
 10
338.6966335421548
 20
-40.7031939778686
 30
0
 40
37.00000000000002
 50
240
 51
289.6400632437805
  0
ARC
  8
1
 62
7
 10
336.3856939063578
 20
-36.86184199300461
 30
0
 40
22.00000000000007
 50
234.9999999999998
 51
326.7003137228708
  0
ARC
  8
1
 62
7
 10
362.1966335421549
 20
0
 30
0
 40
67.00000000000009
 50
185
 51
234.9999999999999
  0
ARC
  8
1
 62
7
 10
362.1966335421549
 20
0
 30
0
 40
49.50000000000005
 50
261.3752843114457
 51
278.6247156885542
  0
ARC
  8
1
 62
7
 10
388.0075731779519
 20
-36.86184199300462
 30
0
 40
21.99999999999993
 50
213.2996862771293
 51
304.9999999999997
  0
ARC
  8
1
 62
7
 10
385.6966335421549
 20
-40.7031939778686
 30
0
 40
36.99999999999999
 50
250.3599367562195
 51
299.9999999999998
  0
ARC
  8
1
 62
7
 10
315.1966335421548
 20
-1.4210854715202e-014
 30
0
 40
37.00000000000001
 50
130.3599367562194
 51
180
  0
ARC
  8
1
 62
7
 10
317.3678721280263
 20
-3.922008423644627
 30
0
 40
21.99999999999998
 50
93.29968627712937
 51
185.0000000000001
  0
ARC
  8
1
 62
7
 10
362.1966335421549
 20
0
 30
0
 40
84.00000000000011
 50
180
 51
239.9999999999999
  0
ARC
  8
1
 62
7
 10
362.1966335421549
 20
0
 30
0
 40
49.50000000000001
 50
141.3752843114458
 51
158.6247156885544
  0
ARC
  8
1
 62
7
 10
362.1966335421549
 20
0
 30
0
 40
66.99999999999997
 50
65.00000000000007
 51
115.0000000000001
  0
ARC
  8
1
 62
7
 10
343.1788117638234
 20
40.78385041664926
 30
0
 40
21.99999999999995
 50
115.0000000000001
 51
206.700313722871
  0
ARC
  8
1
 62
7
 10
338.6966335421548
 20
40.70319397786863
 30
0
 40
36.99999999999994
 50
119.9999999999998
 51
169.6400632437806
  0
ARC
  8
1
 62
7
 10
273.8620423561421
 20
51
 30
0
 40
28.67018343059936
 50
307.3001618313574
 51
352.6998381686425
  0
ARC
  8
1
 62
7
 10
362.1966335421549
 20
0
 30
0
 40
59.9999999999999
 50
47.18269811541311
 51
132.817301884587
  0
ARC
  8
1
 62
7
 10
362.1966335421549
 20
0
 30
0
 40
60.00000000000013
 50
167.182698115413
 51
252.8173018845867
  0
ARC
  8
1
 62
7
 10
362.1966335421549
 20
0
 30
0
 40
15
 50
270
 51
0
  0
ARC
  8
1
 62
7
 10
362.1966335421549
 20
0
 30
0
 40
15
 50
0
 51
76.50660117844831
  0
ARC
  8
1
 62
7
 10
362.1966335421549
 20
0
 30
0
 40
14.99999999999999
 50
103.4933988215517
 51
270
  0
ARC
  8
1
 62
7
 10
352.1966335421549
 20
108
 30
0
 40
2
 50
90
 51
180
  0
ARC
  8
1
 62
7
 10
372.1966335421548
 20
108
 30
0
 40
2
 50
0
 51
90
  0
ARC
  8
1
 62
7
 10
147.5999999999999
 20
-49.99999999999996
 30
0
 40
8.000000000000039
 50
110.3641348063186
 51
180
  0
ARC
  8
1
 62
7
 10
147.5999999999999
 20
50.00000000000001
 30
0
 40
8
 50
180
 51
249.6358651936813
  0
ARC
  8
1
 62
7
 10
-168.9979185138422
 20
108
 30
0
 40
2
 50
0
 51
90
  0
ARC
  8
1
 62
7
 10
-188.9979185138422
 20
108
 30
0
 40
2
 50
90
 51
180
  0
ARC
  8
1
 62
7
 10
-158.9979185138422
 20
72.80281587960728
 30
0
 40
8
 50
180
 51
254.6389497819884
  0
ARC
  8
1
 62
7
 10
-198.9979185138422
 20
72.80281587960728
 30
0
 40
8.000000000000023
 50
285.3610502180128
 51
0
  0
ARC
  8
1
 62
7
 10
11
 20
-76.49999999999994
 30
0
 40
8
 50
180
 51
270
  0
ARC
  8
1
 62
7
 10
11
 20
76.50000000000001
 30
0
 40
8
 50
90
 51
180
  0
ARC
  8
1
 62
7
 10
147.5999999999999
 20
-76.49999999999994
 30
0
 40
8
 50
180
 51
270
  0
ARC
  8
1
 62
7
 10
147.5999999999999
 20
76.50000000000001
 30
0
 40
8
 50
90
 51
180
  0
ARC
  8
1
 62
7
 10
182.149790660572
 20
-60.29302630217218
 30
0
 40
7.500000000000019
 50
103.4917541946825
 51
145.081999759736
  0
ARC
  8
1
 62
7
 10
182.149790660572
 20
-59.70697369782776
 30
0
 40
7.500000000000073
 50
214.9180002402643
 51
256.5082458053176
  0
CIRCLE
  8
1
 62
7
 10
-178.9979185138422
 20
0
 30
0
 40
30.00048462504759
  0
CIRCLE
  8
1
 62
7
 10
-178.9979185138422
 20
0
 30
0
 40
38.75
  0
CIRCLE
  8
1
 62
7
 10
-178.9979185138422
 20
100
 30
0
 40
4.25
  0
CIRCLE
  8
1
 62
7
 10
362.1966335421549
 20
0
 30
0
 40
41.50000000000006
  0
CIRCLE
  8
1
 62
7
 10
362.1966335421549
 20
0
 30
0
 40
37.25000000000006
  0
CIRCLE
  8
1
 62
7
 10
362.1966335421549
 20
0
 30
0
 40
85.00000000000006
  0
CIRCLE
  8
1
 62
7
 10
414.1581577692212
 20
30
 30
0
 40
3
  0
CIRCLE
  8
1
 62
7
 10
362.1966335421549
 20
-60.00000000000001
 30
0
 40
3
  0
CIRCLE
  8
1
 62
7
 10
414.1581577692212
 20
30
 30
0
 40
4
  0
CIRCLE
  8
1
 62
7
 10
362.1966335421549
 20
-60.00000000000001
 30
0
 40
4
  0
CIRCLE
  8
1
 62
7
 10
414.1581577692212
 20
30
 30
0
 40
8
  0
CIRCLE
  8
1
 62
7
 10
362.1966335421549
 20
-60.00000000000001
 30
0
 40
8
  0
CIRCLE
  8
1
 62
7
 10
427.58155152788
 20
-37.75000000000004
 30
0
 40
6.650000000000034
  0
CIRCLE
  8
1
 62
7
 10
296.8117155564297
 20
-37.74999999999999
 30
0
 40
6.649999999999977
  0
CIRCLE
  8
1
 62
7
 10
310.2351093150885
 20
30.00000000000001
 30
0
 40
3
  0
CIRCLE
  8
1
 62
7
 10
310.2351093150885
 20
30.00000000000001
 30
0
 40
4
  0
CIRCLE
  8
1
 62
7
 10
310.2351093150885
 20
30.00000000000001
 30
0
 40
8
  0
CIRCLE
  8
1
 62
7
 10
362.1966335421549
 20
75.5
 30
0
 40
6.650000000000148
  0
CIRCLE
  8
1
 62
7
 10
362.1966335421549
 20
0
 30
0
 40
88.99999999999989
  0
CIRCLE
  8
1
 62
7
 10
362.1966335421549
 20
100
 30
0
 40
4.25
  0
CIRCLE
  8
1
 62
7
 10
146.0999999999999
 20
-36.25000000000001
 30
0
 40
3.750000000000024
  0
CIRCLE
  8
1
 62
7
 10
146.0999999999999
 20
36.25000000000001
 30
0
 40
3.75
  0
TEXT
  8
1
 62
7
 10
-255.496251018383
 20
195.5721157917673
 30
0
 40
9
  1
TMC 10
 41
0.9
  7
SIMPLEX
  0
TEXT
  8
1
 62
7
 10
-254.697952322861
 20
179.4840249231173
 30
0
 40
9
  1
DC1405
 41
0.9
  7
SIMPLEX
  0
ENDSEC
  0
EOF
