  0
SECTION
  2
HEADER
  9
$ACADVER
  1
AC1009
  9
$INSBASE
 10
0
 20
0
  9
$EXTMIN
 10
-96.03367812446982
 20
-67.49999999999999
  9
$EXTMAX
 10
205.4787246395438
 20
120.6995951242666
  9
$LIMMIN
 10
-96.03367812446982
 20
-67.49999999999999
  9
$LIMMAX
 10
205.4787246395438
 20
120.6995951242666
  9
$VIEWCTR
 10
10
 20
10
  9
$VIEWSIZE
 40
10
  9
$SNAPMODE
 70
0
  9
$SNAPUNIT
 10
1
 20
1
  9
$SNAPBASE
 10
0
 20
0
  9
$SNAPANG
 50
0
  9
$SNAPSTYLE
 70
0
  9
$SNAPISOPAIR
 70
0
  9
$GRIDMODE
 70
0
  9
$GRIDUNIT
 10
0
 20
0
  9
$ORTHOMODE
 70
0
  9
$REGENMODE
 70
1
  9
$FILLMODE
 70
1
  9
$QTEXTMODE
 70
0
  9
$DRAGMODE
 70
2
  9
$LTSCALE
 40
1
  9
$OSMODE
 70
0
  9
$ATTMODE
 70
1
  9
$TEXTSIZE
 40
3.5
  9
$TRACEWID
 40
0.5
  9
$TEXTSTYLE
  7
STANDARD
  9
$CLAYER
  8
0
  9
$CELTYPE
  6
BYLAYER
  9
$CECOLOR
 62
256
  9
$DIMSCALE
 40
1
  9
$DIMASZ
 40
0.18
  9
$DIMEXO
 40
0.0625
  9
$DIMDLI
 40
0.38
  9
$DIMRND
 40
0
  9
$DIMDLE
 40
0
  9
$DIMEXE
 40
0.18
  9
$DIMTP
 40
0
  9
$DIMTM
 40
0
  9
$DIMTXT
 40
0.18
  9
$DIMCEN
 40
0.09
  9
$DIMTSZ
 40
0
  9
$DIMTOL
 70
0
  9
$DIMLIM
 70
0
  9
$DIMTIH
 70
1
  9
$DIMTOH
 70
1
  9
$DIMSE1
 70
0
  9
$DIMSE2
 70
0
  9
$DIMTAD
 70
0
  9
$DIMZIN
 70
0
  9
$DIMBLK
  1

  9
$DIMASO
 70
1
  9
$DIMSHO
 70
1
  9
$DIMPOST
  1

  9
$DIMAPOST
  1

  9
$DIMALT
 70
0
  9
$DIMALTD
 70
2
  9
$DIMALTF
 40
25.4
  9
$DIMLFAC
 40
1
  9
$DIMTOFL
 70
0
  9
$DIMTVP
 40
0
  9
$DIMTIX
 70
0
  9
$DIMSOXD
 70
0
  9
$DIMSAH
 70
0
  9
$DIMBLK1
  1

  9
$DIMBLK2
  1

  9
$DIMSTYLE
  2
*UNNAMED
  9
$DIMCLRD
 70
0
  9
$DIMCLRE
 70
0
  9
$DIMCLRT
 70
0
  9
$DIMTFAC
 40
1
  9
$DIMGAP
 40
0.09
  9
$LUNITS
 70
2
  9
$LUPREC
 70
4
  9
$AXISMODE
 70
0
  9
$AXISUNIT
 10
0
 20
0
  9
$SKETCHINC
 40
0.1
  9
$FILLETRAD
 40
2
  9
$AUNITS
 70
0
  9
$AUPREC
 70
0
  9
$MENU
  1
ACAD
  9
$ELEVATION
 40
0
  9
$THICKNESS
 40
0
  9
$VIEWDIR
 10
0
 20
0
 30
1
  9
$LIMCHECK
 70
0
  9
$BLIPMODE
 70
1
  9
$CHAMFERA
 40
0
  9
$CHAMFERB
 40
0
  9
$FASTZOOM
 70
1
  9
$SKPOLY
 70
0
  9
$ANGBASE
 50
0
  9
$ANGDIR
 70
0
  9
$PDMODE
 70
0
  9
$PDSIZE
 40
0
  9
$PLINEWID
 40
0
  9
$COORDS
 70
2
  0
ENDSEC
  0
SECTION
  2
TABLES
  0
TABLE
  2
DIMSTYLE
 70
0
  0
ENDTAB
  0
TABLE
  2
LTYPE
 70
9
  0
LTYPE
  2
CONTINUOUS
 70
64
  3
Solid line
 72
65
 73
0
 40
0
  0
LTYPE
  2
BORDER
 70
64
  3
__ __ . __ __ .
 72
65
 73
6
 40
13.88543960097431
 49
3.967268457421231
 49
-1.983634228710616
 49
3.967268457421231
 49
-1.983634228710616
 49
0
 49
-1.983634228710616
  0
LTYPE
  2
CENTER
 70
64
  3
____ _ ____ _
 72
65
 73
4
 40
15.86907382968493
 49
9.918171143553078
 49
-1.983634228710616
 49
1.983634228710616
 49
-1.983634228710616
  0
LTYPE
  2
DASHDOT
 70
64
  3
__ . __ . __ .
 72
65
 73
4
 40
7.934536914842463
 49
3.967268457421231
 49
-1.983634228710616
 49
0
 49
-1.983634228710616
  0
LTYPE
  2
DASHED
 70
64
  3
__ __ __ __ __
 72
65
 73
2
 40
5.950902686131848
 49
3.967268457421231
 49
-1.983634228710616
  0
LTYPE
  2
DIVIDE
 70
64
  3
__ . . __ . . 
 72
65
 73
6
 40
9.918171143553078
 49
3.967268457421231
 49
-1.983634228710616
 49
0
 49
-1.983634228710616
 49
0
 49
-1.983634228710616
  0
LTYPE
  2
DOT
 70
64
  3
..............
 72
65
 73
4
 40
3.967268457421231
 49
0
 49
-1.983634228710616
 49
0
 49
-1.983634228710616
  0
LTYPE
  2
HIDDEN
 70
64
  3
_ _ _ _ _ _ _
 72
65
 73
2
 40
2.975451343065924
 49
1.983634228710616
 49
-0.9918171143553078
  0
LTYPE
  2
PHANTOM
 70
64
  3
_____ _ _ _____ _ _ 
 72
65
 73
6
 40
19.83634228710616
 49
9.918171143553078
 49
-1.983634228710616
 49
1.983634228710616
 49
-1.983634228710616
 49
1.983634228710616
 49
-1.983634228710616
  0
ENDTAB
  0
TABLE
  2
LAYER
 70
3
  0
LAYER
  2
1
 70
0
 62
7
  6
CONTINUOUS
  0
LAYER
  2
0
 70
0
 62
7
  6
CONTINUOUS
  0
ENDTAB
  0
TABLE
  2
STYLE
 70
4
  0
STYLE
  2
STANDARD
 70
0
 40
0
 41
1
 50
0
 71
0
 42
3.5
  3
txt
  4

  0
STYLE
  2
SIMPLEX
 70
0
 40
0
 41
1
 50
0
 71
0
 42
3.5
  3
simplex
  4

  0
STYLE
  2
COMPLEX
 70
0
 40
0
 41
1
 50
0
 71
0
 42
3.5
  3
complex
  4

  0
STYLE
  2
ITALIC
 70
0
 40
0
 41
1
 50
0
 71
0
 42
3.5
  3
italic
  4

  0
ENDTAB
  0
TABLE
  2
VIEW
 70
0
  0
ENDTAB
  0
ENDSEC
  0
SECTION
  2
BLOCKS
  0
ENDSEC
  0
SECTION
  2
ENTITIES
  0
POINT
  8
1
 62
7
  6
DOT
 10
148.9787246395438
 20
-9.999999999999929
 30
0
  0
LINE
  8
1
 62
7
 10
29.50000000000001
 20
10.00000000000001
 30
0
 11
3.5
 21
10.00000000000001
 31
0
  0
LINE
  8
1
 62
7
 10
-78.19999999999996
 20
53.35
 30
0
 11
-77.10000000000011
 21
53.35
 31
0
  0
LINE
  8
1
 62
7
 10
-78.19999999999996
 20
-53.49999999999999
 30
0
 11
-84.49999999999992
 21
-53.49999999999999
 31
0
  0
LINE
  8
1
 62
7
 10
-78.19999999999996
 20
-53.35
 30
0
 11
-77.10000000000011
 21
-53.35
 31
0
  0
LINE
  8
1
 62
7
 10
-78.19999999999996
 20
-53.49999999999999
 30
0
 11
-78.19999999999996
 21
-53.35
 31
0
  0
LINE
  8
1
 62
7
 10
-78.19999999999996
 20
53.35
 30
0
 11
-78.19999999999996
 21
53.5
 31
0
  0
LINE
  8
1
 62
7
 10
34.80000000000001
 20
-35.50000000000009
 30
0
 11
45.60000000000001
 21
-35.50000000000009
 31
0
  0
LINE
  8
1
 62
3
 10
35.73923048454134
 20
-35.50000000000009
 30
0
 11
35.73923048454134
 21
-40.50000000000009
 31
0
  0
LINE
  8
1
 62
3
 10
35.73923048454134
 20
-39.90000000000009
 30
0
 11
34.80000000000001
 21
-40.44226497308113
 31
0
  0
LINE
  8
1
 62
3
 10
46.20000000000001
 20
-39.90000000000009
 30
0
 11
35.73923048454134
 21
-39.90000000000009
 31
0
  0
LINE
  8
1
 62
3
 10
35.73923048454134
 20
-36.10000000000009
 30
0
 11
34.80000000000001
 21
-35.55773502691906
 31
0
  0
LINE
  8
1
 62
3
 10
46.20000000000001
 20
-36.10000000000009
 30
0
 11
35.73923048454134
 21
-36.10000000000009
 31
0
  0
LINE
  8
1
 62
7
 10
45.60000000000001
 20
-35.50000000000009
 30
0
 11
45.60000000000001
 21
-40.50000000000009
 31
0
  0
LINE
  8
1
 62
7
 10
45.60000000000001
 20
-40.50000000000009
 30
0
 11
34.80000000000001
 21
-40.50000000000009
 31
0
  0
LINE
  8
1
 62
7
 10
46.20000000000001
 20
-39.90000000000009
 30
0
 11
45.60000000000001
 21
-40.50000000000009
 31
0
  0
LINE
  8
1
 62
7
 10
46.20000000000001
 20
-36.10000000000009
 30
0
 11
46.20000000000001
 21
-39.90000000000009
 31
0
  0
LINE
  8
1
 62
7
 10
45.60000000000001
 20
-35.50000000000009
 30
0
 11
46.20000000000001
 21
-36.10000000000009
 31
0
  0
LINE
  8
1
 62
7
 10
30.65000000000001
 20
-35.50000000000009
 30
0
 11
30.65000000000001
 21
-40.50000000000009
 31
0
  0
LINE
  8
1
 62
7
 10
34.20000000000001
 20
-42.75000000000009
 30
0
 11
34.20000000000001
 21
-33.25000000000009
 31
0
  0
LINE
  8
1
 62
7
 10
33.70000000000001
 20
-42.75000000000009
 30
0
 11
34.20000000000001
 21
-42.75000000000009
 31
0
  0
LINE
  8
1
 62
7
 10
33.70000000000001
 20
-33.25000000000009
 30
0
 11
33.70000000000001
 21
-42.75000000000009
 31
0
  0
LINE
  8
1
 62
7
 10
34.20000000000001
 20
-33.25000000000009
 30
0
 11
33.70000000000001
 21
-33.25000000000009
 31
0
  0
LINE
  8
1
 62
7
 10
34.20000000000001
 20
-33.50000000000009
 30
0
 11
34.80000000000001
 21
-33.50000000000009
 31
0
  0
LINE
  8
1
 62
7
 10
34.80000000000001
 20
-42.50000000000009
 30
0
 11
34.20000000000001
 21
-42.50000000000009
 31
0
  0
LINE
  8
1
 62
7
 10
29.89999999999999
 20
-53.49999999999999
 30
0
 11
29.89999999999998
 21
-25.22099999999999
 31
0
  0
LINE
  8
1
 62
7
 10
15.39999999999995
 20
53.85
 30
0
 11
15.39999999999995
 21
56.49999999999999
 31
0
  0
LINE
  8
1
 62
7
 10
14.30000000000016
 20
53.35
 30
0
 11
14.30000000000016
 21
53.5
 31
0
  0
LINE
  8
1
 62
7
 10
23.30000000000016
 20
53.35
 30
0
 11
14.30000000000016
 21
53.35
 31
0
  0
LINE
  8
1
 62
7
 10
15.39999999999995
 20
-53.85
 30
0
 11
15.39999999999995
 21
-56.49999999999999
 31
0
  0
LINE
  8
1
 62
7
 10
14.30000000000016
 20
-53.49999999999999
 30
0
 11
8.000000000000199
 21
-53.49999999999999
 31
0
  0
LINE
  8
1
 62
7
 10
14.30000000000016
 20
-53.35
 30
0
 11
23.30000000000016
 21
-53.35
 31
0
  0
LINE
  8
1
 62
7
 10
14.30000000000016
 20
-53.49999999999999
 30
0
 11
14.30000000000016
 21
-53.35
 31
0
  0
LINE
  8
1
 62
3
  6
DASHDOT
 10
148.9787246395438
 20
-45.35657624695402
 30
0
 11
148.9787246395438
 21
-29.99999999999987
 31
0
  0
LINE
  8
1
 62
7
 10
34.09999999999999
 20
-54.00000000000009
 30
0
 11
34.09999999999999
 21
-43.25000000000009
 31
0
  0
LINE
  8
1
 62
7
 10
0
 20
-67.49999999999999
 30
0
 11
0
 21
50
 31
0
  0
LINE
  8
1
 62
7
 10
37.99999999999999
 20
-40.50000000000009
 30
0
 11
37.99999999999999
 21
-43.50000000000009
 31
0
  0
LINE
  8
1
 62
7
 10
37.99999999999999
 20
-32.50000000000009
 30
0
 11
37.99999999999999
 21
-35.50000000000009
 31
0
  0
LINE
  8
1
 62
7
 10
28.39999999999999
 20
23.49999999999999
 30
0
 11
29.50000000000001
 21
23.49999999999999
 31
0
  0
LINE
  8
1
 62
7
 10
3.5
 20
-10.00000000000001
 30
0
 11
29.50000000000001
 21
-10.00000000000001
 31
0
  0
LINE
  8
1
 62
7
 10
3.5
 20
11.99999999999999
 30
0
 11
29.50000000000001
 21
11.99999999999999
 31
0
  0
LINE
  8
1
 62
7
 10
3.5
 20
20.49999999999999
 30
0
 11
3.500000000000199
 21
-20.5
 31
0
  0
LINE
  8
1
 62
7
 10
15.39999999999995
 20
-27
 30
0
 11
15.39999999999995
 21
-20.50000000000007
 31
0
  0
LINE
  8
1
 62
7
 10
29.50000000000001
 20
-23.50000000000007
 30
0
 11
29.50000000000001
 21
23.49999999999999
 31
0
  0
LINE
  8
1
 62
7
 10
15.39999999999995
 20
20.49999999999999
 30
0
 11
3.5
 21
20.49999999999999
 31
0
  0
LINE
  8
1
 62
7
 10
15.39999999999995
 20
20.49999999999999
 30
0
 11
15.39999999999995
 21
27.19999999999998
 31
0
  0
LINE
  8
1
 62
7
 10
15.39999999999995
 20
27.19999999999998
 30
0
 11
24.89999999999999
 21
27.19999999999998
 31
0
  0
LINE
  8
1
 62
7
 10
24.89999999999999
 20
27.19999999999998
 30
0
 11
24.89999999999999
 21
53.85000000000001
 31
0
  0
LINE
  8
1
 62
7
 10
24.89999999999999
 20
53.85000000000001
 30
0
 11
15.39999999999995
 21
53.85
 31
0
  0
LINE
  8
1
 62
7
 10
15.39999999999995
 20
56.49999999999999
 30
0
 11
26.66794919243112
 21
56.49999999999999
 31
0
  0
LINE
  8
1
 62
7
 10
26.66794919243112
 20
56.49999999999999
 30
0
 11
28.39999999999999
 21
53.49999999999999
 31
0
  0
LINE
  8
1
 62
7
 10
28.39999999999999
 20
53.49999999999999
 30
0
 11
29.89999999999998
 21
53.49999999999999
 31
0
  0
LINE
  8
1
 62
7
 10
29.89999999999998
 20
53.49999999999999
 30
0
 11
29.89999999999999
 21
25.22099999999999
 31
0
  0
LINE
  8
1
 62
7
 10
29.89999999999999
 20
26.99999999999999
 30
0
 11
28.39999999999999
 21
26.99999999999999
 31
0
  0
LINE
  8
1
 62
7
 10
28.39999999999999
 20
26.99999999999999
 30
0
 11
28.39999999999999
 21
23.49999999999999
 31
0
  0
LINE
  8
1
 62
7
 10
29.89999999999999
 20
-53.49999999999999
 30
0
 11
28.39999999999999
 21
-53.49999999999999
 31
0
  0
LINE
  8
1
 62
7
 10
28.39999999999999
 20
-53.49999999999999
 30
0
 11
26.66794919243112
 21
-56.49999999999999
 31
0
  0
LINE
  8
1
 62
7
 10
26.66794919243112
 20
-56.49999999999999
 30
0
 11
15.39999999999995
 21
-56.49999999999999
 31
0
  0
LINE
  8
1
 62
7
 10
15.39999999999995
 20
-53.85
 30
0
 11
24.89999999999999
 21
-53.84999999999999
 31
0
  0
LINE
  8
1
 62
7
 10
24.89999999999999
 20
-27
 30
0
 11
15.39999999999995
 21
-27
 31
0
  0
LINE
  8
1
 62
7
 10
24.89999999999999
 20
-27
 30
0
 11
24.89999999999999
 21
-53.84999999999999
 31
0
  0
LINE
  8
1
 62
7
 10
23.30000000000016
 20
-27.5
 30
0
 11
23.30000000000016
 21
-53.35
 31
0
  0
LINE
  8
1
 62
7
 10
5.602084238343892
 20
27.5
 30
0
 11
23.30000000000016
 21
27.5
 31
0
  0
LINE
  8
1
 62
7
 10
5.602084238343792
 20
-27.5
 30
0
 11
23.30000000000016
 21
-27.5
 31
0
  0
LINE
  8
1
 62
7
 10
23.30000000000016
 20
27.5
 30
0
 11
23.30000000000016
 21
53.35
 31
0
  0
LINE
  8
1
 62
7
 10
148.9787246395438
 20
78.69036320982664
 30
0
 11
148.9787246395438
 21
56.50000000000006
 31
0
  0
LINE
  8
1
 62
3
  6
DASHDOT
 10
174.959486753077
 20
15.00000000000003
 30
0
 11
188.0868130178907
 21
22.57906535273028
 31
0
  0
LINE
  8
1
 62
7
 10
98.97872463954381
 20
45.34589286804268
 30
0
 11
98.97872463954381
 21
26.3106442338458
 31
0
  0
LINE
  8
1
 62
7
 10
103.6328317715012
 20
-49.99999999999999
 30
0
 11
122.6680804056981
 21
-49.99999999999999
 31
0
  0
LINE
  8
1
 62
7
 10
198.9787246395438
 20
45.34589286804268
 30
0
 11
198.9787246395438
 21
26.31064423384582
 31
0
  0
LINE
  8
1
 62
7
 10
103.6328317715012
 20
50.00000000000006
 30
0
 11
122.668080405698
 21
50.00000000000006
 31
0
  0
LINE
  8
1
 62
3
  6
DASHDOT
 10
102.33223386646
 20
46.64649077308385
 30
0
 11
110.0636168358958
 21
38.91510780364811
 31
0
  0
LINE
  8
1
 62
3
  6
DASHDOT
 10
102.7340471925976
 20
-46.24467744694618
 30
0
 11
109.9209665726364
 21
-39.0577580669073
 31
0
  0
LINE
  8
1
 62
3
  6
DASHDOT
 10
188.4663737090471
 20
-39.48764906950329
 30
0
 11
196.0888639606035
 21
-47.11013932105969
 31
0
  0
LINE
  8
1
 62
3
  6
DASHDOT
 10
188.3237234457878
 20
39.3449988062441
 30
0
 11
195.6195355437061
 21
46.64081090416235
 31
0
  0
LINE
  8
1
 62
3
  6
DASHDOT
 10
109.6987773809957
 20
22.67828812347712
 30
0
 11
122.9979625260107
 21
15.00000000000006
 31
0
  0
LINE
  8
1
 62
7
 10
30.09999999999999
 20
54
 30
0
 11
34.09999999999999
 21
54
 31
0
  0
LINE
  8
1
 62
7
 10
34.09999999999999
 20
38
 30
0
 11
34.80000000000001
 21
38
 31
0
  0
LINE
  8
1
 62
7
 10
30.10000000000002
 20
26.5
 30
0
 11
34.80000000000004
 21
26.5
 31
0
  0
LINE
  8
1
 62
7
 10
34.09999999999999
 20
53
 30
0
 11
34.70000000000001
 21
53
 31
0
  0
LINE
  8
1
 62
7
 10
34.70000000000001
 20
40.54136836602152
 30
0
 11
35.40000000000003
 21
37.99999999999999
 31
0
  0
LINE
  8
1
 62
7
 10
34.09999999999999
 20
40.6124355652982
 30
0
 11
34.80000000000001
 21
38
 31
0
  0
LINE
  8
1
 62
7
 10
34.09999999999999
 20
38
 30
0
 11
34.09999999999999
 21
54
 31
0
  0
LINE
  8
1
 62
7
 10
34.70000000000001
 20
53
 30
0
 11
34.70000000000001
 21
40.54136836602152
 31
0
  0
LINE
  8
1
 62
7
 10
36.99999999999999
 20
51.5
 30
0
 11
36.99999999999999
 21
43.5
 31
0
  0
LINE
  8
1
 62
7
 10
34.70000000000001
 20
43
 30
0
 11
36.49999999999999
 21
43
 31
0
  0
LINE
  8
1
 62
7
 10
35.4
 20
52
 30
0
 11
35.40000000000003
 21
43
 31
0
  0
LINE
  8
1
 62
7
 10
36.49999999999999
 20
52
 30
0
 11
34.69999999999998
 21
52
 31
0
  0
LINE
  8
1
 62
7
 10
36.99999999999999
 20
51.5
 30
0
 11
36.49999999999999
 21
52
 31
0
  0
LINE
  8
1
 62
7
 10
36.99999999999999
 20
43.5
 30
0
 11
36.49999999999999
 21
43
 31
0
  0
LINE
  8
1
 62
7
 10
34.09999999999999
 20
42
 30
0
 11
34.70000000000004
 21
42
 31
0
  0
LINE
  8
1
 62
7
 10
34.80000000000004
 20
-26.50000000000006
 30
0
 11
30.10000000000002
 21
-26.50000000000006
 31
0
  0
LINE
  8
1
 62
7
 10
34.80000000000001
 20
-53.00000000000009
 30
0
 11
34.80000000000001
 21
38
 31
0
  0
LINE
  8
1
 62
3
  6
DASHDOT
 10
29.03544998213317
 20
-38.00000000000009
 30
0
 11
47.76741371292372
 21
-38.00000000000009
 31
0
  0
LINE
  8
1
 62
7
 10
34.09999999999999
 20
-54.00000000000009
 30
0
 11
30.09999999999999
 21
-54.00000000000009
 31
0
  0
LINE
  8
1
 62
7
 10
30.09999999999999
 20
-54.00000000000009
 30
0
 11
30.09999999999999
 21
54
 31
0
  0
LINE
  8
1
 62
7
 10
34.80000000000001
 20
-53.00000000000009
 30
0
 11
35.40000000000003
 21
-53.00000000000009
 31
0
  0
LINE
  8
1
 62
7
 10
30.09999999999999
 20
-32.75000000000009
 30
0
 11
34.80000000000001
 21
-32.75000000000009
 31
0
  0
LINE
  8
1
 62
7
 10
30.09999999999999
 20
-43.25000000000009
 30
0
 11
34.09999999999999
 21
-43.25000000000009
 31
0
  0
LINE
  8
1
 62
7
 10
35.40000000000003
 20
-32.50000000000009
 30
0
 11
37.99999999999999
 21
-32.50000000000009
 31
0
  0
LINE
  8
1
 62
7
 10
35.40000000000003
 20
-43.50000000000009
 30
0
 11
37.99999999999999
 21
-43.50000000000009
 31
0
  0
LINE
  8
1
 62
7
 10
34.80000000000001
 20
-30.00000000000006
 30
0
 11
35.4
 21
-30.00000000000006
 31
0
  0
LINE
  8
1
 62
7
 10
35.40000000000003
 20
-35.50000000000009
 30
0
 11
35.40000000000003
 21
37.99999999999999
 31
0
  0
LINE
  8
1
 62
7
 10
12.20000000000016
 20
53.5
 30
0
 11
12.20000000000016
 21
78.69036320982664
 31
0
  0
LINE
  8
1
 62
7
 10
15.39999999999995
 20
-20.50000000000007
 30
0
 11
3.500000000000199
 21
-20.5
 31
0
  0
LINE
  8
1
 62
7
 10
0
 20
-57.74999999999999
 30
0
 11
2.599999999999994
 21
-57.74999999999999
 31
0
  0
LINE
  8
1
 62
3
  6
DASHDOT
 10
-1.5720640445155
 20
-60.99999999999999
 30
0
 11
3.879657891545094
 21
-60.99999999999999
 31
0
  0
LINE
  8
1
 62
7
 10
0
 20
-64.24999999999999
 30
0
 11
2.599999999999994
 21
-64.24999999999999
 31
0
  0
LINE
  8
1
 62
7
 10
0
 20
-67.49999999999999
 30
0
 11
2.599999999999994
 21
-67.49999999999999
 31
0
  0
LINE
  8
1
 62
7
 10
0
 20
26.01698106804173
 30
0
 11
2.599999999999994
 21
26.01698106804173
 31
0
  0
LINE
  8
1
 62
7
 10
175.2893688733896
 20
50.00000000000005
 30
0
 11
194.3246175075865
 21
50.00000000000006
 31
0
  0
LINE
  8
1
 62
7
 10
198.9787246395438
 20
-26.31064423384568
 30
0
 11
198.9787246395438
 21
-45.3458928680426
 31
0
  0
LINE
  8
1
 62
7
 10
175.2893688733895
 20
-49.99999999999999
 30
0
 11
194.3246175075864
 21
-49.99999999999999
 31
0
  0
LINE
  8
1
 62
7
 10
98.97872463954383
 20
-26.31064423384566
 30
0
 11
98.97872463954381
 21
-45.3458928680426
 31
0
  0
LINE
  8
1
 62
7
 10
146.4787246395438
 20
12.00000000000007
 30
0
 11
151.4787246395438
 21
12.00000000000007
 31
0
  0
LINE
  8
1
 62
7
 10
151.4787246395438
 20
12.00000000000007
 30
0
 11
151.4787246395438
 21
9.68245836551862
 31
0
  0
LINE
  8
1
 62
7
 10
146.4787246395438
 20
12.00000000000007
 30
0
 11
146.4787246395438
 21
9.68245836551862
 31
0
  0
LINE
  8
1
 62
7
 10
146.4787246395438
 20
56.44466316668039
 30
0
 11
146.4787246395438
 21
78.69036320982664
 31
0
  0
LINE
  8
1
 62
7
 10
151.4787246395438
 20
56.42312360968361
 30
0
 11
151.4787246395438
 21
78.69036320982664
 31
0
  0
LINE
  8
1
 62
7
 10
146.4787246395438
 20
78.69036320982664
 30
0
 11
151.4787246395438
 21
78.69036320982664
 31
0
  0
LINE
  8
1
 62
7
 10
149.4997037379221
 20
83.69036320982664
 30
0
 11
149.4997037379221
 21
78.69036320982664
 31
0
  0
LINE
  8
1
 62
7
 10
150.2423336813046
 20
83.69036320982664
 30
0
 11
150.2423336813046
 21
78.69036320982664
 31
0
  0
LINE
  8
1
 62
7
 10
150.8921348817644
 20
83.69036320982664
 30
0
 11
150.8921348817644
 21
78.69036320982664
 31
0
  0
LINE
  8
1
 62
7
 10
147.0653143973233
 20
78.69036320982664
 30
0
 11
147.0653143973233
 21
83.69036320982664
 31
0
  0
LINE
  8
1
 62
7
 10
147.715115597783
 20
78.69036320982664
 30
0
 11
147.715115597783
 21
83.69036320982664
 31
0
  0
LINE
  8
1
 62
7
 10
148.4577455411656
 20
78.69036320982664
 30
0
 11
148.4577455411656
 21
83.69036320982664
 31
0
  0
LINE
  8
1
 62
7
 10
9.800000000000196
 20
78.69036320982664
 30
0
 11
9.800000000000196
 21
53.5
 31
0
  0
LINE
  8
1
 62
7
 10
9.800000000000196
 20
78.69036320982664
 30
0
 11
12.20000000000016
 21
78.69036320982664
 31
0
  0
LINE
  8
1
 62
7
 10
11.00000000000016
 20
83.69036320982664
 30
0
 11
11.00000000000016
 21
78.69036320982664
 31
0
  0
LINE
  8
1
 62
7
 10
11.50000000000016
 20
83.69036320982664
 30
0
 11
11.50000000000016
 21
78.69036320982664
 31
0
  0
LINE
  8
1
 62
7
 10
10.50000000000016
 20
83.69036320982664
 30
0
 11
10.50000000000016
 21
78.69036320982664
 31
0
  0
LINE
  8
1
 62
3
  6
DASHDOT
 10
155.566587179093
 20
7.105427357601002e-014
 30
0
 11
142.3908620999946
 21
7.105427357601002e-014
 31
0
  0
LINE
  8
1
 62
3
  6
DASHDOT
 10
148.9787246395438
 20
6.587862539549249
 30
0
 11
148.9787246395438
 21
-6.587862539549107
 31
0
  0
LINE
  8
1
 62
7
 10
29.50000000000001
 20
-23.50000000000007
 30
0
 11
28.39999999999999
 21
-23.49999999999999
 31
0
  0
LINE
  8
1
 62
7
 10
28.39999999999999
 20
-26.99999999999999
 30
0
 11
29.89999999999998
 21
-27.00000000000007
 31
0
  0
LINE
  8
1
 62
7
 10
28.39999999999999
 20
-23.49999999999999
 30
0
 11
28.39999999999999
 21
-26.99999999999999
 31
0
  0
LINE
  8
1
 62
7
 10
8.000000000000199
 20
53.5
 30
0
 11
14.30000000000016
 21
53.5
 31
0
  0
LINE
  8
1
 62
3
  6
DASHDOT
 10
35.40000000000003
 20
0
 30
0
 11
39.35573881776475
 21
0
 31
0
  0
LINE
  8
1
 62
3
  6
DASHDOT
 10
0
 20
0
 30
0
 11
-3.533678124469702
 21
0
 31
0
  0
LINE
  8
1
 62
7
 10
-58.40000000000008
 20
-54.00000000000009
 30
0
 11
-58.40000000000008
 21
54
 31
0
  0
LINE
  8
1
 62
3
 10
-46.3000000000001
 20
-40.00000000000009
 30
0
 11
-54.50000000000011
 21
-40.00000000000009
 31
0
  0
LINE
  8
1
 62
3
 10
-46.3000000000001
 20
-36.00000000000009
 30
0
 11
-54.50000000000011
 21
-36.00000000000009
 31
0
  0
LINE
  8
1
 62
7
 10
-46.8000000000001
 20
-35.50000000000009
 30
0
 11
-46.8000000000001
 21
-40.50000000000009
 31
0
  0
LINE
  8
1
 62
7
 10
-46.8000000000001
 20
-40.50000000000009
 30
0
 11
-54.50000000000011
 21
-40.50000000000009
 31
0
  0
LINE
  8
1
 62
7
 10
-46.3000000000001
 20
-40.00000000000009
 30
0
 11
-46.8000000000001
 21
-40.50000000000009
 31
0
  0
LINE
  8
1
 62
7
 10
-46.3000000000001
 20
-36.00000000000009
 30
0
 11
-46.3000000000001
 21
-40.00000000000009
 31
0
  0
LINE
  8
1
 62
7
 10
-46.8000000000001
 20
-35.50000000000009
 30
0
 11
-46.3000000000001
 21
-36.00000000000009
 31
0
  0
LINE
  8
1
 62
7
 10
-62.60000000000011
 20
-53.49999999999999
 30
0
 11
-62.60000000000011
 21
53.49999999999999
 31
0
  0
LINE
  8
1
 62
7
 10
-77.10000000000011
 20
56.49999999999999
 30
0
 11
-65.83205080756889
 21
56.49999999999999
 31
0
  0
LINE
  8
1
 62
7
 10
-65.83205080756889
 20
56.49999999999999
 30
0
 11
-64.10000000000011
 21
53.49999999999999
 31
0
  0
LINE
  8
1
 62
7
 10
-64.10000000000011
 20
53.49999999999999
 30
0
 11
-62.60000000000011
 21
53.49999999999999
 31
0
  0
LINE
  8
1
 62
7
 10
-62.60000000000011
 20
-53.49999999999999
 30
0
 11
-64.10000000000011
 21
-53.49999999999999
 31
0
  0
LINE
  8
1
 62
7
 10
-64.10000000000011
 20
-53.49999999999999
 30
0
 11
-65.83205080756889
 21
-56.49999999999999
 31
0
  0
LINE
  8
1
 62
7
 10
-65.83205080756889
 20
-56.49999999999999
 30
0
 11
-77.10000000000011
 21
-56.49999999999999
 31
0
  0
LINE
  8
1
 62
7
 10
-77.10000000000011
 20
-56.49999999999999
 30
0
 11
-77.10000000000011
 21
56.49999999999999
 31
0
  0
LINE
  8
1
 62
7
 10
-62.40000000000008
 20
54
 30
0
 11
-58.40000000000008
 21
54
 31
0
  0
LINE
  8
1
 62
7
 10
-58.40000000000008
 20
53
 30
0
 11
-57.80000000000002
 21
53
 31
0
  0
LINE
  8
1
 62
7
 10
-57.80000000000002
 20
40.54136836602152
 30
0
 11
-57.80000000000002
 21
53
 31
0
  0
LINE
  8
1
 62
7
 10
-57.80000000000002
 20
40.54136836602152
 30
0
 11
-57.1
 21
37.99999999999999
 31
0
  0
LINE
  8
1
 62
7
 10
-58.40000000000008
 20
40.6124355652982
 30
0
 11
-57.70000000000002
 21
38
 31
0
  0
LINE
  8
1
 62
7
 10
-57.80000000000011
 20
52
 30
0
 11
-56.00000000000009
 21
52
 31
0
  0
LINE
  8
1
 62
7
 10
-57.1
 20
52
 30
0
 11
-57.1
 21
43
 31
0
  0
LINE
  8
1
 62
7
 10
-55.50000000000009
 20
51.5
 30
0
 11
-56.00000000000009
 21
52
 31
0
  0
LINE
  8
1
 62
7
 10
-56.00000000000009
 20
43
 30
0
 11
-57.80000000000002
 21
43
 31
0
  0
LINE
  8
1
 62
7
 10
-55.50000000000009
 20
43.5
 30
0
 11
-55.50000000000009
 21
51.5
 31
0
  0
LINE
  8
1
 62
7
 10
-55.50000000000009
 20
43.5
 30
0
 11
-56.00000000000009
 21
43
 31
0
  0
LINE
  8
1
 62
7
 10
-57.70000000000002
 20
-53.00000000000009
 30
0
 11
-57.70000000000002
 21
38
 31
0
  0
LINE
  8
1
 62
3
  6
DASHDOT
 10
-61.35255001786692
 20
-38.00000000000009
 30
0
 11
-44.53258628707632
 21
-38.00000000000009
 31
0
  0
LINE
  8
1
 62
7
 10
-58.40000000000008
 20
-54.00000000000009
 30
0
 11
-62.40000000000008
 21
-54.00000000000009
 31
0
  0
LINE
  8
1
 62
7
 10
-62.40000000000008
 20
-54.00000000000009
 30
0
 11
-62.40000000000008
 21
54
 31
0
  0
LINE
  8
1
 62
7
 10
-57.70000000000002
 20
-53.00000000000009
 30
0
 11
-57.1
 21
-53.00000000000009
 31
0
  0
LINE
  8
1
 62
7
 10
-57.1
 20
37.99999999999999
 30
0
 11
-57.1
 21
-53.00000000000009
 31
0
  0
LINE
  8
1
 62
7
 10
-57.1
 20
-32.50000000000009
 30
0
 11
-54.50000000000011
 21
-32.50000000000009
 31
0
  0
LINE
  8
1
 62
7
 10
-57.1
 20
-43.50000000000009
 30
0
 11
-54.50000000000011
 21
-43.50000000000009
 31
0
  0
LINE
  8
1
 62
7
 10
-80.2999999999999
 20
53.5
 30
0
 11
-80.2999999999999
 21
78.69036320982664
 31
0
  0
LINE
  8
1
 62
7
 10
-92.50000000000011
 20
50
 30
0
 11
-89.90000000000009
 21
50
 31
0
  0
LINE
  8
1
 62
7
 10
-92.50000000000011
 20
50
 30
0
 11
-92.50000000000011
 21
-67.49999999999999
 31
0
  0
LINE
  8
1
 62
7
 10
-89.90000000000009
 20
50
 30
0
 11
-89.90000000000009
 21
-67.49999999999999
 31
0
  0
LINE
  8
1
 62
7
 10
-82.6999999999999
 20
78.69036320982664
 30
0
 11
-82.6999999999999
 21
53.5
 31
0
  0
LINE
  8
1
 62
7
 10
-82.6999999999999
 20
78.69036320982664
 30
0
 11
-80.2999999999999
 21
78.69036320982664
 31
0
  0
LINE
  8
1
 62
3
  6
DASHDOT
 10
-57.1
 20
0
 30
0
 11
-53.04426118223532
 21
0
 31
0
  0
LINE
  8
1
 62
3
  6
DASHDOT
 10
-92.50000000000011
 20
0
 30
0
 11
-96.03367812446982
 21
0
 31
0
  0
LINE
  8
1
 62
7
 10
-54.50000000000011
 20
-32.50000000000009
 30
0
 11
-54.50000000000011
 21
-43.50000000000009
 31
0
  0
LINE
  8
1
 62
7
 10
-54.50000000000011
 20
-35.50000000000009
 30
0
 11
-46.8000000000001
 21
-35.50000000000009
 31
0
  0
LINE
  8
1
 62
7
 10
-84.49999999999992
 20
53.5
 30
0
 11
-78.19999999999996
 21
53.5
 31
0
  0
LINE
  8
1
 62
7
 10
-65.83205080756889
 20
56.49999999999999
 30
0
 11
-65.83205080756889
 21
-56.49999999999999
 31
0
  0
LINE
  8
1
 62
7
 10
-64.10000000000011
 20
-53.49999999999999
 30
0
 11
-64.10000000000011
 21
53.49999999999999
 31
0
  0
LINE
  8
1
 62
7
 10
-81.49999999999992
 20
83.69036320982664
 30
0
 11
-81.49999999999992
 21
78.69036320982664
 31
0
  0
LINE
  8
1
 62
7
 10
-80.99999999999992
 20
83.69036320982664
 30
0
 11
-80.99999999999992
 21
78.69036320982664
 31
0
  0
LINE
  8
1
 62
7
 10
-81.99999999999992
 20
83.69036320982664
 30
0
 11
-81.99999999999992
 21
78.69036320982664
 31
0
  0
LINE
  8
1
 62
7
 10
2.600000000000293
 20
-26
 30
0
 11
0
 21
-26
 31
0
  0
LINE
  8
1
 62
7
 10
2.599999999999994
 20
50
 30
0
 11
0
 21
50
 31
0
  0
LINE
  8
1
 62
3
  6
DASHDOT
 10
-94.07206404451571
 20
-60.99999999999999
 30
0
 11
-88.62034210845499
 21
-60.99999999999999
 31
0
  0
LINE
  8
1
 62
7
 10
-89.90000000000009
 20
-67.49999999999999
 30
0
 11
-92.50000000000011
 21
-67.49999999999999
 31
0
  0
LINE
  8
1
 62
7
 10
2.599999999999994
 20
50
 30
0
 11
2.599999999999994
 21
-67.49999999999999
 31
0
  0
LINE
  8
1
 62
7
 10
35.40000000000003
 20
-53.00000000000009
 30
0
 11
35.40000000000003
 21
-40.50000000000009
 31
0
  0
LINE
  8
1
 62
7
 10
-57.70000000000002
 20
38
 30
0
 11
-58.40000000000008
 21
37.99999999999999
 31
0
  0
ARC
  8
1
 62
7
 10
35.04968028912888
 20
-37.7282111636254
 30
0
 40
5.200000000000044
 50
212.2108368677857
 51
254.9564060924421
  0
ARC
  8
1
 62
7
 10
35.04968028912887
 20
-38.27178883637477
 30
0
 40
5.200000000000028
 50
105.0435939075578
 51
147.7891631322144
  0
ARC
  8
1
 62
7
 10
134.9787246395438
 20
-24.24871130596424
 30
0
 40
24.99999999999999
 50
240
 51
286.2602047083122
  0
ARC
  8
1
 62
7
 10
162.9787246395438
 20
-24.24871130596424
 30
0
 40
25.0000000000001
 50
253.7397952916884
 51
300.0000000000001
  0
ARC
  8
1
 62
7
 10
120.9787246395437
 20
1.4210854715202e-014
 30
0
 40
25.00000000000012
 50
133.7397952916883
 51
179.9999999999999
  0
ARC
  8
1
 62
7
 10
134.9787246395436
 20
24.24871130596434
 30
0
 40
24.99999999999992
 50
119.9999999999996
 51
166.2602047083121
  0
ARC
  8
1
 62
7
 10
162.9787246395439
 20
24.24871130596434
 30
0
 40
25.00000000000015
 50
13.73979529168782
 51
60.00000000000024
  0
ARC
  8
1
 62
7
 10
176.9787246395438
 20
1.4210854715202e-014
 30
0
 40
25.00000000000011
 50
359.9999999999998
 51
46.26020470831167
  0
ARC
  8
1
 62
7
 10
8.000000000000199
 20
33
 30
0
 40
6.000000000000044
 50
205.8419327631636
 51
246.4435356908992
  0
ARC
  8
1
 62
7
 10
8.000000000000199
 20
-47.49999999999999
 30
0
 40
6.000000000000009
 50
205.8419327631628
 51
270
  0
ARC
  8
1
 62
7
 10
-84.49999999999992
 20
-47.49999999999999
 30
0
 40
5.999999999999981
 50
205.8419327631629
 51
270
  0
ARC
  8
1
 62
7
 10
8.000000000000199
 20
-32.99999999999999
 30
0
 40
6.000000000000012
 50
113.5564643091017
 51
154.1580672368362
  0
ARC
  8
1
 62
7
 10
136.7227950490635
 20
26.28292582406291
 30
0
 40
13.00000000000001
 50
115.0000000000001
 51
213.3887390878743
  0
ARC
  8
1
 62
7
 10
148.9787246395438
 20
7.105427357601002e-014
 30
0
 40
52.99999999999999
 50
59.99999999999999
 51
120
  0
ARC
  8
1
 62
7
 10
132.3450079853635
 20
-23.75540928438072
 30
0
 40
12.99999999999998
 50
234.9999999999999
 51
333.3887390878741
  0
ARC
  8
1
 62
7
 10
148.9787246395438
 20
7.105427357601002e-014
 30
0
 40
52.99999999999999
 50
180
 51
240
  0
ARC
  8
1
 62
7
 10
148.9787246395438
 20
7.105427357601002e-014
 30
0
 40
42.00000000000004
 50
305.0000000000001
 51
354.9999999999999
  0
ARC
  8
1
 62
7
 10
148.9787246395438
 20
7.105427357601002e-014
 30
0
 40
53.00000000000007
 50
329.9999999999999
 51
359.9999999999999
  0
ARC
  8
1
 62
7
 10
177.8683708842045
 20
-2.527516539682068
 30
0
 40
12.99999999999991
 50
354.9999999999999
 51
93.38873908787453
  0
ARC
  8
1
 62
7
 10
148.9787246395438
 20
7.105427357601002e-014
 30
0
 40
30.00000000000001
 50
20.38490390492614
 51
39.61509609507375
  0
ARC
  8
1
 62
7
 10
148.9787246395438
 20
7.105427357601002e-014
 30
0
 40
41.99999999999999
 50
185.0000000000001
 51
235
  0
ARC
  8
1
 62
7
 10
148.9787246395438
 20
7.105427357601002e-014
 30
0
 40
30.00000000000001
 50
140.3849039049262
 51
159.6150960950738
  0
ARC
  8
1
 62
7
 10
120.0890783948832
 20
-2.527516539682026
 30
0
 40
13
 50
86.61126091212597
 51
185.0000000000001
  0
ARC
  8
1
 62
7
 10
165.6124412937241
 20
-23.75540928438072
 30
0
 40
12.99999999999992
 50
206.6112609121259
 51
305.0000000000005
  0
ARC
  8
1
 62
7
 10
148.9787246395438
 20
7.105427357601002e-014
 30
0
 40
53.00000000000001
 50
299.9999999999999
 51
329.9999999999999
  0
ARC
  8
1
 62
7
 10
148.9787246395438
 20
7.105427357601002e-014
 30
0
 40
53.00000000000007
 50
329.9999999999999
 51
359.9999999999999
  0
ARC
  8
1
 62
7
 10
148.9787246395438
 20
7.105427357601002e-014
 30
0
 40
30.00000000000005
 50
260.3849039049262
 51
279.6150960950738
  0
ARC
  8
1
 62
7
 10
148.9787246395438
 20
7.105427357601002e-014
 30
0
 40
41.99999999999998
 50
64.99999999999994
 51
115
  0
ARC
  8
1
 62
7
 10
161.2346542300241
 20
26.28292582406291
 30
0
 40
12.99999999999998
 50
326.6112609121256
 51
64.99999999999983
  0
ARC
  8
1
 62
7
 10
161.2346542300241
 20
26.28292582406291
 30
0
 40
12.99999999999998
 50
326.6112609121256
 51
64.99999999999983
  0
ARC
  8
1
 62
7
 10
148.9787246395438
 20
7.105427357601002e-014
 30
0
 40
67.49999999999999
 50
42.20544640373228
 51
47.79455359626765
  0
ARC
  8
1
 62
7
 10
148.9787246395438
 20
7.105427357601002e-014
 30
0
 40
67.49999999999996
 50
132.2054464037323
 51
137.7945535962677
  0
ARC
  8
1
 62
7
 10
148.9787246395438
 20
7.105427357601002e-014
 30
0
 40
67.50000000000001
 50
222.2054464037323
 51
227.7945535962678
  0
ARC
  8
1
 62
7
 10
148.9787246395438
 20
7.105427357601002e-014
 30
0
 40
67.50000000000001
 50
312.2054464037322
 51
317.7945535962677
  0
ARC
  8
1
 62
3
  6
DASHDOT
 10
148.9787246395438
 20
7.105427357601002e-014
 30
0
 40
61
 50
39.08747099769013
 51
50.86043550624994
  0
ARC
  8
1
 62
3
  6
DASHDOT
 10
148.9787246395438
 20
7.105427357601002e-014
 30
0
 40
61.00000000000007
 50
309.0695782352602
 51
322.1058082419698
  0
ARC
  8
1
 62
3
  6
DASHDOT
 10
148.9787246395438
 20
7.105427357601002e-014
 30
0
 40
60.99999999999998
 50
219.0009317541321
 51
231.1800732104172
  0
ARC
  8
1
 62
3
  6
DASHDOT
 10
148.9787246395438
 20
7.105427357601002e-014
 30
0
 40
61
 50
128.5719117530581
 51
141.3363338594844
  0
ARC
  8
1
 62
7
 10
148.9787246395438
 20
7.105427357601002e-014
 30
0
 40
38.00000000000001
 50
48.7546569117431
 51
131.2453430882567
  0
ARC
  8
1
 62
7
 10
148.9787246395438
 20
7.105427357601002e-014
 30
0
 40
37.99999999999996
 50
288.754656911743
 51
11.24534308825675
  0
ARC
  8
1
 62
7
 10
148.9787246395438
 20
7.105427357601002e-014
 30
0
 40
37.99999999999996
 50
168.7546569117432
 51
251.245343088257
  0
ARC
  8
1
 62
7
 10
148.9787246395438
 20
7.105427357601002e-014
 30
0
 40
10
 50
0
 51
75.52248781407009
  0
ARC
  8
1
 62
7
 10
148.9787246395438
 20
7.105427357601002e-014
 30
0
 40
10
 50
270
 51
0
  0
ARC
  8
1
 62
7
 10
148.9787246395438
 20
7.105427357601002e-014
 30
0
 40
10.00000000000001
 50
104.4775121859299
 51
270
  0
ARC
  8
1
 62
3
  6
DASHDOT
 10
148.9787246395438
 20
7.105427357601002e-014
 30
0
 40
38.00000000000004
 50
137.4580642996255
 51
162.6665876759474
  0
ARC
  8
1
 62
3
  6
DASHDOT
 10
148.9787246395438
 20
7.105427357601002e-014
 30
0
 40
38.00000000000005
 50
15.77398474695628
 51
42.77808766224381
  0
ARC
  8
1
 62
3
  6
DASHDOT
 10
148.9787246395438
 20
7.105427357601002e-014
 30
0
 40
37.99999999999995
 50
257.1306882922801
 51
282.96653326198
  0
ARC
  8
1
 62
7
 10
8.000000000000199
 20
47.58428571428539
 30
0
 40
5.915714285714607
 50
90
 51
155.8984302331789
  0
ARC
  8
1
 62
7
 10
-84.49999999999992
 20
47.58428571428539
 30
0
 40
5.915714285714607
 50
90
 51
155.8984302331787
  0
CIRCLE
  8
1
 62
7
 10
148.9787246395438
 20
7.105427357601002e-014
 30
0
 40
26.5
  0
CIRCLE
  8
1
 62
7
 10
148.9787246395438
 20
47.50000000000006
 30
0
 40
4.5
  0
CIRCLE
  8
1
 62
7
 10
116.0697592957351
 20
19.00000000000006
 30
0
 40
5.5
  0
CIRCLE
  8
1
 62
3
 10
116.0697592957351
 20
19.00000000000006
 30
0
 40
2
  0
CIRCLE
  8
1
 62
7
 10
148.9787246395438
 20
-37.99999999999999
 30
0
 40
5.5
  0
CIRCLE
  8
1
 62
7
 10
148.9787246395438
 20
-37.99999999999999
 30
0
 40
2.5
  0
CIRCLE
  8
1
 62
7
 10
148.9787246395438
 20
-37.99999999999999
 30
0
 40
2
  0
CIRCLE
  8
1
 62
7
 10
107.842517959783
 20
-23.74999999999996
 30
0
 40
4.5
  0
CIRCLE
  8
1
 62
7
 10
190.1149313193047
 20
-23.74999999999997
 30
0
 40
4.5
  0
CIRCLE
  8
1
 62
7
 10
181.8876899833525
 20
19.00000000000003
 30
0
 40
5.5
  0
CIRCLE
  8
1
 62
7
 10
181.8876899833525
 20
19.00000000000003
 30
0
 40
2.5
  0
CIRCLE
  8
1
 62
7
 10
181.8876899833525
 20
19.00000000000003
 30
0
 40
2
  0
CIRCLE
  8
1
 62
7
 10
116.0697592957351
 20
19.00000000000006
 30
0
 40
2
  0
CIRCLE
  8
1
 62
7
 10
116.0697592957351
 20
19.00000000000006
 30
0
 40
5.5
  0
CIRCLE
  8
1
 62
7
 10
107.842517959783
 20
-23.74999999999996
 30
0
 40
4.5
  0
CIRCLE
  8
1
 62
7
 10
148.9787246395438
 20
7.105427357601002e-014
 30
0
 40
54
  0
CIRCLE
  8
1
 62
7
 10
105.8452109871644
 20
43.13351365237945
 30
0
 40
3.25
  0
CIRCLE
  8
1
 62
7
 10
192.1122382919232
 20
43.13351365237945
 30
0
 40
3.25
  0
CIRCLE
  8
1
 62
7
 10
192.1122382919232
 20
-43.13351365237929
 30
0
 40
3.25
  0
CIRCLE
  8
1
 62
7
 10
105.8452109871644
 20
-43.13351365237929
 30
0
 40
3.25
  0
CIRCLE
  8
1
 62
7
 10
148.9787246395438
 20
7.105427357601002e-014
 30
0
 40
56.5
  0
CIRCLE
  8
1
 62
7
 10
116.0697592957351
 20
19.00000000000006
 30
0
 40
2.5
  0
CIRCLE
  8
1
 62
7
 10
148.9787246395438
 20
7.105427357601002e-014
 30
0
 40
23.5
  0
ARC
  8
1
 62
7
 10
148.9787246395441
 20
-72.24871130596438
 30
0
 40
24.99999999999994
 50
73.7397952916885
 51
106.2602047083122
  0
ARC
  8
1
 62
7
 10
86.40950525789043
 20
36.12435565298205
 30
0
 40
24.99999999999995
 50
313.7397952916883
 51
346.2602047083122
  0
ARC
  8
1
 62
7
 10
211.5479440211971
 20
36.12435565298205
 30
0
 40
24.99999999999995
 50
193.7397952916878
 51
226.2602047083117
  0
TEXT
  8
1
 62
7
 10
-91.49249060966081
 20
109.4415407768976
 30
0
 40
4
  1
DC1503
 41
0.9
  7
SIMPLEX
  0
TEXT
  8
1
 62
7
 10
-91.49249060966081
 20
116.6995951242666
 30
0
 40
4
  1
TMF2.5
 41
0.9
  7
SIMPLEX
  0
ENDSEC
  0
EOF
