  0
SECTION
  2
HEADER
  9
$ACADVER
  1
AC1009
  9
$INSBASE
 10
0
 20
0
  9
$EXTMIN
 10
-114.9182177248651
 20
-82.5
  9
$EXTMAX
 10
253.1
 20
131.0903343981731
  9
$LIMMIN
 10
-114.9182177248651
 20
-82.5
  9
$LIMMAX
 10
253.1
 20
131.0903343981731
  9
$VIEWCTR
 10
10
 20
10
  9
$VIEWSIZE
 40
10
  9
$SNAPMODE
 70
0
  9
$SNAPUNIT
 10
1
 20
1
  9
$SNAPBASE
 10
0
 20
0
  9
$SNAPANG
 50
0
  9
$SNAPSTYLE
 70
0
  9
$SNAPISOPAIR
 70
0
  9
$GRIDMODE
 70
0
  9
$GRIDUNIT
 10
0
 20
0
  9
$ORTHOMODE
 70
0
  9
$REGENMODE
 70
1
  9
$FILLMODE
 70
1
  9
$QTEXTMODE
 70
0
  9
$DRAGMODE
 70
2
  9
$LTSCALE
 40
1
  9
$OSMODE
 70
0
  9
$ATTMODE
 70
1
  9
$TEXTSIZE
 40
3.5
  9
$TRACEWID
 40
0.5
  9
$TEXTSTYLE
  7
STANDARD
  9
$CLAYER
  8
0
  9
$CELTYPE
  6
BYLAYER
  9
$CECOLOR
 62
256
  9
$DIMSCALE
 40
1
  9
$DIMASZ
 40
0.18
  9
$DIMEXO
 40
0.0625
  9
$DIMDLI
 40
0.38
  9
$DIMRND
 40
0
  9
$DIMDLE
 40
0
  9
$DIMEXE
 40
0.18
  9
$DIMTP
 40
0
  9
$DIMTM
 40
0
  9
$DIMTXT
 40
0.18
  9
$DIMCEN
 40
0.09
  9
$DIMTSZ
 40
0
  9
$DIMTOL
 70
0
  9
$DIMLIM
 70
0
  9
$DIMTIH
 70
1
  9
$DIMTOH
 70
1
  9
$DIMSE1
 70
0
  9
$DIMSE2
 70
0
  9
$DIMTAD
 70
0
  9
$DIMZIN
 70
0
  9
$DIMBLK
  1

  9
$DIMASO
 70
1
  9
$DIMSHO
 70
1
  9
$DIMPOST
  1

  9
$DIMAPOST
  1

  9
$DIMALT
 70
0
  9
$DIMALTD
 70
2
  9
$DIMALTF
 40
25.4
  9
$DIMLFAC
 40
1
  9
$DIMTOFL
 70
0
  9
$DIMTVP
 40
0
  9
$DIMTIX
 70
0
  9
$DIMSOXD
 70
0
  9
$DIMSAH
 70
0
  9
$DIMBLK1
  1

  9
$DIMBLK2
  1

  9
$DIMSTYLE
  2
*UNNAMED
  9
$DIMCLRD
 70
0
  9
$DIMCLRE
 70
0
  9
$DIMCLRT
 70
0
  9
$DIMTFAC
 40
1
  9
$DIMGAP
 40
0.09
  9
$LUNITS
 70
2
  9
$LUPREC
 70
4
  9
$AXISMODE
 70
0
  9
$AXISUNIT
 10
0
 20
0
  9
$SKETCHINC
 40
0.1
  9
$FILLETRAD
 40
2
  9
$AUNITS
 70
0
  9
$AUPREC
 70
0
  9
$MENU
  1
ACAD
  9
$ELEVATION
 40
0
  9
$THICKNESS
 40
0
  9
$VIEWDIR
 10
0
 20
0
 30
1
  9
$LIMCHECK
 70
0
  9
$BLIPMODE
 70
1
  9
$CHAMFERA
 40
0
  9
$CHAMFERB
 40
0
  9
$FASTZOOM
 70
1
  9
$SKPOLY
 70
0
  9
$ANGBASE
 50
0
  9
$ANGDIR
 70
0
  9
$PDMODE
 70
0
  9
$PDSIZE
 40
0
  9
$PLINEWID
 40
0
  9
$COORDS
 70
2
  0
ENDSEC
  0
SECTION
  2
TABLES
  0
TABLE
  2
DIMSTYLE
 70
0
  0
ENDTAB
  0
TABLE
  2
LTYPE
 70
9
  0
LTYPE
  2
CONTINUOUS
 70
64
  3
Solid line
 72
65
 73
0
 40
0
  0
LTYPE
  2
BORDER
 70
64
  3
__ __ . __ __ .
 72
65
 73
6
 40
16.94820739522405
 49
4.842344970064015
 49
-2.421172485032007
 49
4.842344970064015
 49
-2.421172485032007
 49
0
 49
-2.421172485032007
  0
LTYPE
  2
CENTER
 70
64
  3
____ _ ____ _
 72
65
 73
4
 40
19.36937988025606
 49
12.10586242516004
 49
-2.421172485032007
 49
2.421172485032007
 49
-2.421172485032007
  0
LTYPE
  2
DASHDOT
 70
64
  3
__ . __ . __ .
 72
65
 73
4
 40
9.684689940128029
 49
4.842344970064015
 49
-2.421172485032007
 49
0
 49
-2.421172485032007
  0
LTYPE
  2
DASHED
 70
64
  3
__ __ __ __ __
 72
65
 73
2
 40
7.263517455096022
 49
4.842344970064015
 49
-2.421172485032007
  0
LTYPE
  2
DIVIDE
 70
64
  3
__ . . __ . . 
 72
65
 73
6
 40
12.10586242516004
 49
4.842344970064015
 49
-2.421172485032007
 49
0
 49
-2.421172485032007
 49
0
 49
-2.421172485032007
  0
LTYPE
  2
DOT
 70
64
  3
..............
 72
65
 73
4
 40
4.842344970064015
 49
0
 49
-2.421172485032007
 49
0
 49
-2.421172485032007
  0
LTYPE
  2
HIDDEN
 70
64
  3
_ _ _ _ _ _ _
 72
65
 73
2
 40
3.631758727548011
 49
2.421172485032007
 49
-1.210586242516004
  0
LTYPE
  2
PHANTOM
 70
64
  3
_____ _ _ _____ _ _ 
 72
65
 73
6
 40
24.21172485032007
 49
12.10586242516004
 49
-2.421172485032007
 49
2.421172485032007
 49
-2.421172485032007
 49
2.421172485032007
 49
-2.421172485032007
  0
ENDTAB
  0
TABLE
  2
LAYER
 70
3
  0
LAYER
  2
1
 70
0
 62
7
  6
CONTINUOUS
  0
LAYER
  2
0
 70
0
 62
7
  6
CONTINUOUS
  0
ENDTAB
  0
TABLE
  2
STYLE
 70
4
  0
STYLE
  2
STANDARD
 70
0
 40
0
 41
1
 50
0
 71
0
 42
3.5
  3
txt
  4

  0
STYLE
  2
SIMPLEX
 70
0
 40
0
 41
1
 50
0
 71
0
 42
3.5
  3
simplex
  4

  0
STYLE
  2
COMPLEX
 70
0
 40
0
 41
1
 50
0
 71
0
 42
3.5
  3
complex
  4

  0
STYLE
  2
ITALIC
 70
0
 40
0
 41
1
 50
0
 71
0
 42
3.5
  3
italic
  4

  0
ENDTAB
  0
TABLE
  2
VIEW
 70
0
  0
ENDTAB
  0
ENDSEC
  0
SECTION
  2
BLOCKS
  0
ENDSEC
  0
SECTION
  2
ENTITIES
  0
POINT
  8
1
 62
7
  6
DOT
 10
182.1
 20
-12.50000000000002
 30
0
  0
LINE
  8
1
 62
7
 10
-68.09999999999988
 20
-44.5
 30
0
 11
-58.29999999999999
 21
-44.5
 31
0
  0
LINE
  8
1
 62
3
 10
-68.09999999999988
 20
-45.1
 30
0
 11
-57.7
 21
-45.1
 31
0
  0
LINE
  8
1
 62
7
 10
-68.09999999999988
 20
-50.5
 30
0
 11
-58.3
 21
-50.5
 31
0
  0
LINE
  8
1
 62
3
 10
-68.09999999999988
 20
-49.9
 30
0
 11
-57.7
 21
-49.9
 31
0
  0
LINE
  8
1
 62
7
 10
-79.89999999999991
 20
-67.49999999999989
 30
0
 11
-79.89999999999991
 21
67.5
 31
0
  0
LINE
  8
1
 62
7
 10
-81.9207259421636
 20
71
 30
0
 11
-81.9207259421636
 21
-70.99999999999989
 31
0
  0
LINE
  8
1
 62
7
 10
-95.4999999999999
 20
67.35000000000002
 30
0
 11
-93.89999999999991
 21
67.35000000000002
 31
0
  0
LINE
  8
1
 62
7
 10
-95.4999999999999
 20
-67.35000000000002
 30
0
 11
-93.89999999999991
 21
-67.35000000000002
 31
0
  0
LINE
  8
1
 62
3
  6
DASHDOT
 10
-76.5501144504793
 20
-47.5
 30
0
 11
-55.840892530594
 21
-47.5
 31
0
  0
LINE
  8
1
 62
7
 10
-58.29999999999999
 20
-44.5
 30
0
 11
-58.3
 21
-50.5
 31
0
  0
LINE
  8
1
 62
7
 10
-57.7
 20
-49.9
 30
0
 11
-58.3
 21
-50.5
 31
0
  0
LINE
  8
1
 62
7
 10
-57.7
 20
-45.1
 30
0
 11
-57.7
 21
-49.9
 31
0
  0
LINE
  8
1
 62
7
 10
-58.29999999999999
 20
-44.5
 30
0
 11
-57.7
 21
-45.1
 31
0
  0
LINE
  8
1
 62
7
 10
-98.4999999999999
 20
92.99542969767487
 30
0
 11
-98.4999999999999
 21
95.99542969767487
 31
0
  0
LINE
  8
1
 62
7
 10
-97.9999999999999
 20
92.99542969767487
 30
0
 11
-97.9999999999999
 21
95.99542969767487
 31
0
  0
LINE
  8
1
 62
7
 10
-98.9999999999999
 20
95.99542969767487
 30
0
 11
-98.9999999999999
 21
92.99542969767487
 31
0
  0
LINE
  8
1
 62
7
 10
-99.7499999999999
 20
92.99542969767487
 30
0
 11
-97.2499999999999
 21
92.99542969767487
 31
0
  0
LINE
  8
1
 62
7
 10
-97.2499999999999
 20
92.99542969767487
 30
0
 11
-97.2499999999999
 21
67.5
 31
0
  0
LINE
  8
1
 62
7
 10
-99.7499999999999
 20
92.99542969767487
 30
0
 11
-99.7499999999999
 21
67.5
 31
0
  0
LINE
  8
1
 62
7
 10
-79.89999999999991
 20
-67.49999999999989
 30
0
 11
-81.9207259421636
 21
-70.99999999999989
 31
0
  0
LINE
  8
1
 62
7
 10
-77.89999999999991
 20
-67.49999999999989
 30
0
 11
-79.89999999999991
 21
-67.49999999999989
 31
0
  0
LINE
  8
1
 62
7
 10
-93.89999999999991
 20
-70.99999999999989
 30
0
 11
-93.89999999999991
 21
67.69999999999999
 31
0
  0
LINE
  8
1
 62
7
 10
-81.9207259421636
 20
-70.99999999999989
 30
0
 11
-93.89999999999991
 21
-70.99999999999989
 31
0
  0
LINE
  8
1
 62
7
 10
-93.89999999999991
 20
71
 30
0
 11
-81.9207259421636
 21
71
 31
0
  0
LINE
  8
1
 62
7
 10
-93.89999999999991
 20
71
 30
0
 11
-93.89999999999991
 21
67.69999999999999
 31
0
  0
LINE
  8
1
 62
7
 10
-77.89999999999991
 20
67.5
 30
0
 11
-77.89999999999991
 21
-67.49999999999989
 31
0
  0
LINE
  8
1
 62
7
 10
-79.89999999999991
 20
67.5
 30
0
 11
-77.89999999999991
 21
67.5
 31
0
  0
LINE
  8
1
 62
7
 10
-81.9207259421636
 20
71
 30
0
 11
-79.89999999999991
 21
67.5
 31
0
  0
LINE
  8
1
 62
3
  6
DASHDOT
 10
-112.1603991301469
 20
-75
 30
0
 11
-107.4499646805842
 21
-75
 31
0
  0
LINE
  8
1
 62
7
 10
-111.0999999999999
 20
62.5
 30
0
 11
-108.4999999999999
 21
62.5
 31
0
  0
LINE
  8
1
 62
7
 10
-111.0999999999999
 20
-82.5
 30
0
 11
-111.0999999999999
 21
62.5
 31
0
  0
LINE
  8
1
 62
7
 10
-108.4999999999999
 20
-82.5
 30
0
 11
-111.0999999999999
 21
-82.5
 31
0
  0
LINE
  8
1
 62
7
 10
-101.4999999999999
 20
-67.5
 30
0
 11
-95.4999999999999
 21
-67.5
 31
0
  0
LINE
  8
1
 62
7
 10
-95.4999999999999
 20
-67.5
 30
0
 11
-95.4999999999999
 21
-67.35000000000002
 31
0
  0
LINE
  8
1
 62
7
 10
-77.6999999999999
 20
68
 30
0
 11
-77.6999999999999
 21
-68
 31
0
  0
LINE
  8
1
 62
7
 10
-77.6999999999999
 20
68
 30
0
 11
-72.7999999999999
 21
68
 31
0
  0
LINE
  8
1
 62
7
 10
-72.7999999999999
 20
-68
 30
0
 11
-77.6999999999999
 21
-68
 31
0
  0
LINE
  8
1
 62
7
 10
-68.99999999999989
 20
65
 30
0
 11
-68.99999999999989
 21
56
 31
0
  0
LINE
  8
1
 62
7
 10
-71.7999999999999
 20
55.5
 30
0
 11
-69.49999999999989
 21
55.5
 31
0
  0
LINE
  8
1
 62
7
 10
-71.7999999999999
 20
65.5
 30
0
 11
-69.49999999999989
 21
65.5
 31
0
  0
LINE
  8
1
 62
7
 10
-72.7999999999999
 20
66.5
 30
0
 11
-71.7999999999999
 21
66.5
 31
0
  0
LINE
  8
1
 62
7
 10
-71.09999999999991
 20
65.5
 30
0
 11
-71.09999999999991
 21
55.5
 31
0
  0
LINE
  8
1
 62
7
 10
-69.49999999999989
 20
65.5
 30
0
 11
-68.99999999999989
 21
65
 31
0
  0
LINE
  8
1
 62
7
 10
-69.49999999999989
 20
55.5
 30
0
 11
-68.99999999999989
 21
56
 31
0
  0
LINE
  8
1
 62
7
 10
-71.7999999999999
 20
66.5
 30
0
 11
-71.7999999999999
 21
50.61729314364243
 31
0
  0
LINE
  8
1
 62
7
 10
-71.99999999999989
 20
-66.53672573724259
 30
0
 11
-70.99999999999989
 21
-66.53672573724259
 31
0
  0
LINE
  8
1
 62
7
 10
-72.7999999999999
 20
-68
 30
0
 11
-72.7999999999999
 21
68
 31
0
  0
LINE
  8
1
 62
7
 10
-71.99999999999989
 20
47.5
 30
0
 11
-71.99999999999989
 21
-66.53672573724259
 31
0
  0
LINE
  8
1
 62
7
 10
-70.99999999999989
 20
-41
 30
0
 11
-68.09999999999988
 21
-41
 31
0
  0
LINE
  8
1
 62
7
 10
-70.99999999999989
 20
-66.53672573724259
 30
0
 11
-70.99999999999989
 21
47.63165249758737
 31
0
  0
LINE
  8
1
 62
7
 10
-68.09999999999988
 20
-54
 30
0
 11
-68.09999999999988
 21
-41
 31
0
  0
LINE
  8
1
 62
7
 10
-70.99999999999989
 20
-54
 30
0
 11
-68.09999999999988
 21
-54
 31
0
  0
LINE
  8
1
 62
7
 10
-95.4999999999999
 20
67.5
 30
0
 11
-101.5
 21
67.5
 31
0
  0
LINE
  8
1
 62
3
  6
DASHDOT
 10
-111.0999999999999
 20
0
 30
0
 11
-114.9182177248651
 21
0
 31
0
  0
LINE
  8
1
 62
3
  6
DASHDOT
 10
-70.99999999999989
 20
-1.77635683940025e-014
 30
0
 11
-67.50736648592181
 21
0
 31
0
  0
LINE
  8
1
 62
7
 10
-72.79999999999998
 20
50.48564064605506
 30
0
 11
-71.99999999999989
 21
47.5
 31
0
  0
LINE
  8
1
 62
7
 10
-71.7999999999999
 20
50.61729314364243
 30
0
 11
-70.99999999999989
 21
47.63165249758737
 31
0
  0
LINE
  8
1
 62
7
 10
33.40000000000003
 20
-33
 30
0
 11
33.40000000000003
 21
-68
 31
0
  0
LINE
  8
1
 62
3
  6
DASHDOT
 10
32.31788554952066
 20
-47.5
 30
0
 11
55.15910746940595
 21
-47.5
 31
0
  0
LINE
  8
1
 62
7
 10
17.20000000000003
 20
-25.49999999999989
 30
0
 11
17.20000000000003
 21
-33.14999999999986
 31
0
  0
LINE
  8
1
 62
7
 10
12.60000000000004
 20
92.99542969767487
 30
0
 11
12.60000000000004
 21
95.99542969767487
 31
0
  0
LINE
  8
1
 62
7
 10
13.10000000000004
 20
92.99542969767487
 30
0
 11
13.10000000000004
 21
95.99542969767487
 31
0
  0
LINE
  8
1
 62
7
 10
12.10000000000004
 20
95.99542969767487
 30
0
 11
12.10000000000004
 21
92.99542969767487
 31
0
  0
LINE
  8
1
 62
7
 10
11.35000000000004
 20
92.99542969767487
 30
0
 11
13.85000000000004
 21
92.99542969767487
 31
0
  0
LINE
  8
1
 62
7
 10
13.85000000000004
 20
92.99542969767487
 30
0
 11
13.85000000000004
 21
67.50140740895994
 31
0
  0
LINE
  8
1
 62
7
 10
11.35000000000004
 20
92.99542969767487
 30
0
 11
11.35000000000004
 21
67.50140740895994
 31
0
  0
LINE
  8
1
 62
7
 10
17.20000000000003
 20
-25.49999999999989
 30
0
 11
4
 21
-25.5
 31
0
  0
LINE
  8
1
 62
7
 10
27.20000000000003
 20
-33.14999999999986
 30
0
 11
17.20000000000003
 21
-33.14999999999986
 31
0
  0
LINE
  8
1
 62
7
 10
27.20000000000003
 20
-67.84990803106435
 30
0
 11
27.20000000000003
 21
-33.14999999999986
 31
0
  0
LINE
  8
1
 62
7
 10
17.20000000000003
 20
-67.84990803106435
 30
0
 11
27.20000000000003
 21
-67.84990803106435
 31
0
  0
LINE
  8
1
 62
7
 10
31.20000000000003
 20
-67.49999999999989
 30
0
 11
29.17927405783634
 21
-70.99999999999989
 31
0
  0
LINE
  8
1
 62
7
 10
33.20000000000003
 20
-67.49999999999989
 30
0
 11
31.20000000000003
 21
-67.49999999999989
 31
0
  0
LINE
  8
1
 62
7
 10
33.20000000000003
 20
-33.49999999999989
 30
0
 11
31.20000000000003
 21
-33.49999999999989
 31
0
  0
LINE
  8
1
 62
7
 10
31.20000000000003
 20
-28.99999999999989
 30
0
 11
31.20000000000003
 21
-33.49999999999989
 31
0
  0
LINE
  8
1
 62
7
 10
17.20000000000003
 20
-67.84990803106435
 30
0
 11
17.20000000000003
 21
-70.99999999999989
 31
0
  0
LINE
  8
1
 62
7
 10
29.17927405783634
 20
-70.99999999999989
 30
0
 11
17.20000000000003
 21
-70.99999999999989
 31
0
  0
LINE
  8
1
 62
7
 10
17.20000000000003
 20
71
 30
0
 11
29.17927405783634
 21
71
 31
0
  0
LINE
  8
1
 62
7
 10
17.20000000000003
 20
71
 30
0
 11
17.20000000000003
 21
67.84990803106435
 31
0
  0
LINE
  8
1
 62
7
 10
33.00000000000004
 20
29
 30
0
 11
33.00000000000004
 21
-28.99999999999989
 31
0
  0
LINE
  8
1
 62
7
 10
31.20000000000003
 20
33.5
 30
0
 11
31.20000000000003
 21
29
 31
0
  0
LINE
  8
1
 62
7
 10
31.20000000000003
 20
33.5
 30
0
 11
33.20000000000003
 21
33.5
 31
0
  0
LINE
  8
1
 62
7
 10
33.20000000000003
 20
67.5
 30
0
 11
33.20000000000003
 21
31.847
 31
0
  0
LINE
  8
1
 62
7
 10
31.20000000000003
 20
67.5
 30
0
 11
33.20000000000003
 21
67.5
 31
0
  0
LINE
  8
1
 62
7
 10
29.17927405783634
 20
71
 30
0
 11
31.20000000000003
 21
67.5
 31
0
  0
LINE
  8
1
 62
7
 10
27.20000000000003
 20
67.84990803106435
 30
0
 11
17.20000000000003
 21
67.84990803106435
 31
0
  0
LINE
  8
1
 62
7
 10
27.20000000000003
 20
33.14999999999998
 30
0
 11
27.20000000000003
 21
67.84990803106435
 31
0
  0
LINE
  8
1
 62
7
 10
17.20000000000003
 20
33.14999999999998
 30
0
 11
27.20000000000003
 21
33.14999999999998
 31
0
  0
LINE
  8
1
 62
7
 10
17.20000000000003
 20
25.5
 30
0
 11
17.20000000000003
 21
33.14999999999998
 31
0
  0
LINE
  8
1
 62
7
 10
17.20000000000003
 20
25.5
 30
0
 11
4
 21
25.5
 31
0
  0
LINE
  8
1
 62
7
 10
4
 20
25.5
 30
0
 11
4
 21
-25.5
 31
0
  0
LINE
  8
1
 62
7
 10
4
 20
15.5
 30
0
 11
33.00000000000004
 21
15.5
 31
0
  0
LINE
  8
1
 62
7
 10
4
 20
-12.5
 30
0
 11
33.00000000000004
 21
-12.5
 31
0
  0
LINE
  8
1
 62
3
  6
DASHDOT
 10
-1.060399130147005
 20
-75
 30
0
 11
3.650035319415792
 21
-75
 31
0
  0
LINE
  8
1
 62
7
 10
0
 20
-78.25
 30
0
 11
2.599999999999994
 21
-78.25
 31
0
  0
LINE
  8
1
 62
7
 10
0
 20
-71.75
 30
0
 11
2.599999999999994
 21
-71.75
 31
0
  0
LINE
  8
1
 62
7
 10
2.599999999999994
 20
32.50000000000001
 30
0
 11
0
 21
32.5
 31
0
  0
LINE
  8
1
 62
7
 10
0
 20
-32.5
 30
0
 11
2.599999999999994
 21
-32.5
 31
0
  0
LINE
  8
1
 62
7
 10
0
 20
62.5
 30
0
 11
2.599999999999994
 21
62.5
 31
0
  0
LINE
  8
1
 62
7
 10
0
 20
-82.5
 30
0
 11
0
 21
62.5
 31
0
  0
LINE
  8
1
 62
7
 10
2.599999999999994
 20
-82.5
 30
0
 11
0
 21
-82.5
 31
0
  0
LINE
  8
1
 62
7
 10
2.599999999999994
 20
-82.5
 30
0
 11
2.599999999999994
 21
-60.47587613882921
 31
0
  0
LINE
  8
1
 62
7
 10
7.001923788646693
 20
34
 30
0
 11
25.60000000000004
 21
34
 31
0
  0
LINE
  8
1
 62
7
 10
25.60000000000004
 20
-34
 30
0
 11
7.001923788646693
 21
-34
 31
0
  0
LINE
  8
1
 62
7
 10
25.60000000000004
 20
-34
 30
0
 11
25.60000000000004
 21
-67.34990803106435
 31
0
  0
LINE
  8
1
 62
7
 10
182.1
 20
70.99999999999997
 30
0
 11
182.1000000000001
 21
92.99542969767487
 31
0
  0
LINE
  8
1
 62
7
 10
183.7789273101951
 20
97.12332680907745
 30
0
 11
183.7789273101951
 21
92.99542969767487
 31
0
  0
LINE
  8
1
 62
7
 10
183.2007143775826
 20
97.12332680907745
 30
0
 11
183.2007143775826
 21
92.99542969767487
 31
0
  0
LINE
  8
1
 62
7
 10
182.5839539161292
 20
97.12332680907745
 30
0
 11
182.5839539161292
 21
92.99542969767487
 31
0
  0
LINE
  8
1
 62
7
 10
179.6
 20
92.99542969767487
 30
0
 11
184.6
 21
92.99542969767487
 31
0
  0
LINE
  8
1
 62
7
 10
185.6
 20
11.99999999999999
 30
0
 11
185.6
 21
15.49999999999999
 31
0
  0
LINE
  8
1
 62
7
 10
178.6
 20
15.49999999999999
 30
0
 11
185.6
 21
15.49999999999999
 31
0
  0
LINE
  8
1
 62
7
 10
215.786050525403
 20
-62.50000000000003
 30
0
 11
235.9516480713451
 21
-62.50000000000001
 31
0
  0
LINE
  8
1
 62
7
 10
244.6
 20
-33.68605052540296
 30
0
 11
244.6
 21
-53.85164807134507
 31
0
  0
LINE
  8
1
 62
7
 10
215.786050525403
 20
62.49999999999999
 30
0
 11
235.9516480713451
 21
62.49999999999998
 31
0
  0
LINE
  8
1
 62
3
  6
DASHDOT
 10
216.7789908938409
 20
20.02192472778356
 30
0
 11
231.299854487791
 21
28.4055492326165
 31
0
  0
LINE
  8
1
 62
7
 10
244.6
 20
53.85164807134503
 30
0
 11
244.6
 21
33.6860505254029
 31
0
  0
LINE
  8
1
 62
3
  6
DASHDOT
 10
238.7724570548161
 20
-56.67245705481608
 30
0
 11
231.582537715485
 21
-49.48253771548502
 31
0
  0
LINE
  8
1
 62
3
  6
DASHDOT
 10
238.7724570548162
 20
56.67245705481607
 30
0
 11
231.5825377154851
 21
49.48253771548498
 31
0
  0
LINE
  8
1
 62
7
 10
184.6
 20
70.9559722644965
 30
0
 11
184.6
 21
92.99542969767487
 31
0
  0
LINE
  8
1
 62
7
 10
33.40000000000003
 20
68
 30
0
 11
33.40000000000003
 21
-33
 31
0
  0
LINE
  8
1
 62
7
 10
33.40000000000003
 20
68
 30
0
 11
38.30000000000003
 21
68
 31
0
  0
LINE
  8
1
 62
7
 10
39.1
 20
47.5
 30
0
 11
39.1
 21
-66.53672573724259
 31
0
  0
LINE
  8
1
 62
7
 10
33.40000000000003
 20
33
 30
0
 11
39.1
 21
33
 31
0
  0
LINE
  8
1
 62
7
 10
39.1
 20
-33
 30
0
 11
33.40000000000003
 21
-33
 31
0
  0
LINE
  8
1
 62
7
 10
38.30000000000003
 20
-68
 30
0
 11
33.40000000000003
 21
-68
 31
0
  0
LINE
  8
1
 62
7
 10
42.1
 20
65
 30
0
 11
42.1
 21
56
 31
0
  0
LINE
  8
1
 62
7
 10
39.30000000000003
 20
55.5
 30
0
 11
41.6
 21
55.5
 31
0
  0
LINE
  8
1
 62
7
 10
39.30000000000003
 20
65.5
 30
0
 11
41.6
 21
65.5
 31
0
  0
LINE
  8
1
 62
7
 10
38.30000000000003
 20
66.5
 30
0
 11
39.30000000000003
 21
66.5
 31
0
  0
LINE
  8
1
 62
7
 10
40.00000000000001
 20
65.5
 30
0
 11
40.00000000000001
 21
55.5
 31
0
  0
LINE
  8
1
 62
7
 10
41.6
 20
65.5
 30
0
 11
42.1
 21
65
 31
0
  0
LINE
  8
1
 62
7
 10
41.6
 20
55.5
 30
0
 11
42.1
 21
56
 31
0
  0
LINE
  8
1
 62
7
 10
38.30000000000003
 20
47.5
 30
0
 11
38.30000000000003
 21
68
 31
0
  0
LINE
  8
1
 62
7
 10
38.35885855344863
 20
54.5
 30
0
 11
39.30000000000003
 21
54.5
 31
0
  0
LINE
  8
1
 62
7
 10
39.30000000000003
 20
66.5
 30
0
 11
39.30000000000003
 21
50.61729314364243
 31
0
  0
LINE
  8
1
 62
7
 10
40.1
 20
47.63165249758737
 30
0
 11
40.1
 21
-44.5
 31
0
  0
LINE
  8
1
 62
7
 10
39.1
 20
-66.53672573724259
 30
0
 11
40.1
 21
-66.53672573724259
 31
0
  0
LINE
  8
1
 62
7
 10
39.09999999999999
 20
-38.5
 30
0
 11
40.09999999999999
 21
-38.5
 31
0
  0
LINE
  8
1
 62
7
 10
33.40000000000003
 20
-41.5
 30
0
 11
39.1
 21
-41.5
 31
0
  0
LINE
  8
1
 62
7
 10
33.40000000000003
 20
-53.5
 30
0
 11
38.30000000000003
 21
-53.5
 31
0
  0
LINE
  8
1
 62
7
 10
38.30000000000003
 20
-53.5
 30
0
 11
38.30000000000003
 21
-68
 31
0
  0
LINE
  8
1
 62
7
 10
40.1
 20
-50.5
 30
0
 11
40.1
 21
-66.53672573724259
 31
0
  0
LINE
  8
1
 62
7
 10
40.1
 20
-41
 30
0
 11
43
 21
-41
 31
0
  0
LINE
  8
1
 62
7
 10
43
 20
-41
 30
0
 11
43
 21
-44.5
 31
0
  0
LINE
  8
1
 62
7
 10
43
 20
-50.5
 30
0
 11
43
 21
-54
 31
0
  0
LINE
  8
1
 62
7
 10
40.1
 20
-54
 30
0
 11
43
 21
-54
 31
0
  0
LINE
  8
1
 62
7
 10
39.09999999999999
 20
-58.28122618943678
 30
0
 11
40.09999999999999
 21
-58.28122618943678
 31
0
  0
LINE
  8
1
 62
7
 10
180.421072689805
 20
92.99542969767487
 30
0
 11
180.421072689805
 21
97.12332680907745
 31
0
  0
LINE
  8
1
 62
7
 10
180.9992856224175
 20
92.99542969767487
 30
0
 11
180.9992856224175
 21
97.12332680907745
 31
0
  0
LINE
  8
1
 62
7
 10
181.6160460838708
 20
92.99542969767487
 30
0
 11
181.6160460838708
 21
97.12332680907745
 31
0
  0
LINE
  8
1
 62
7
 10
178.6
 20
15.49999999999999
 30
0
 11
178.6
 21
11.99999999999999
 31
0
  0
LINE
  8
1
 62
7
 10
128.248351928655
 20
-62.50000000000001
 30
0
 11
148.4139494745971
 21
-62.50000000000003
 31
0
  0
LINE
  8
1
 62
7
 10
119.6
 20
-53.85164807134507
 30
0
 11
119.6
 21
-33.68605052540296
 31
0
  0
LINE
  8
1
 62
7
 10
128.248351928655
 20
62.49999999999998
 30
0
 11
148.4139494745971
 21
62.49999999999999
 31
0
  0
LINE
  8
1
 62
3
  6
DASHDOT
 10
132.9001455122091
 20
28.4055492326165
 30
0
 11
147.4210091061592
 21
20.02192472778356
 31
0
  0
LINE
  8
1
 62
7
 10
119.6
 20
33.6860505254029
 30
0
 11
119.6
 21
53.85164807134503
 31
0
  0
LINE
  8
1
 62
3
  6
DASHDOT
 10
132.6174622845149
 20
-49.48253771548503
 30
0
 11
125.4275429451838
 21
-56.67245705481609
 31
0
  0
LINE
  8
1
 62
3
  6
DASHDOT
 10
132.6174622845149
 20
49.482537715485
 30
0
 11
125.4275429451838
 21
56.67245705481609
 31
0
  0
LINE
  8
1
 62
7
 10
179.6
 20
70.9559722644965
 30
0
 11
179.6
 21
92.99542969767487
 31
0
  0
LINE
  8
1
 62
3
  6
DASHDOT
 10
182.1
 20
-39.4249961665976
 30
0
 11
182.1
 21
-56.0505119640146
 31
0
  0
LINE
  8
1
 62
3
  6
DASHDOT
 10
192.012014857325
 20
-1.77635683940025e-014
 30
0
 11
172.1879851426751
 21
-1.77635683940025e-014
 31
0
  0
LINE
  8
1
 62
3
  6
DASHDOT
 10
182.1
 20
9.912014857324945
 30
0
 11
182.1
 21
-9.91201485732498
 31
0
  0
LINE
  8
1
 62
7
 10
31.20000000000003
 20
29
 30
0
 11
33.00000000000004
 21
29
 31
0
  0
LINE
  8
1
 62
7
 10
31.20000000000003
 20
-28.99999999999989
 30
0
 11
33.00000000000004
 21
-28.99999999999989
 31
0
  0
LINE
  8
1
 62
7
 10
9.599999999999994
 20
67.49990803106435
 30
0
 11
15.60000000000004
 21
67.49990803106435
 31
0
  0
LINE
  8
1
 62
3
  6
DASHDOT
 10
0
 20
0
 30
0
 11
-3.818217724865207
 21
0
 31
0
  0
LINE
  8
1
 62
3
  6
DASHDOT
 10
40.1
 20
-1.77635683940025e-014
 30
0
 11
43.5926335140782
 21
0
 31
0
  0
LINE
  8
1
 62
7
 10
38.30000000000003
 20
47.5
 30
0
 11
39.1
 21
47.5
 31
0
  0
LINE
  8
1
 62
7
 10
38.30000000000001
 20
50.48564064605506
 30
0
 11
39.1
 21
47.5
 31
0
  0
LINE
  8
1
 62
7
 10
39.30000000000003
 20
50.61729314364243
 30
0
 11
40.1
 21
47.63165249758737
 31
0
  0
LINE
  8
1
 62
7
 10
-95.4999999999999
 20
67.5
 30
0
 11
-95.4999999999999
 21
67.35000000000002
 31
0
  0
LINE
  8
1
 62
7
 10
2.599999999999994
 20
-60.47587613882921
 30
0
 11
2.599999999999994
 21
62.5
 31
0
  0
LINE
  8
1
 62
7
 10
25.60000000000004
 20
-67.34990803106435
 30
0
 11
15.60000000000004
 21
-67.34990803106435
 31
0
  0
LINE
  8
1
 62
7
 10
15.60000000000004
 20
-67.34990803106435
 30
0
 11
15.60000000000004
 21
-67.49990803106435
 31
0
  0
LINE
  8
1
 62
7
 10
15.60000000000004
 20
-67.49990803106435
 30
0
 11
9.599999999999994
 21
-67.49990803106435
 31
0
  0
LINE
  8
1
 62
7
 10
15.60000000000004
 20
67.49990803106435
 30
0
 11
15.60000000000004
 21
67.34990803106435
 31
0
  0
LINE
  8
1
 62
7
 10
15.60000000000004
 20
67.34990803106435
 30
0
 11
25.60000000000004
 21
67.34990803106435
 31
0
  0
LINE
  8
1
 62
7
 10
25.60000000000004
 20
67.34990803106435
 30
0
 11
25.60000000000004
 21
34
 31
0
  0
LINE
  8
1
 62
7
 10
33.20000000000003
 20
-31.847
 30
0
 11
33.20000000000003
 21
-67.49999999999989
 31
0
  0
LINE
  8
1
 62
7
 10
39.1
 20
-52.5
 30
0
 11
38.4
 21
-52.5
 31
0
  0
LINE
  8
1
 62
7
 10
38.40000000000001
 20
-42.5
 30
0
 11
39.1
 21
-42.5
 31
0
  0
LINE
  8
1
 62
7
 10
38.40000000000001
 20
-42.25
 30
0
 11
37.90000000000001
 21
-42.25
 31
0
  0
LINE
  8
1
 62
7
 10
37.90000000000001
 20
-42.25
 30
0
 11
37.90000000000001
 21
-52.75
 31
0
  0
LINE
  8
1
 62
7
 10
37.90000000000001
 20
-52.75
 30
0
 11
38.40000000000001
 21
-52.75
 31
0
  0
LINE
  8
1
 62
7
 10
38.40000000000001
 20
-52.75
 30
0
 11
38.40000000000001
 21
-42.25
 31
0
  0
LINE
  8
1
 62
7
 10
34.2
 20
-44.5
 30
0
 11
34.2
 21
-50.5
 31
0
  0
LINE
  8
1
 62
7
 10
52.8
 20
-44.5
 30
0
 11
53.40000000000001
 21
-45.1
 31
0
  0
LINE
  8
1
 62
7
 10
53.40000000000001
 20
-45.1
 30
0
 11
53.40000000000001
 21
-49.9
 31
0
  0
LINE
  8
1
 62
7
 10
53.40000000000001
 20
-49.9
 30
0
 11
52.8
 21
-50.5
 31
0
  0
LINE
  8
1
 62
7
 10
52.8
 20
-50.5
 30
0
 11
39.1
 21
-50.5
 31
0
  0
LINE
  8
1
 62
7
 10
52.8
 20
-44.5
 30
0
 11
52.8
 21
-50.5
 31
0
  0
LINE
  8
1
 62
3
 10
53.40000000000001
 20
-45.1
 30
0
 11
39.93923048454133
 21
-45.1
 31
0
  0
LINE
  8
1
 62
3
 10
39.93923048454133
 20
-45.1
 30
0
 11
39.1
 21
-44.61547005383791
 31
0
  0
LINE
  8
1
 62
3
 10
53.40000000000001
 20
-49.9
 30
0
 11
39.93923048454133
 21
-49.9
 31
0
  0
LINE
  8
1
 62
3
 10
39.93923048454133
 20
-49.9
 30
0
 11
39.1
 21
-50.38452994616209
 31
0
  0
LINE
  8
1
 62
3
 10
39.93923048454133
 20
-44.5
 30
0
 11
39.93923048454133
 21
-50.5
 31
0
  0
LINE
  8
1
 62
7
 10
39.1
 20
-44.5
 30
0
 11
52.8
 21
-44.5
 31
0
  0
LINE
  8
1
 62
7
 10
-71.99999999999989
 20
47.5
 30
0
 11
-72.7999999999999
 21
47.5
 31
0
  0
LINE
  8
1
 62
7
 10
-108.4999999999999
 20
62.5
 30
0
 11
-108.4999999999999
 21
-82.5
 31
0
  0
LINE
  8
1
 62
7
 10
33.00000000000004
 20
12.49999999999996
 30
0
 11
4
 21
12.49999999999996
 31
0
  0
ARC
  8
1
 62
7
 10
-101.4999999999999
 20
60.5
 30
0
 40
7
 50
90
 51
180.1974568809505
  0
ARC
  8
1
 62
7
 10
9.599999999999994
 20
40.5
 30
0
 40
7
 50
180
 51
248.2132107017383
  0
ARC
  8
1
 62
7
 10
9.599999999999994
 20
-40.5
 30
0
 40
6.999999999999994
 50
111.7867892982617
 51
180
  0
ARC
  8
1
 62
7
 10
182.1
 20
-1.77635683940025e-014
 30
0
 40
12.50000000000001
 50
106.260204708312
 51
73.73979529168805
  0
ARC
  8
1
 62
7
 10
202.7487517086377
 20
-29.48947359440372
 30
0
 40
18
 50
208.8985877447397
 51
304.9999999999999
  0
ARC
  8
1
 62
7
 10
200.6
 20
-32.04293994002425
 30
0
 40
29.99999999999999
 50
244.3802125344357
 51
300.0000000000003
  0
ARC
  8
1
 62
7
 10
182.1
 20
-77.50000000000003
 30
0
 40
19.21877381056326
 50
73.28329168614469
 51
106.716708313855
  0
ARC
  8
1
 62
7
 10
182.1
 20
-1.77635683940025e-014
 30
0
 40
67
 50
300.0000000000001
 51
359.9999999999999
  0
ARC
  8
1
 62
7
 10
182.1
 20
-1.77635683940025e-014
 30
0
 40
38.50000000000001
 50
262.7027180846521
 51
277.2972819153481
  0
ARC
  8
1
 62
7
 10
197.3142574226652
 20
32.62708033331936
 30
0
 40
18.00000000000006
 50
328.8985877447398
 51
65.00000000000007
  0
ARC
  8
1
 62
7
 10
200.6
 20
32.0429399400242
 30
0
 40
29.99999999999999
 50
4.380212534435624
 51
59.99999999999999
  0
ARC
  8
1
 62
7
 10
182.1
 20
-1.77635683940025e-014
 30
0
 40
66.99999999999999
 50
59.99999999999999
 51
120
  0
ARC
  8
1
 62
7
 10
182.1
 20
-1.77635683940025e-014
 30
0
 40
38.49999999999999
 50
29.99999999999995
 51
37.29728191534787
  0
ARC
  8
1
 62
7
 10
182.1
 20
-1.77635683940025e-014
 30
0
 40
38.50000000000004
 50
22.70271808465189
 51
29.99999999999995
  0
ARC
  8
1
 62
7
 10
182.1
 20
-1.77635683940025e-014
 30
0
 40
54.00000000000004
 50
305
 51
354.9999999999999
  0
ARC
  8
1
 62
7
 10
249.216968793294
 20
38.74999999999994
 30
0
 40
19.21877381056326
 50
193.2832916861447
 51
226.7167083138556
  0
ARC
  8
1
 62
7
 10
219.1
 20
-7.105427357601002e-014
 30
0
 40
30.00000000000011
 50
359.9999999999997
 51
55.61978746556415
  0
ARC
  8
1
 62
7
 10
217.9630091313029
 20
-3.13760673891576
 30
0
 40
18
 50
354.9999999999998
 51
91.10141225526027
  0
ARC
  8
1
 62
7
 10
182.1
 20
-1.77635683940025e-014
 30
0
 40
47.50000000000001
 50
285.7228604680582
 51
14.27713953194178
  0
ARC
  8
1
 62
7
 10
182.1
 20
-1.77635683940025e-014
 30
0
 40
82.5
 50
40.74905437747039
 51
49.25094562252958
  0
ARC
  8
1
 62
7
 10
182.1
 20
-1.77635683940025e-014
 30
0
 40
82.50000000000004
 50
310.7490543774704
 51
319.2509456225296
  0
ARC
  8
1
 62
7
 10
161.4512482913624
 20
-29.48947359440372
 30
0
 40
18.00000000000005
 50
234.9999999999998
 51
331.1014122552602
  0
ARC
  8
1
 62
7
 10
163.6
 20
-32.04293994002425
 30
0
 40
29.99999999999999
 50
240
 51
295.6197874655646
  0
ARC
  8
1
 62
7
 10
182.1
 20
-1.77635683940025e-014
 30
0
 40
67
 50
180.0000000000001
 51
240
  0
ARC
  8
1
 62
7
 10
166.8857425773348
 20
32.62708033331936
 30
0
 40
18.00000000000001
 50
115.0000000000001
 51
211.1014122552604
  0
ARC
  8
1
 62
7
 10
163.6
 20
32.0429399400242
 30
0
 40
30
 50
120
 51
175.6197874655644
  0
ARC
  8
1
 62
7
 10
114.983031206706
 20
38.74999999999994
 30
0
 40
19.21877381056326
 50
313.2832916861447
 51
346.7167083138553
  0
ARC
  8
1
 62
7
 10
182.1
 20
-1.77635683940025e-014
 30
0
 40
54.00000000000005
 50
64.99999999999999
 51
115
  0
ARC
  8
1
 62
7
 10
182.1
 20
-1.77635683940025e-014
 30
0
 40
38.49999999999997
 50
142.702718084652
 51
157.297281915348
  0
ARC
  8
1
 62
7
 10
182.1
 20
-1.77635683940025e-014
 30
0
 40
53.99999999999995
 50
185.0000000000001
 51
235
  0
ARC
  8
1
 62
7
 10
145.1
 20
-7.105427357601002e-014
 30
0
 40
30
 50
124.3802125344356
 51
180.0000000000001
  0
ARC
  8
1
 62
7
 10
146.2369908686972
 20
-3.13760673891576
 30
0
 40
18.00000000000004
 50
88.89858774473973
 51
185.0000000000001
  0
ARC
  8
1
 62
7
 10
182.1
 20
-1.77635683940025e-014
 30
0
 40
47.49999999999995
 50
165.7228604680582
 51
254.2771395319417
  0
ARC
  8
1
 62
7
 10
182.1
 20
-1.77635683940025e-014
 30
0
 40
82.49999999999996
 50
130.7490543774703
 51
139.2509456225296
  0
ARC
  8
1
 62
7
 10
182.1
 20
-1.77635683940025e-014
 30
0
 40
82.5
 50
220.7490543774704
 51
229.2509456225297
  0
ARC
  8
1
 62
7
 10
182.1
 20
-1.77635683940025e-014
 30
0
 40
47.50000000000004
 50
45.72286046805807
 51
134.2771395319419
  0
ARC
  8
1
 62
3
  6
DASHDOT
 10
182.1
 20
-1.77635683940025e-014
 30
0
 40
47.49999999999996
 50
138.3862673059049
 51
161.2822350846124
  0
ARC
  8
1
 62
3
  6
DASHDOT
 10
182.1
 20
-1.77635683940025e-014
 30
0
 40
47.50000000000003
 50
19.24884820770174
 51
41.15022881213135
  0
ARC
  8
1
 62
3
  6
DASHDOT
 10
182.1
 20
-1.77635683940025e-014
 30
0
 40
47.49999999999999
 50
258.1903766277513
 51
281.417559334931
  0
ARC
  8
1
 62
3
  6
DASHDOT
 10
182.1
 20
-1.77635683940025e-014
 30
0
 40
75
 50
39.64459938694724
 51
50.35540061305269
  0
ARC
  8
1
 62
3
  6
DASHDOT
 10
182.1
 20
-1.77635683940025e-014
 30
0
 40
75
 50
129.6445993869473
 51
140.3554006130527
  0
ARC
  8
1
 62
3
  6
DASHDOT
 10
182.1
 20
-1.77635683940025e-014
 30
0
 40
75.00000000000007
 50
219.6445993869472
 51
230.3554006130527
  0
ARC
  8
1
 62
3
  6
DASHDOT
 10
182.1
 20
-1.77635683940025e-014
 30
0
 40
75.0000000000001
 50
309.6445993869472
 51
320.3554006130526
  0
ARC
  8
1
 62
7
 10
9.599999999999994
 20
-60.49990803106448
 30
0
 40
6.999999999999869
 50
179.8025431190488
 51
270
  0
ARC
  8
1
 62
7
 10
9.599999999999994
 20
60.49990803106448
 30
0
 40
6.999999999999872
 50
90
 51
180.1974568809512
  0
ARC
  8
1
 62
7
 10
38.73336471440391
 20
-47.78764419701977
 30
0
 40
5.600000000000024
 50
98.55826771735255
 51
144.0499792738292
  0
ARC
  8
1
 62
7
 10
38.73336471440391
 20
-47.21235580298023
 30
0
 40
5.60000000000002
 50
215.9500207261709
 51
261.4417322826475
  0
ARC
  8
1
 62
7
 10
-101.4999999999999
 20
-60.5
 30
0
 40
6.999999999999968
 50
179.8025431190488
 51
270
  0
CIRCLE
  8
1
 62
7
 10
234.4945369289586
 20
-30.25000000000007
 30
0
 40
5
  0
CIRCLE
  8
1
 62
7
 10
223.2362066797609
 20
23.74999999999995
 30
0
 40
6.5
  0
CIRCLE
  8
1
 62
7
 10
223.2362066797609
 20
23.74999999999995
 30
0
 40
3
  0
CIRCLE
  8
1
 62
7
 10
223.2362066797609
 20
23.74999999999995
 30
0
 40
2.5
  0
CIRCLE
  8
1
 62
7
 10
235.1330085889911
 20
-53.03300858899106
 30
0
 40
3.25
  0
CIRCLE
  8
1
 62
7
 10
235.1330085889911
 20
53.03300858899102
 30
0
 40
3.25
  0
CIRCLE
  8
1
 62
7
 10
129.7054630710415
 20
-30.25000000000007
 30
0
 40
5
  0
CIRCLE
  8
1
 62
7
 10
140.9637933202392
 20
23.74999999999995
 30
0
 40
6.5
  0
CIRCLE
  8
1
 62
7
 10
140.9637933202392
 20
23.74999999999995
 30
0
 40
3
  0
CIRCLE
  8
1
 62
7
 10
140.9637933202392
 20
23.74999999999995
 30
0
 40
2.5
  0
CIRCLE
  8
1
 62
7
 10
129.0669914110089
 20
-53.03300858899107
 30
0
 40
3.25
  0
CIRCLE
  8
1
 62
7
 10
129.0669914110089
 20
53.03300858899104
 30
0
 40
3.25
  0
CIRCLE
  8
1
 62
7
 10
182.1
 20
-1.77635683940025e-014
 30
0
 40
68
  0
CIRCLE
  8
1
 62
7
 10
182.1
 20
-1.77635683940025e-014
 30
0
 40
71
  0
CIRCLE
  8
1
 62
7
 10
182.1
 20
-1.77635683940025e-014
 30
0
 40
33.00000000000001
  0
CIRCLE
  8
1
 62
7
 10
182.1
 20
-47.50000000000003
 30
0
 40
6.5
  0
CIRCLE
  8
1
 62
7
 10
182.1
 20
-47.50000000000003
 30
0
 40
2.999999999999986
  0
CIRCLE
  8
1
 62
7
 10
182.1
 20
-47.50000000000003
 30
0
 40
2.499999999999993
  0
CIRCLE
  8
1
 62
7
 10
182.1
 20
60.49999999999998
 30
0
 40
4.999999999999993
  0
CIRCLE
  8
1
 62
7
 10
182.1
 20
-1.77635683940025e-014
 30
0
 40
28.99999999999992
  0
TEXT
  8
1
 62
7
 10
-106.7646592555768
 20
126.0903343981731
 30
0
 40
5
  1
TMF 5
 41
0.9
  7
SIMPLEX
  0
TEXT
  8
1
 62
7
 10
-106.5809992825558
 20
116.4962552751411
 30
0
 40
5
  1
DC1504
 41
0.9
  7
SIMPLEX
  0
ENDSEC
  0
EOF
