  0
SECTION
  2
HEADER
  9
$ACADVER
  1
AC1009
  9
$INSBASE
 10
0
 20
0
  9
$EXTMIN
 10
-181.0696439569875
 20
-132.5
  9
$EXTMAX
 10
393.5269702111068
 20
244.401235749566
  9
$LIMMIN
 10
-181.0696439569875
 20
-132.5
  9
$LIMMAX
 10
393.5269702111068
 20
244.401235749566
  9
$VIEWCTR
 10
10
 20
10
  9
$VIEWSIZE
 40
10
  9
$SNAPMODE
 70
0
  9
$SNAPUNIT
 10
1
 20
1
  9
$SNAPBASE
 10
0
 20
0
  9
$SNAPANG
 50
0
  9
$SNAPSTYLE
 70
0
  9
$SNAPISOPAIR
 70
0
  9
$GRIDMODE
 70
0
  9
$GRIDUNIT
 10
0
 20
0
  9
$ORTHOMODE
 70
0
  9
$REGENMODE
 70
1
  9
$FILLMODE
 70
1
  9
$QTEXTMODE
 70
0
  9
$DRAGMODE
 70
2
  9
$LTSCALE
 40
1
  9
$OSMODE
 70
0
  9
$ATTMODE
 70
1
  9
$TEXTSIZE
 40
3.5
  9
$TRACEWID
 40
0.5
  9
$TEXTSTYLE
  7
STANDARD
  9
$CLAYER
  8
0
  9
$CELTYPE
  6
BYLAYER
  9
$CECOLOR
 62
256
  9
$DIMSCALE
 40
1
  9
$DIMASZ
 40
0.18
  9
$DIMEXO
 40
0.0625
  9
$DIMDLI
 40
0.38
  9
$DIMRND
 40
0
  9
$DIMDLE
 40
0
  9
$DIMEXE
 40
0.18
  9
$DIMTP
 40
0
  9
$DIMTM
 40
0
  9
$DIMTXT
 40
0.18
  9
$DIMCEN
 40
0.09
  9
$DIMTSZ
 40
0
  9
$DIMTOL
 70
0
  9
$DIMLIM
 70
0
  9
$DIMTIH
 70
1
  9
$DIMTOH
 70
1
  9
$DIMSE1
 70
0
  9
$DIMSE2
 70
0
  9
$DIMTAD
 70
0
  9
$DIMZIN
 70
0
  9
$DIMBLK
  1

  9
$DIMASO
 70
1
  9
$DIMSHO
 70
1
  9
$DIMPOST
  1

  9
$DIMAPOST
  1

  9
$DIMALT
 70
0
  9
$DIMALTD
 70
2
  9
$DIMALTF
 40
25.4
  9
$DIMLFAC
 40
1
  9
$DIMTOFL
 70
0
  9
$DIMTVP
 40
0
  9
$DIMTIX
 70
0
  9
$DIMSOXD
 70
0
  9
$DIMSAH
 70
0
  9
$DIMBLK1
  1

  9
$DIMBLK2
  1

  9
$DIMSTYLE
  2
*UNNAMED
  9
$DIMCLRD
 70
0
  9
$DIMCLRE
 70
0
  9
$DIMCLRT
 70
0
  9
$DIMTFAC
 40
1
  9
$DIMGAP
 40
0.09
  9
$LUNITS
 70
2
  9
$LUPREC
 70
4
  9
$AXISMODE
 70
0
  9
$AXISUNIT
 10
0
 20
0
  9
$SKETCHINC
 40
0.1
  9
$FILLETRAD
 40
2
  9
$AUNITS
 70
0
  9
$AUPREC
 70
0
  9
$MENU
  1
ACAD
  9
$ELEVATION
 40
0
  9
$THICKNESS
 40
0
  9
$VIEWDIR
 10
0
 20
0
 30
1
  9
$LIMCHECK
 70
0
  9
$BLIPMODE
 70
1
  9
$CHAMFERA
 40
0
  9
$CHAMFERB
 40
0
  9
$FASTZOOM
 70
1
  9
$SKPOLY
 70
0
  9
$ANGBASE
 50
0
  9
$ANGDIR
 70
0
  9
$PDMODE
 70
0
  9
$PDSIZE
 40
0
  9
$PLINEWID
 40
0
  9
$COORDS
 70
2
  0
ENDSEC
  0
SECTION
  2
TABLES
  0
TABLE
  2
DIMSTYLE
 70
0
  0
ENDTAB
  0
TABLE
  2
LTYPE
 70
9
  0
LTYPE
  2
CONTINUOUS
 70
64
  3
Solid line
 72
65
 73
0
 40
0
  0
LTYPE
  2
BORDER
 70
64
  3
__ __ . __ __ .
 72
65
 73
6
 40
26.46168617879382
 49
7.560481765369662
 49
-3.780240882684831
 49
7.560481765369662
 49
-3.780240882684831
 49
0
 49
-3.780240882684831
  0
LTYPE
  2
CENTER
 70
64
  3
____ _ ____ _
 72
65
 73
4
 40
30.24192706147865
 49
18.90120441342415
 49
-3.780240882684831
 49
3.780240882684831
 49
-3.780240882684831
  0
LTYPE
  2
DASHDOT
 70
64
  3
__ . __ . __ .
 72
65
 73
4
 40
15.12096353073932
 49
7.560481765369662
 49
-3.780240882684831
 49
0
 49
-3.780240882684831
  0
LTYPE
  2
DASHED
 70
64
  3
__ __ __ __ __
 72
65
 73
2
 40
11.34072264805449
 49
7.560481765369662
 49
-3.780240882684831
  0
LTYPE
  2
DIVIDE
 70
64
  3
__ . . __ . . 
 72
65
 73
6
 40
18.90120441342415
 49
7.560481765369662
 49
-3.780240882684831
 49
0
 49
-3.780240882684831
 49
0
 49
-3.780240882684831
  0
LTYPE
  2
DOT
 70
64
  3
..............
 72
65
 73
4
 40
7.560481765369662
 49
0
 49
-3.780240882684831
 49
0
 49
-3.780240882684831
  0
LTYPE
  2
HIDDEN
 70
64
  3
_ _ _ _ _ _ _
 72
65
 73
2
 40
5.670361324027247
 49
3.780240882684831
 49
-1.890120441342416
  0
LTYPE
  2
PHANTOM
 70
64
  3
_____ _ _ _____ _ _ 
 72
65
 73
6
 40
37.80240882684831
 49
18.90120441342415
 49
-3.780240882684831
 49
3.780240882684831
 49
-3.780240882684831
 49
3.780240882684831
 49
-3.780240882684831
  0
ENDTAB
  0
TABLE
  2
LAYER
 70
3
  0
LAYER
  2
1
 70
0
 62
7
  6
CONTINUOUS
  0
LAYER
  2
0
 70
0
 62
7
  6
CONTINUOUS
  0
ENDTAB
  0
TABLE
  2
STYLE
 70
4
  0
STYLE
  2
STANDARD
 70
0
 40
0
 41
1
 50
0
 71
0
 42
3.5
  3
txt
  4

  0
STYLE
  2
SIMPLEX
 70
0
 40
0
 41
1
 50
0
 71
0
 42
3.5
  3
simplex
  4

  0
STYLE
  2
COMPLEX
 70
0
 40
0
 41
1
 50
0
 71
0
 42
3.5
  3
complex
  4

  0
STYLE
  2
ITALIC
 70
0
 40
0
 41
1
 50
0
 71
0
 42
3.5
  3
italic
  4

  0
ENDTAB
  0
TABLE
  2
VIEW
 70
0
  0
ENDTAB
  0
ENDSEC
  0
SECTION
  2
BLOCKS
  0
ENDSEC
  0
SECTION
  2
ENTITIES
  0
LINE
  8
1
 62
7
 10
-155.9999999999999
 20
159.7358986131957
 30
0
 11
-155.9999999999999
 21
157.0000000000001
 31
0
  0
LINE
  8
1
 62
7
 10
-154.9999999999999
 20
159.6797870847947
 30
0
 11
-154.9999999999999
 21
157.0000000000001
 31
0
  0
LINE
  8
1
 62
7
 10
-155.4999999999999
 20
159.7358986131957
 30
0
 11
-155.4999999999999
 21
157.0000000000001
 31
0
  0
LINE
  8
1
 62
3
  6
DASHDOT
 10
0
 20
0
 30
0
 11
-8.730024438079681
 21
0
 31
0
  0
LINE
  8
1
 62
3
  6
DASHDOT
 10
55.49999999999977
 20
0
 30
0
 11
62.80282421605318
 21
0
 31
0
  0
LINE
  8
1
 62
7
 10
32.44411841876251
 20
-66
 30
0
 11
32.44411841876251
 21
-107
 31
0
  0
LINE
  8
1
 62
7
 10
16.94411841876251
 20
-66
 30
0
 11
32.44411841876251
 21
-66
 31
0
  0
LINE
  8
1
 62
7
 10
44.49999999999977
 20
-107.5
 30
0
 11
44.49999999999977
 21
107.5000000000001
 31
0
  0
LINE
  8
1
 62
7
 10
16.94411841876251
 20
66
 30
0
 11
32.44411841876251
 21
66
 31
0
  0
LINE
  8
1
 62
3
  6
DASHDOT
 10
281.0269702111068
 20
15.54543863122774
 30
0
 11
281.0269702111068
 21
-15.54543863122774
 31
0
  0
LINE
  8
1
 62
3
  6
DASHDOT
 10
296.5724088423345
 20
0
 30
0
 11
265.4815315798791
 21
0
 31
0
  0
LINE
  8
1
 62
7
 10
282.8769702111068
 20
161.79181220164
 30
0
 11
282.8769702111068
 21
156.7544126656562
 31
0
  0
LINE
  8
1
 62
7
 10
281.0269702111068
 20
156.7544126656562
 30
0
 11
281.0269702111068
 21
112.5
 31
0
  0
LINE
  8
1
 62
7
 10
283.7269702111068
 20
112.4675953330558
 30
0
 11
283.7269702111068
 21
156.7544126656562
 31
0
  0
LINE
  8
1
 62
7
 10
52.69999999999987
 20
-89
 30
0
 11
52.69999999999987
 21
-107.5
 31
0
  0
LINE
  8
1
 62
7
 10
34.89999999999992
 20
65
 30
0
 11
18.89999999999992
 21
65
 31
0
  0
LINE
  8
1
 62
7
 10
34.89999999999992
 20
-107.5
 30
0
 11
34.89999999999992
 21
-65
 31
0
  0
LINE
  8
1
 62
7
 10
22.39999999999992
 20
112.5000000000001
 30
0
 11
22.39999999999992
 21
107.5000000000001
 31
0
  0
LINE
  8
1
 62
7
 10
22.39999999999992
 20
107.5000000000001
 30
0
 11
34.89999999999992
 21
107.5000000000001
 31
0
  0
LINE
  8
1
 62
7
 10
34.89999999999992
 20
107.5000000000001
 30
0
 11
34.89999999999992
 21
65
 31
0
  0
LINE
  8
1
 62
7
 10
18.89999999999992
 20
57.5
 30
0
 11
33.39999999999992
 21
57.5
 31
0
  0
LINE
  8
1
 62
7
 10
33.39999999999992
 20
57.5
 30
0
 11
33.39999999999992
 21
48.5
 31
0
  0
LINE
  8
1
 62
7
 10
33.39999999999992
 20
48.5
 30
0
 11
27.89999999999992
 21
48.5
 31
0
  0
LINE
  8
1
 62
7
 10
27.89999999999992
 20
48.5
 30
0
 11
27.89999999999992
 21
37.5
 31
0
  0
LINE
  8
1
 62
7
 10
22.39999999999992
 20
112.5000000000001
 30
0
 11
38.32457351945698
 21
112.5000000000001
 31
0
  0
LINE
  8
1
 62
7
 10
38.32457351945698
 20
112.5000000000001
 30
0
 11
41.5
 21
107.0000000000001
 31
0
  0
LINE
  8
1
 62
7
 10
41.5
 20
107.0000000000001
 30
0
 11
44.19999999999982
 21
107.0000000000001
 31
0
  0
LINE
  8
1
 62
7
 10
44.19999999999982
 20
107.0000000000001
 30
0
 11
44.19999999999982
 21
-107
 31
0
  0
LINE
  8
1
 62
7
 10
44.19999999999982
 20
54
 30
0
 11
41.19999999999987
 21
54
 31
0
  0
LINE
  8
1
 62
7
 10
41.19999999999987
 20
54
 30
0
 11
41.19999999999987
 21
39
 31
0
  0
LINE
  8
1
 62
7
 10
41.19999999999987
 20
39
 30
0
 11
44
 21
39
 31
0
  0
LINE
  8
1
 62
7
 10
44
 20
-39
 30
0
 11
41.19999999999987
 21
-39
 31
0
  0
LINE
  8
1
 62
7
 10
41.19999999999987
 20
-39
 30
0
 11
41.19999999999987
 21
-54
 31
0
  0
LINE
  8
1
 62
7
 10
44.19999999999982
 20
-107
 30
0
 11
41.5
 21
-107
 31
0
  0
LINE
  8
1
 62
7
 10
41.5
 20
-107
 30
0
 11
38.32457351945698
 21
-112.5
 31
0
  0
LINE
  8
1
 62
7
 10
38.32457351945698
 20
-112.5
 30
0
 11
22.39999999999992
 21
-112.5
 31
0
  0
LINE
  8
1
 62
7
 10
27.89999999999992
 20
-37.5
 30
0
 11
27.89999999999992
 21
-48.5
 31
0
  0
LINE
  8
1
 62
7
 10
27.89999999999992
 20
-48.5
 30
0
 11
33.39999999999992
 21
-48.5
 31
0
  0
LINE
  8
1
 62
7
 10
33.39999999999992
 20
-48.5
 30
0
 11
33.39999999999992
 21
-57.5
 31
0
  0
LINE
  8
1
 62
7
 10
33.39999999999992
 20
-57.5
 30
0
 11
18.89999999999992
 21
-57.49999999999999
 31
0
  0
LINE
  8
1
 62
7
 10
18.89999999999992
 20
-57.49999999999999
 30
0
 11
18.89999999999992
 21
-65
 31
0
  0
LINE
  8
1
 62
7
 10
18.89999999999992
 20
-65
 30
0
 11
34.89999999999992
 21
-65
 31
0
  0
LINE
  8
1
 62
7
 10
34.89999999999992
 20
-107.5
 30
0
 11
22.39999999999992
 21
-107.5
 31
0
  0
LINE
  8
1
 62
7
 10
22.39999999999992
 20
-107.5
 30
0
 11
22.39999999999992
 21
-112.5
 31
0
  0
LINE
  8
1
 62
7
 10
18.89999999999992
 20
65
 30
0
 11
18.89999999999992
 21
57.5
 31
0
  0
LINE
  8
1
 62
7
 10
44
 20
-39
 30
0
 11
44
 21
39
 31
0
  0
LINE
  8
1
 62
7
 10
33.39999999999992
 20
57.5
 30
0
 11
33.39999999999992
 21
48.5
 31
0
  0
LINE
  8
1
 62
7
 10
33.39999999999992
 20
48.5
 30
0
 11
27.89999999999992
 21
48.5
 31
0
  0
LINE
  8
1
 62
7
 10
2
 20
37.5
 30
0
 11
27.89999999999992
 21
37.5
 31
0
  0
LINE
  8
1
 62
7
 10
2
 20
37.5
 30
0
 11
2
 21
-37.5
 31
0
  0
LINE
  8
1
 62
7
 10
2
 20
-37.5
 30
0
 11
27.89999999999992
 21
-37.5
 31
0
  0
LINE
  8
1
 62
7
 10
2
 20
23.5
 30
0
 11
44
 21
23.5
 31
0
  0
LINE
  8
1
 62
7
 10
2
 20
-20
 30
0
 11
44
 21
-20
 31
0
  0
LINE
  8
1
 62
7
 10
32.44411841876251
 20
107.0000000000001
 30
0
 11
32.44411841876251
 21
66
 31
0
  0
LINE
  8
1
 62
7
 10
0
 20
-50
 30
0
 11
0
 21
-132.5
 31
0
  0
LINE
  8
1
 62
7
 10
32.44411841876251
 20
-107
 30
0
 11
6
 21
-107
 31
0
  0
LINE
  8
1
 62
7
 10
16.94411841876251
 20
-57
 30
0
 11
16.94411841876251
 21
-66
 31
0
  0
LINE
  8
1
 62
7
 10
31.44411841876251
 20
-57
 30
0
 11
16.94411841876251
 21
-57
 31
0
  0
LINE
  8
1
 62
7
 10
31.44411841876251
 20
-50
 30
0
 11
31.44411841876251
 21
-57
 31
0
  0
LINE
  8
1
 62
7
 10
31.44411841876251
 20
50
 30
0
 11
0
 21
50
 31
0
  0
LINE
  8
1
 62
7
 10
31.44411841876251
 20
57
 30
0
 11
31.44411841876251
 21
50
 31
0
  0
LINE
  8
1
 62
7
 10
16.94411841876251
 20
57
 30
0
 11
31.44411841876251
 21
57
 31
0
  0
LINE
  8
1
 62
7
 10
16.94411841876251
 20
66
 30
0
 11
16.94411841876251
 21
57
 31
0
  0
LINE
  8
1
 62
7
 10
0
 20
100.0000000000001
 30
0
 11
0
 21
-50
 31
0
  0
LINE
  8
1
 62
7
 10
3.199999999999875
 20
80.00000000000006
 30
0
 11
3.199999999999875
 21
104.2
 31
0
  0
LINE
  8
1
 62
7
 10
0
 20
-50
 30
0
 11
31.44411841876251
 21
-50
 31
0
  0
LINE
  8
1
 62
7
 10
3.199999999999875
 20
-80
 30
0
 11
3.199999999999875
 21
-132.5
 31
0
  0
LINE
  8
1
 62
3
  6
DASHDOT
 10
5.063078020311877
 20
-120
 30
0
 11
-2.229485088963827
 21
-120
 31
0
  0
LINE
  8
1
 62
7
 10
0
 20
-115.75
 30
0
 11
3.199999999999875
 21
-115.75
 31
0
  0
LINE
  8
1
 62
7
 10
6
 20
107.0000000000001
 30
0
 11
3.199999999999875
 21
104.2
 31
0
  0
LINE
  8
1
 62
7
 10
12.5
 20
159.7358986131957
 30
0
 11
12.5
 21
157.0000000000001
 31
0
  0
LINE
  8
1
 62
7
 10
13.5
 20
159.6797870847947
 30
0
 11
13.5
 21
157.0000000000001
 31
0
  0
LINE
  8
1
 62
7
 10
13
 20
159.7358986131957
 30
0
 11
13
 21
157.0000000000001
 31
0
  0
LINE
  8
1
 62
7
 10
11.5
 20
157.0000000000001
 30
0
 11
14.5
 21
157.0000000000001
 31
0
  0
LINE
  8
1
 62
7
 10
14.5
 20
157.0000000000001
 30
0
 11
14.5
 21
107.0000000000001
 31
0
  0
LINE
  8
1
 62
7
 10
11.5
 20
157.0000000000001
 30
0
 11
11.5
 21
107.0000000000001
 31
0
  0
LINE
  8
1
 62
7
 10
53.89999999999981
 20
-93.23278449816655
 30
0
 11
55.49999999999977
 21
-93.23278449816655
 31
0
  0
LINE
  8
1
 62
7
 10
53.89999999999981
 20
-66.5
 30
0
 11
55.49999999999977
 21
-66.5
 31
0
  0
LINE
  8
1
 62
3
  6
DASHDOT
 10
43.20375670144652
 20
-79
 30
0
 11
82.17371240521158
 21
-79
 31
0
  0
LINE
  8
1
 62
7
 10
55.49999999999977
 20
-84
 30
0
 11
55.49999999999977
 21
-106.5
 31
0
  0
LINE
  8
1
 62
7
 10
60.49999999999977
 20
-88.5
 30
0
 11
55.49999999999977
 21
-88.5
 31
0
  0
LINE
  8
1
 62
7
 10
60.49999999999977
 20
-84
 30
0
 11
60.49999999999977
 21
-88.5
 31
0
  0
LINE
  8
1
 62
7
 10
60.49999999999977
 20
-69.5
 30
0
 11
60.49999999999977
 21
-74
 31
0
  0
LINE
  8
1
 62
7
 10
55.49999999999977
 20
-69.5
 30
0
 11
60.49999999999977
 21
-69.5
 31
0
  0
LINE
  8
1
 62
7
 10
44.49999999999977
 20
-89
 30
0
 11
52.69999999999987
 21
-89
 31
0
  0
LINE
  8
1
 62
7
 10
44.49999999999977
 20
-69
 30
0
 11
53.89999999999981
 21
-69
 31
0
  0
LINE
  8
1
 62
7
 10
53.89999999999981
 20
-106.5
 30
0
 11
55.49999999999977
 21
-106.5
 31
0
  0
LINE
  8
1
 62
7
 10
52.69999999999987
 20
-107.5
 30
0
 11
44.49999999999977
 21
-107.5
 31
0
  0
LINE
  8
1
 62
7
 10
53.89999999999981
 20
-53.5
 30
0
 11
44.49999999999977
 21
-53.5
 31
0
  0
LINE
  8
1
 62
7
 10
58.0999999999998
 20
88.00000000000006
 30
0
 11
59.0999999999998
 21
89.00000000000006
 31
0
  0
LINE
  8
1
 62
7
 10
59.0999999999998
 20
103.0000000000001
 30
0
 11
58.0999999999998
 21
104.0000000000001
 31
0
  0
LINE
  8
1
 62
7
 10
52.69999999999987
 20
79.00000000000006
 30
0
 11
52.69999999999987
 21
107.5000000000001
 31
0
  0
LINE
  8
1
 62
7
 10
55.29999999999978
 20
104.0000000000001
 30
0
 11
55.29999999999978
 21
88.00000000000006
 31
0
  0
LINE
  8
1
 62
7
 10
54.29999999999978
 20
88.00000000000006
 30
0
 11
58.0999999999998
 21
88.00000000000006
 31
0
  0
LINE
  8
1
 62
7
 10
59.0999999999998
 20
103.0000000000001
 30
0
 11
59.0999999999998
 21
89.00000000000006
 31
0
  0
LINE
  8
1
 62
7
 10
54.29999999999978
 20
104.0000000000001
 30
0
 11
58.0999999999998
 21
104.0000000000001
 31
0
  0
LINE
  8
1
 62
7
 10
52.69999999999987
 20
85.50000000000006
 30
0
 11
54.29999999999978
 21
85.50000000000006
 31
0
  0
LINE
  8
1
 62
7
 10
54.29999999999978
 20
83.62845421394025
 30
0
 11
55.49999999999977
 21
79.00000000000006
 31
0
  0
LINE
  8
1
 62
7
 10
52.69999999999987
 20
106.5000000000001
 30
0
 11
54.29999999999978
 21
106.5000000000001
 31
0
  0
LINE
  8
1
 62
7
 10
52.69999999999987
 20
83.47846096908262
 30
0
 11
53.89999999999981
 21
79.00000000000006
 31
0
  0
LINE
  8
1
 62
7
 10
55.49999999999977
 20
79.00000000000006
 30
0
 11
55.49999999999977
 21
-74
 31
0
  0
LINE
  8
1
 62
7
 10
44.49999999999977
 20
53.5
 30
0
 11
53.89999999999981
 21
53.5
 31
0
  0
LINE
  8
1
 62
7
 10
53.89999999999981
 20
79.00000000000006
 30
0
 11
53.89999999999981
 21
-106.5
 31
0
  0
LINE
  8
1
 62
7
 10
52.69999999999987
 20
79.00000000000006
 30
0
 11
53.89999999999981
 21
79.00000000000006
 31
0
  0
LINE
  8
1
 62
7
 10
44.49999999999977
 20
107.5000000000001
 30
0
 11
52.69999999999987
 21
107.5000000000001
 31
0
  0
LINE
  8
1
 62
7
 10
276.0269702111068
 20
23.42320112300115
 30
0
 11
286.0269702111068
 21
23.42320112300115
 31
0
  0
LINE
  8
1
 62
7
 10
332.5657905313275
 20
-100.0767988769989
 30
0
 11
367.8652355469178
 21
-100.0767988769989
 31
0
  0
LINE
  8
1
 62
7
 10
381.0269702111068
 20
-51.61561919721964
 30
0
 11
381.0269702111067
 21
-86.92669325356869
 31
0
  0
LINE
  8
1
 62
3
  6
DASHDOT
 10
338.6176595627721
 20
33.24999999999998
 30
0
 11
361.7689300520792
 21
46.6163922490832
 31
0
  0
LINE
  8
1
 62
3
  6
DASHDOT
 10
358.3723750335732
 20
-77.42220369946521
 30
0
 11
374.6802105911506
 21
-93.73003925704249
 31
0
  0
LINE
  8
1
 62
7
 10
282.3769702111068
 20
161.7544126656562
 30
0
 11
282.3769702111068
 21
156.7544126656562
 31
0
  0
LINE
  8
1
 62
7
 10
281.8769702111068
 20
161.7544126656562
 30
0
 11
281.8769702111068
 21
156.7544126656562
 31
0
  0
LINE
  8
1
 62
7
 10
278.3269702111067
 20
156.7544126656562
 30
0
 11
283.7269702111068
 21
156.7544126656562
 31
0
  0
LINE
  8
1
 62
7
 10
278.3269702111067
 20
156.7544126656562
 30
0
 11
278.3269702111067
 21
112.4736046067584
 31
0
  0
LINE
  8
1
 62
7
 10
276.0269702111068
 20
23.42320112300115
 30
0
 11
276.0269702111068
 21
19.36491673103708
 31
0
  0
LINE
  8
1
 62
7
 10
286.0269702111068
 20
23.42320112300115
 30
0
 11
286.0269702111068
 21
19.36491673103708
 31
0
  0
LINE
  8
1
 62
7
 10
3.199999999999875
 20
-104.2
 30
0
 11
6
 21
-107
 31
0
  0
LINE
  8
1
 62
7
 10
3.199999999999875
 20
-132.5
 30
0
 11
0
 21
-132.5
 31
0
  0
LINE
  8
1
 62
7
 10
3.199999999999875
 20
-124.25
 30
0
 11
0
 21
-124.25
 31
0
  0
LINE
  8
1
 62
7
 10
3.199999999999875
 20
-80
 30
0
 11
0
 21
-80
 31
0
  0
LINE
  8
1
 62
7
 10
3.199999999999875
 20
80.00000000000006
 30
0
 11
0
 21
80.00000000000006
 31
0
  0
LINE
  8
1
 62
7
 10
3.199999999999875
 20
100.0000000000001
 30
0
 11
0
 21
100.0000000000001
 31
0
  0
LINE
  8
1
 62
3
  6
DASHDOT
 10
-168.4999999999999
 20
0
 30
0
 11
-177.2300244380796
 21
0
 31
0
  0
LINE
  8
1
 62
3
  6
DASHDOT
 10
-113.0000000000001
 20
0
 30
0
 11
-105.6971757839466
 21
0
 31
0
  0
LINE
  8
1
 62
7
 10
-162.4999999999999
 20
107.0000000000001
 30
0
 11
-146.1
 21
107.0000000000001
 31
0
  0
LINE
  8
1
 62
7
 10
-124.0000000000001
 20
-107.5
 30
0
 11
-124.0000000000001
 21
107.5000000000001
 31
0
  0
LINE
  8
1
 62
7
 10
-124.3
 20
-107
 30
0
 11
-124.3
 21
107.0000000000001
 31
0
  0
LINE
  8
1
 62
7
 10
-91.5
 20
-74
 30
0
 11
-91.5
 21
-84
 31
0
  0
LINE
  8
1
 62
7
 10
-90.5
 20
-83
 30
0
 11
-91.5
 21
-84
 31
0
  0
LINE
  8
1
 62
7
 10
-90.5
 20
-75
 30
0
 11
-90.5
 21
-83
 31
0
  0
LINE
  8
1
 62
7
 10
-91.5
 20
-74
 30
0
 11
-90.5
 21
-75
 31
0
  0
LINE
  8
1
 62
7
 10
-146.1
 20
112.5000000000001
 30
0
 11
-146.1
 21
-112.5
 31
0
  0
LINE
  8
1
 62
7
 10
-146.1
 20
112.5000000000001
 30
0
 11
-130.1754264805429
 21
112.5000000000001
 31
0
  0
LINE
  8
1
 62
7
 10
-130.1754264805429
 20
112.5000000000001
 30
0
 11
-126.9999999999999
 21
107.0000000000001
 31
0
  0
LINE
  8
1
 62
7
 10
-126.9999999999999
 20
107.0000000000001
 30
0
 11
-124.3
 21
107.0000000000001
 31
0
  0
LINE
  8
1
 62
7
 10
-124.3
 20
-107
 30
0
 11
-126.9999999999999
 21
-107
 31
0
  0
LINE
  8
1
 62
7
 10
-126.9999999999999
 20
-107
 30
0
 11
-130.1754264805429
 21
-112.5
 31
0
  0
LINE
  8
1
 62
7
 10
-130.1754264805429
 20
-112.5
 30
0
 11
-146.1
 21
-112.5
 31
0
  0
LINE
  8
1
 62
7
 10
-165.3
 20
104.1999999999999
 30
0
 11
-165.3
 21
-132.5
 31
0
  0
LINE
  8
1
 62
3
  6
DASHDOT
 10
-163.436921979688
 20
-120
 30
0
 11
-170.7294850889637
 21
-120
 31
0
  0
LINE
  8
1
 62
7
 10
-162.4999999999999
 20
107.0000000000001
 30
0
 11
-165.3
 21
104.1999999999999
 31
0
  0
LINE
  8
1
 62
7
 10
-156.9999999999999
 20
157.0000000000001
 30
0
 11
-153.9999999999999
 21
157.0000000000001
 31
0
  0
LINE
  8
1
 62
7
 10
-153.9999999999999
 20
157.0000000000001
 30
0
 11
-153.9999999999999
 21
107.0000000000001
 31
0
  0
LINE
  8
1
 62
7
 10
-156.9999999999999
 20
157.0000000000001
 30
0
 11
-156.9999999999999
 21
107.0000000000001
 31
0
  0
LINE
  8
1
 62
7
 10
-113.0000000000001
 20
-106.5
 30
0
 11
-113.0000000000001
 21
79.00000000000006
 31
0
  0
LINE
  8
1
 62
3
  6
DASHDOT
 10
-115.6000000000001
 20
-79
 30
0
 11
-86.3262875947882
 21
-79
 31
0
  0
LINE
  8
1
 62
7
 10
-108.0000000000001
 20
-88.5
 30
0
 11
-113.0000000000001
 21
-88.5
 31
0
  0
LINE
  8
1
 62
7
 10
-108.0000000000001
 20
-88.5
 30
0
 11
-108.0000000000001
 21
-69.5
 31
0
  0
LINE
  8
1
 62
7
 10
-113.0000000000001
 20
-69.5
 30
0
 11
-108.0000000000001
 21
-69.5
 31
0
  0
LINE
  8
1
 62
7
 10
-114.6000000000001
 20
-106.5
 30
0
 11
-113.0000000000001
 21
-106.5
 31
0
  0
LINE
  8
1
 62
7
 10
-115.8
 20
-107.5
 30
0
 11
-124.0000000000001
 21
-107.5
 31
0
  0
LINE
  8
1
 62
7
 10
-110.4000000000001
 20
88.00000000000006
 30
0
 11
-109.4000000000001
 21
89.00000000000006
 31
0
  0
LINE
  8
1
 62
7
 10
-109.4000000000001
 20
103.0000000000001
 30
0
 11
-110.4000000000001
 21
104.0000000000001
 31
0
  0
LINE
  8
1
 62
7
 10
-115.8
 20
-107.5
 30
0
 11
-115.8
 21
107.5000000000001
 31
0
  0
LINE
  8
1
 62
7
 10
-113.2000000000001
 20
104.0000000000001
 30
0
 11
-113.2000000000001
 21
88.00000000000006
 31
0
  0
LINE
  8
1
 62
7
 10
-114.2000000000001
 20
88.00000000000006
 30
0
 11
-110.4000000000001
 21
88.00000000000006
 31
0
  0
LINE
  8
1
 62
7
 10
-109.4000000000001
 20
103.0000000000001
 30
0
 11
-109.4000000000001
 21
89.00000000000006
 31
0
  0
LINE
  8
1
 62
7
 10
-114.2000000000001
 20
104.0000000000001
 30
0
 11
-110.4000000000001
 21
104.0000000000001
 31
0
  0
LINE
  8
1
 62
7
 10
-114.2000000000001
 20
106.5000000000001
 30
0
 11
-114.2000000000001
 21
83.62845421394025
 31
0
  0
LINE
  8
1
 62
7
 10
-114.2000000000001
 20
83.62845421394025
 30
0
 11
-113.0000000000001
 21
79.00000000000006
 31
0
  0
LINE
  8
1
 62
7
 10
-115.8
 20
106.5000000000001
 30
0
 11
-114.2000000000001
 21
106.5000000000001
 31
0
  0
LINE
  8
1
 62
7
 10
-115.8
 20
83.47846096908262
 30
0
 11
-114.6000000000001
 21
79.00000000000006
 31
0
  0
LINE
  8
1
 62
7
 10
-114.6000000000001
 20
79.00000000000006
 30
0
 11
-114.6000000000001
 21
-106.5
 31
0
  0
LINE
  8
1
 62
7
 10
-124.0000000000001
 20
107.5000000000001
 30
0
 11
-115.8
 21
107.5000000000001
 31
0
  0
LINE
  8
1
 62
7
 10
-165.3
 20
-104.2
 30
0
 11
-162.4999999999999
 21
-107
 31
0
  0
LINE
  8
1
 62
7
 10
-165.3
 20
-132.5
 30
0
 11
-168.4999999999999
 21
-132.5
 31
0
  0
LINE
  8
1
 62
7
 10
-165.3
 20
100.0000000000001
 30
0
 11
-168.4999999999999
 21
100.0000000000001
 31
0
  0
LINE
  8
1
 62
7
 10
-146.1
 20
-107
 30
0
 11
-162.4999999999999
 21
-107
 31
0
  0
LINE
  8
1
 62
7
 10
-108.0000000000001
 20
-84
 30
0
 11
-91.5
 21
-84
 31
0
  0
LINE
  8
1
 62
3
 10
-108.0000000000001
 20
-83
 30
0
 11
-90.5
 21
-83
 31
0
  0
LINE
  8
1
 62
3
 10
-108.0000000000001
 20
-75
 30
0
 11
-90.5
 21
-75
 31
0
  0
LINE
  8
1
 62
7
 10
-108.0000000000001
 20
-74
 30
0
 11
-91.5
 21
-74
 31
0
  0
LINE
  8
1
 62
7
 10
-126.9999999999999
 20
-107
 30
0
 11
-126.9999999999999
 21
107.0000000000001
 31
0
  0
LINE
  8
1
 62
7
 10
-130.1754264805429
 20
112.5000000000001
 30
0
 11
-130.1754264805429
 21
-112.5
 31
0
  0
LINE
  8
1
 62
7
 10
-162.4999999999999
 20
-107
 30
0
 11
-162.4999999999999
 21
107.0000000000001
 31
0
  0
LINE
  8
1
 62
7
 10
280.1769702111067
 20
161.79181220164
 30
0
 11
280.1769702111067
 21
156.7544126656562
 31
0
  0
LINE
  8
1
 62
7
 10
279.6769702111067
 20
161.7544126656562
 30
0
 11
279.6769702111067
 21
156.7544126656562
 31
0
  0
LINE
  8
1
 62
7
 10
279.1769702111067
 20
161.7544126656562
 30
0
 11
279.1769702111067
 21
156.7544126656562
 31
0
  0
LINE
  8
1
 62
3
  6
DASHDOT
 10
358.449173910572
 20
77.34540482246644
 30
0
 11
374.7570094681493
 21
93.65324038004377
 31
0
  0
LINE
  8
1
 62
3
  6
DASHDOT
 10
203.6815653886404
 20
77.4222036994652
 30
0
 11
187.373729831063
 21
93.73003925704248
 31
0
  0
LINE
  8
1
 62
3
  6
DASHDOT
 10
203.6047665116416
 20
-77.34540482246644
 30
0
 11
187.2969309540643
 21
-93.65324038004377
 31
0
  0
LINE
  8
1
 62
7
 10
332.6425894083264
 20
100
 30
0
 11
367.9536634646755
 21
99.99999999999989
 31
0
  0
LINE
  8
1
 62
7
 10
181.0269702111068
 20
51.61561919721963
 30
0
 11
181.0269702111069
 21
86.92669325356867
 31
0
  0
LINE
  8
1
 62
7
 10
229.4113510138872
 20
-100
 30
0
 11
194.1002769575381
 21
-99.99999999999989
 31
0
  0
LINE
  8
1
 62
7
 10
381.1037690881057
 20
51.53882032022068
 30
0
 11
381.1037690881057
 21
86.838265335811
 31
0
  0
LINE
  8
1
 62
7
 10
229.4881498908861
 20
100.0767988769989
 30
0
 11
194.1887048752958
 21
100.0767988769989
 31
0
  0
LINE
  8
1
 62
7
 10
180.9501713341079
 20
-51.53882032022068
 30
0
 11
180.9501713341079
 21
-86.838265335811
 31
0
  0
LINE
  8
1
 62
7
 10
41.19999999999987
 20
-54
 30
0
 11
44.19999999999982
 21
-54
 31
0
  0
LINE
  8
1
 62
7
 10
32.44411841876251
 20
107.0000000000001
 30
0
 11
6
 21
107.0000000000001
 31
0
  0
LINE
  8
1
 62
7
 10
54.29999999999978
 20
83.62845421394025
 30
0
 11
54.29999999999978
 21
106.5000000000001
 31
0
  0
LINE
  8
1
 62
7
 10
53.89999999999981
 20
-87
 30
0
 11
52.89999999999981
 21
-87
 31
0
  0
LINE
  8
1
 62
7
 10
52.89999999999981
 20
-71
 30
0
 11
53.89999999999981
 21
-71
 31
0
  0
LINE
  8
1
 62
7
 10
52.89999999999981
 20
-70
 30
0
 11
52.09999999999981
 21
-70
 31
0
  0
LINE
  8
1
 62
7
 10
52.09999999999981
 20
-70
 30
0
 11
52.09999999999981
 21
-88
 31
0
  0
LINE
  8
1
 62
7
 10
52.09999999999981
 20
-88
 30
0
 11
52.89999999999981
 21
-88
 31
0
  0
LINE
  8
1
 62
7
 10
52.89999999999981
 20
-88
 30
0
 11
52.89999999999981
 21
-70
 31
0
  0
LINE
  8
1
 62
7
 10
46.6999999999998
 20
-74
 30
0
 11
46.6999999999998
 21
-84
 31
0
  0
LINE
  8
1
 62
7
 10
76.89999999999981
 20
-74
 30
0
 11
77.89999999999981
 21
-75
 31
0
  0
LINE
  8
1
 62
7
 10
77.89999999999981
 20
-75
 30
0
 11
77.89999999999981
 21
-83
 31
0
  0
LINE
  8
1
 62
7
 10
77.89999999999981
 20
-83
 30
0
 11
76.89999999999981
 21
-84
 31
0
  0
LINE
  8
1
 62
7
 10
76.89999999999981
 20
-84
 30
0
 11
53.89999999999981
 21
-84
 31
0
  0
LINE
  8
1
 62
7
 10
76.89999999999981
 20
-74
 30
0
 11
76.89999999999981
 21
-84
 31
0
  0
LINE
  8
1
 62
3
 10
77.89999999999981
 20
-75
 30
0
 11
55.13205080756868
 21
-75
 31
0
  0
LINE
  8
1
 62
3
 10
55.13205080756868
 20
-75
 30
0
 11
53.89999999999981
 21
-74.28867513459481
 31
0
  0
LINE
  8
1
 62
3
 10
77.89999999999981
 20
-83
 30
0
 11
55.13205080756868
 21
-83
 31
0
  0
LINE
  8
1
 62
3
 10
55.13205080756868
 20
-83
 30
0
 11
53.89999999999981
 21
-83.71132486540517
 31
0
  0
LINE
  8
1
 62
3
 10
55.1320508075687
 20
-74
 30
0
 11
55.13205080756868
 21
-84
 31
0
  0
LINE
  8
1
 62
7
 10
53.89999999999981
 20
-74
 30
0
 11
76.89999999999981
 21
-74
 31
0
  0
LINE
  8
1
 62
7
 10
-168.4999999999999
 20
100.0000000000001
 30
0
 11
-168.4999999999999
 21
-132.5
 31
0
  0
LINE
  8
1
 62
7
 10
-114.6000000000001
 20
79.00000000000006
 30
0
 11
-115.8
 21
79.00000000000006
 31
0
  0
LINE
  8
1
 62
7
 10
44
 20
20
 30
0
 11
2
 21
20
 31
0
  0
LINE
  8
1
 62
3
  6
DASHDOT
 10
223.4362808594416
 20
33.25000000000009
 30
0
 11
200.2850103701346
 21
46.61639224908342
 31
0
  0
LINE
  8
1
 62
3
  6
DASHDOT
 10
281.0269702111067
 20
-66.50000000000003
 30
0
 11
281.0269702111066
 21
-93.23278449816658
 31
0
  0
ARC
  8
1
 62
7
 10
281.0269702111068
 20
0
 30
0
 40
19.99999999999999
 50
104.4775121859299
 51
75.52248781407008
  0
ARC
  8
1
 62
3
  6
DASHDOT
 10
281.0269702111068
 20
0
 30
0
 40
120
 50
309.2347695712895
 51
320.7131117170299
  0
ARC
  8
1
 62
3
  6
DASHDOT
 10
281.0269702111068
 20
0
 30
0
 40
120
 50
39.23476957128946
 51
50.71311171702985
  0
ARC
  8
1
 62
3
  6
DASHDOT
 10
281.0269702111068
 20
0
 30
0
 40
120
 50
129.2347695712895
 51
140.7131117170298
  0
ARC
  8
1
 62
3
  6
DASHDOT
 10
281.0269702111068
 20
0
 30
0
 40
120
 50
219.2347695712894
 51
230.7131117170299
  0
ARC
  8
1
 62
7
 10
281.0269702111068
 20
0
 30
0
 40
132.5
 50
310.9487076365021
 51
319.0006463497952
  0
ARC
  8
1
 62
7
 10
281.0269702111068
 20
0
 30
0
 40
132.5
 50
40.94870763650214
 51
49.00064634979525
  0
ARC
  8
1
 62
7
 10
281.0269702111068
 20
0
 30
0
 40
132.5
 50
130.9487076365021
 51
139.0006463497953
  0
ARC
  8
1
 62
7
 10
281.0269702111068
 20
0
 30
0
 40
132.5
 50
220.9487076365022
 51
229.0006463497952
  0
ARC
  8
1
 62
7
 10
55.00620938802584
 20
-79.56838267383515
 30
0
 40
9.999999999999961
 50
106.8951343742598
 51
146.1625763597105
  0
ARC
  8
1
 62
7
 10
55.00620938802584
 20
-78.43161732616485
 30
0
 40
9.999999999999968
 50
213.8374236402895
 51
253.1048656257402
  0
ARC
  8
1
 62
3
  6
DASHDOT
 10
281.0269702111068
 20
0
 30
0
 40
78.99999999999996
 50
18.2656957396317
 51
41.63578840957336
  0
ARC
  8
1
 62
7
 10
303.2144289524935
 20
47.58115881942412
 30
0
 40
33.00000000000001
 50
344.5856832618236
 51
64.99999999999997
  0
ARC
  8
1
 62
7
 10
281.0269702111068
 20
0
 30
0
 40
66.50000000000003
 50
24.29536677155883
 51
35.70463322844113
  0
ARC
  8
1
 62
7
 10
333.3271918609237
 20
-4.575676494252093
 30
0
 40
32.99999999999999
 50
355.0000000000004
 51
75.41431673817674
  0
ARC
  8
1
 62
7
 10
281.0269702111068
 20
0
 30
0
 40
85.50000000000041
 50
304.9999999999999
 51
355.0000000000001
  0
ARC
  8
1
 62
7
 10
309.2769702111068
 20
48.93043531382077
 30
0
 40
49.99999999999994
 50
6.898505371241551
 51
59.99999999999999
  0
ARC
  8
1
 62
7
 10
337.5269702111075
 20
-1.989519660128281e-013
 30
0
 40
49.99999999999932
 50
2.279821595673081e-013
 51
53.10149462875938
  0
ARC
  8
1
 62
7
 10
258.83951146972
 20
47.58115881942412
 30
0
 40
33.00000000000001
 50
115
 51
195.4143167381764
  0
ARC
  8
1
 62
7
 10
281.0269702111068
 20
0
 30
0
 40
66.50000000000004
 50
144.295366771559
 51
155.7046332284412
  0
ARC
  8
1
 62
7
 10
228.7267485612898
 20
-4.575676494252093
 30
0
 40
32.99999999999999
 50
104.5856832618232
 51
184.9999999999996
  0
ARC
  8
1
 62
7
 10
252.7769702111067
 20
48.93043531382077
 30
0
 40
49.99999999999999
 50
120
 51
173.1014946287585
  0
ARC
  8
1
 62
7
 10
224.526970211106
 20
-1.989519660128281e-013
 30
0
 40
49.99999999999974
 50
126.8985053712406
 51
179.9999999999998
  0
ARC
  8
1
 62
7
 10
311.1397331195369
 20
-43.00548232517235
 30
0
 40
33.00000000000003
 50
224.5856832618232
 51
304.9999999999997
  0
ARC
  8
1
 62
7
 10
281.0269702111068
 20
0
 30
0
 40
66.50000000000004
 50
264.2953667715589
 51
275.7046332284411
  0
ARC
  8
1
 62
7
 10
250.9142073026769
 20
-43.00548232517213
 30
0
 40
33
 50
235
 51
315.4143167381765
  0
ARC
  8
1
 62
7
 10
309.2769702111074
 20
-48.93043531382139
 30
0
 40
49.9999999999997
 50
246.8985053712405
 51
299.9999999999998
  0
ARC
  8
1
 62
7
 10
252.7769702111069
 20
-48.93043531382085
 30
0
 40
50
 50
240
 51
293.1014946287584
  0
ARC
  8
1
 62
7
 10
281.0269702111068
 20
0
 30
0
 40
106.5000000000001
 50
300.0000000000001
 51
0
  0
ARC
  8
1
 62
7
 10
281.0269702111068
 20
0
 30
0
 40
106.5000000000001
 50
180
 51
240.0000000000001
  0
ARC
  8
1
 62
7
 10
281.0269702111068
 20
0
 30
0
 40
85.50000000000033
 50
184.9999999999998
 51
235
  0
ARC
  8
1
 62
7
 10
281.0269702111068
 20
0
 30
0
 40
106.5
 50
0
 51
120
  0
ARC
  8
1
 62
7
 10
281.0269702111068
 20
0
 30
0
 40
85.5
 50
65
 51
115
  0
ARC
  8
1
 62
7
 10
281.0269702111068
 20
0
 30
0
 40
78.99999999999994
 50
47.43506269656316
 51
132.564937303437
  0
ARC
  8
1
 62
7
 10
281.0269702111068
 20
0
 30
0
 40
78.9999999999999
 50
167.4350626965631
 51
252.564937303437
  0
ARC
  8
1
 62
7
 10
281.0269702111068
 20
0
 30
0
 40
78.9999999999999
 50
287.4350626965631
 51
12.564937303437
  0
ARC
  8
1
 62
3
  6
DASHDOT
 10
281.0269702111068
 20
0
 30
0
 40
78.99999999999992
 50
138.2656957396317
 51
161.6357884095733
  0
ARC
  8
1
 62
3
  6
DASHDOT
 10
281.0269702111068
 20
0
 30
0
 40
78.99999999999993
 50
258.2656957396317
 51
281.6357884095733
  0
CIRCLE
  8
1
 62
7
 10
281.0269702111068
 20
0
 30
0
 40
112.5
  0
CIRCLE
  8
1
 62
7
 10
281.0269702111068
 20
96
 30
0
 40
8
  0
CIRCLE
  8
1
 62
7
 10
349.4429771100774
 20
39.49999999999998
 30
0
 40
9.5
  0
CIRCLE
  8
1
 62
7
 10
349.4429771100774
 20
39.49999999999998
 30
0
 40
5
  0
CIRCLE
  8
1
 62
7
 10
349.4429771100774
 20
39.49999999999998
 30
0
 40
4
  0
CIRCLE
  8
1
 62
7
 10
365.8413758263187
 20
-84.89120449221063
 30
0
 40
5.5
  0
CIRCLE
  8
1
 62
7
 10
365.9181747033174
 20
84.81440561521185
 30
0
 40
5.5
  0
CIRCLE
  8
1
 62
7
 10
196.212564595895
 20
84.89120449221062
 30
0
 40
5.5
  0
CIRCLE
  8
1
 62
7
 10
196.1357657188962
 20
-84.81440561521185
 30
0
 40
5.5
  0
CIRCLE
  8
1
 62
7
 10
281.0269702111068
 20
0
 30
0
 40
107.5
  0
CIRCLE
  8
1
 62
7
 10
281.0269702111068
 20
0
 30
0
 40
53.5
  0
CIRCLE
  8
1
 62
7
 10
281.0269702111068
 20
0
 30
0
 40
39
  0
CIRCLE
  8
1
 62
7
 10
212.6109633121362
 20
39.49999999999997
 30
0
 40
9.500000000000048
  0
CIRCLE
  8
1
 62
7
 10
212.6109633121362
 20
39.49999999999997
 30
0
 40
5.000000000000011
  0
CIRCLE
  8
1
 62
7
 10
212.6109633121362
 20
39.49999999999997
 30
0
 40
3.999999999999984
  0
CIRCLE
  8
1
 62
7
 10
281.0269702111068
 20
-78.99999999999992
 30
0
 40
9.500000000000098
  0
CIRCLE
  8
1
 62
7
 10
281.0269702111068
 20
-78.99999999999992
 30
0
 40
5.000000000000016
  0
CIRCLE
  8
1
 62
7
 10
197.8885314478007
 20
-47.99999999999997
 30
0
 40
8.000000000000016
  0
CIRCLE
  8
1
 62
7
 10
364.1654089744129
 20
-48.00000000000003
 30
0
 40
8.000000000000016
  0
ARC
  8
1
 62
7
 10
380.7557244474249
 20
57.57842310428458
 30
0
 40
21.99999999999985
 50
186.8985053712416
 51
233.1014946287594
  0
ARC
  8
1
 62
7
 10
181.2982159747886
 20
57.57842310428458
 30
0
 40
22.00000000000002
 50
306.8985053712406
 51
353.1014946287585
  0
ARC
  8
1
 62
7
 10
281.0269702111066
 20
-115.1568462085688
 30
0
 40
22.00000000000006
 50
66.8985053712406
 51
113.1014946287584
  0
TEXT
  8
1
 62
7
 10
-181.0696439569875
 20
236.401235749566
 30
0
 40
8
  1
TMF 20
 41
0.9
  7
SIMPLEX
  0
TEXT
  8
1
 62
7
 10
-181.0696439569875
 20
221.401235749566
 30
0
 40
8
  1
DC1506
 41
0.9
  7
SIMPLEX
  0
ENDSEC
  0
EOF
