  0
SECTION
  2
HEADER
  9
$ACADVER
  1
AC1009
  9
$INSBASE
 10
0
 20
0
  9
$EXTMIN
 10
-113.1784700822974
 20
-67.49999999999999
  9
$EXTMAX
 10
196.4297764058756
 20
111.691771688915
  9
$LIMMIN
 10
-113.1784700822974
 20
-67.49999999999999
  9
$LIMMAX
 10
196.4297764058756
 20
111.691771688915
  9
$VIEWCTR
 10
10
 20
10
  9
$VIEWSIZE
 40
10
  9
$SNAPMODE
 70
0
  9
$SNAPUNIT
 10
1
 20
1
  9
$SNAPBASE
 10
0
 20
0
  9
$SNAPANG
 50
0
  9
$SNAPSTYLE
 70
0
  9
$SNAPISOPAIR
 70
0
  9
$GRIDMODE
 70
0
  9
$GRIDUNIT
 10
0
 20
0
  9
$ORTHOMODE
 70
0
  9
$REGENMODE
 70
1
  9
$FILLMODE
 70
1
  9
$QTEXTMODE
 70
0
  9
$DRAGMODE
 70
2
  9
$LTSCALE
 40
1
  9
$OSMODE
 70
0
  9
$ATTMODE
 70
1
  9
$TEXTSIZE
 40
3.5
  9
$TRACEWID
 40
0.5
  9
$TEXTSTYLE
  7
STANDARD
  9
$CLAYER
  8
0
  9
$CELTYPE
  6
BYLAYER
  9
$CECOLOR
 62
256
  9
$DIMSCALE
 40
1
  9
$DIMASZ
 40
0.18
  9
$DIMEXO
 40
0.0625
  9
$DIMDLI
 40
0.38
  9
$DIMRND
 40
0
  9
$DIMDLE
 40
0
  9
$DIMEXE
 40
0.18
  9
$DIMTP
 40
0
  9
$DIMTM
 40
0
  9
$DIMTXT
 40
0.18
  9
$DIMCEN
 40
0.09
  9
$DIMTSZ
 40
0
  9
$DIMTOL
 70
0
  9
$DIMLIM
 70
0
  9
$DIMTIH
 70
1
  9
$DIMTOH
 70
1
  9
$DIMSE1
 70
0
  9
$DIMSE2
 70
0
  9
$DIMTAD
 70
0
  9
$DIMZIN
 70
0
  9
$DIMBLK
  1

  9
$DIMASO
 70
1
  9
$DIMSHO
 70
1
  9
$DIMPOST
  1

  9
$DIMAPOST
  1

  9
$DIMALT
 70
0
  9
$DIMALTD
 70
2
  9
$DIMALTF
 40
25.4
  9
$DIMLFAC
 40
1
  9
$DIMTOFL
 70
0
  9
$DIMTVP
 40
0
  9
$DIMTIX
 70
0
  9
$DIMSOXD
 70
0
  9
$DIMSAH
 70
0
  9
$DIMBLK1
  1

  9
$DIMBLK2
  1

  9
$DIMSTYLE
  2
*UNNAMED
  9
$DIMCLRD
 70
0
  9
$DIMCLRE
 70
0
  9
$DIMCLRT
 70
0
  9
$DIMTFAC
 40
1
  9
$DIMGAP
 40
0.09
  9
$LUNITS
 70
2
  9
$LUPREC
 70
4
  9
$AXISMODE
 70
0
  9
$AXISUNIT
 10
0
 20
0
  9
$SKETCHINC
 40
0.1
  9
$FILLETRAD
 40
2
  9
$AUNITS
 70
0
  9
$AUPREC
 70
0
  9
$MENU
  1
ACAD
  9
$ELEVATION
 40
0
  9
$THICKNESS
 40
0
  9
$VIEWDIR
 10
0
 20
0
 30
1
  9
$LIMCHECK
 70
0
  9
$BLIPMODE
 70
1
  9
$CHAMFERA
 40
0
  9
$CHAMFERB
 40
0
  9
$FASTZOOM
 70
1
  9
$SKPOLY
 70
0
  9
$ANGBASE
 50
0
  9
$ANGDIR
 70
0
  9
$PDMODE
 70
0
  9
$PDSIZE
 40
0
  9
$PLINEWID
 40
0
  9
$COORDS
 70
2
  0
ENDSEC
  0
SECTION
  2
TABLES
  0
TABLE
  2
DIMSTYLE
 70
0
  0
ENDTAB
  0
TABLE
  2
LTYPE
 70
9
  0
LTYPE
  2
CONTINUOUS
 70
64
  3
Solid line
 72
65
 73
0
 40
0
  0
LTYPE
  2
BORDER
 70
64
  3
__ __ . __ __ .
 72
65
 73
6
 40
14.25827450932376
 49
4.073792716949645
 49
-2.036896358474822
 49
4.073792716949645
 49
-2.036896358474822
 49
0
 49
-2.036896358474822
  0
LTYPE
  2
CENTER
 70
64
  3
____ _ ____ _
 72
65
 73
4
 40
16.29517086779858
 49
10.18448179237411
 49
-2.036896358474822
 49
2.036896358474822
 49
-2.036896358474822
  0
LTYPE
  2
DASHDOT
 70
64
  3
__ . __ . __ .
 72
65
 73
4
 40
8.147585433899289
 49
4.073792716949645
 49
-2.036896358474822
 49
0
 49
-2.036896358474822
  0
LTYPE
  2
DASHED
 70
64
  3
__ __ __ __ __
 72
65
 73
2
 40
6.110689075424467
 49
4.073792716949645
 49
-2.036896358474822
  0
LTYPE
  2
DIVIDE
 70
64
  3
__ . . __ . . 
 72
65
 73
6
 40
10.18448179237411
 49
4.073792716949645
 49
-2.036896358474822
 49
0
 49
-2.036896358474822
 49
0
 49
-2.036896358474822
  0
LTYPE
  2
DOT
 70
64
  3
..............
 72
65
 73
4
 40
4.073792716949645
 49
0
 49
-2.036896358474822
 49
0
 49
-2.036896358474822
  0
LTYPE
  2
HIDDEN
 70
64
  3
_ _ _ _ _ _ _
 72
65
 73
2
 40
3.055344537712234
 49
2.036896358474822
 49
-1.018448179237411
  0
LTYPE
  2
PHANTOM
 70
64
  3
_____ _ _ _____ _ _ 
 72
65
 73
6
 40
20.36896358474822
 49
10.18448179237411
 49
-2.036896358474822
 49
2.036896358474822
 49
-2.036896358474822
 49
2.036896358474822
 49
-2.036896358474822
  0
ENDTAB
  0
TABLE
  2
LAYER
 70
3
  0
LAYER
  2
1
 70
0
 62
7
  6
CONTINUOUS
  0
LAYER
  2
0
 70
0
 62
7
  6
CONTINUOUS
  0
ENDTAB
  0
TABLE
  2
STYLE
 70
4
  0
STYLE
  2
STANDARD
 70
0
 40
0
 41
1
 50
0
 71
0
 42
3.5
  3
txt
  4

  0
STYLE
  2
SIMPLEX
 70
0
 40
0
 41
1
 50
0
 71
0
 42
3.5
  3
simplex
  4

  0
STYLE
  2
COMPLEX
 70
0
 40
0
 41
1
 50
0
 71
0
 42
3.5
  3
complex
  4

  0
STYLE
  2
ITALIC
 70
0
 40
0
 41
1
 50
0
 71
0
 42
3.5
  3
italic
  4

  0
ENDTAB
  0
TABLE
  2
VIEW
 70
0
  0
ENDTAB
  0
ENDSEC
  0
SECTION
  2
BLOCKS
  0
ENDSEC
  0
SECTION
  2
ENTITIES
  0
LINE
  8
1
 62
7
 10
28.29999999999986
 20
-35.49999999999999
 30
0
 11
39.09999999999986
 21
-35.49999999999999
 31
0
  0
LINE
  8
1
 62
3
 10
29.23923048454119
 20
-35.49999999999999
 30
0
 11
29.23923048454119
 21
-40.49999999999999
 31
0
  0
LINE
  8
1
 62
3
 10
29.23923048454119
 20
-39.89999999999999
 30
0
 11
28.29999999999986
 21
-40.44226497308103
 31
0
  0
LINE
  8
1
 62
3
 10
39.69999999999985
 20
-39.89999999999999
 30
0
 11
29.23923048454119
 21
-39.89999999999999
 31
0
  0
LINE
  8
1
 62
3
 10
29.23923048454119
 20
-36.09999999999999
 30
0
 11
28.29999999999986
 21
-35.55773502691896
 31
0
  0
LINE
  8
1
 62
3
 10
39.69999999999985
 20
-36.09999999999999
 30
0
 11
29.23923048454119
 21
-36.09999999999999
 31
0
  0
LINE
  8
1
 62
7
 10
39.09999999999986
 20
-35.49999999999999
 30
0
 11
39.09999999999986
 21
-40.49999999999999
 31
0
  0
LINE
  8
1
 62
7
 10
39.09999999999986
 20
-40.49999999999999
 30
0
 11
28.29999999999986
 21
-40.49999999999999
 31
0
  0
LINE
  8
1
 62
7
 10
39.69999999999985
 20
-39.89999999999999
 30
0
 11
39.09999999999986
 21
-40.49999999999999
 31
0
  0
LINE
  8
1
 62
7
 10
39.69999999999985
 20
-36.09999999999999
 30
0
 11
39.69999999999985
 21
-39.89999999999999
 31
0
  0
LINE
  8
1
 62
7
 10
39.09999999999986
 20
-35.49999999999999
 30
0
 11
39.69999999999985
 21
-36.09999999999999
 31
0
  0
LINE
  8
1
 62
7
 10
24.14999999999986
 20
-35.49999999999999
 30
0
 11
24.14999999999986
 21
-40.49999999999999
 31
0
  0
LINE
  8
1
 62
7
 10
27.69999999999986
 20
-42.74999999999999
 30
0
 11
27.69999999999986
 21
-33.24999999999999
 31
0
  0
LINE
  8
1
 62
7
 10
27.19999999999986
 20
-42.74999999999999
 30
0
 11
27.69999999999986
 21
-42.74999999999999
 31
0
  0
LINE
  8
1
 62
7
 10
27.19999999999986
 20
-33.24999999999999
 30
0
 11
27.19999999999986
 21
-42.74999999999999
 31
0
  0
LINE
  8
1
 62
7
 10
27.69999999999986
 20
-33.24999999999999
 30
0
 11
27.19999999999986
 21
-33.24999999999999
 31
0
  0
LINE
  8
1
 62
7
 10
27.69999999999986
 20
-33.49999999999999
 30
0
 11
28.29999999999986
 21
-33.49999999999999
 31
0
  0
LINE
  8
1
 62
7
 10
28.29999999999986
 20
-42.49999999999999
 30
0
 11
27.69999999999986
 21
-42.49999999999999
 31
0
  0
LINE
  8
1
 62
7
 10
27.59999999999986
 20
54
 30
0
 11
27.59999999999986
 21
38
 31
0
  0
LINE
  8
1
 62
7
 10
0
 20
-67.49999999999999
 30
0
 11
0
 21
50
 31
0
  0
LINE
  8
1
 62
7
 10
2.400000000000006
 20
50
 30
0
 11
2.400000000000006
 21
-67.49999999999999
 31
0
  0
LINE
  8
1
 62
7
 10
139.9297764058756
 20
80.55861913509673
 30
0
 11
144.9297764058756
 21
80.55861913509673
 31
0
  0
LINE
  8
1
 62
7
 10
31.49999999999989
 20
-40.49999999999999
 30
0
 11
31.49999999999989
 21
-43.49999999999999
 31
0
  0
LINE
  8
1
 62
7
 10
31.4999999999999
 20
-32.49999999999999
 30
0
 11
31.4999999999999
 21
-35.49999999999999
 31
0
  0
LINE
  8
1
 62
7
 10
-77.65874592517879
 20
-40.49999999999999
 30
0
 11
-70.25874592517879
 21
-40.49999999999999
 31
0
  0
LINE
  8
1
 62
3
  6
DASHDOT
 10
-81.91054271740579
 20
-37.99999999999999
 30
0
 11
-66.62762493259628
 21
-37.99999999999999
 31
0
  0
LINE
  8
1
 62
7
 10
-77.65874592517879
 20
-35.49999999999999
 30
0
 11
-70.25874592517879
 21
-35.49999999999999
 31
0
  0
LINE
  8
1
 62
3
  6
DASHDOT
 10
-80.25874592517879
 20
0
 30
0
 11
-76.47150927409957
 21
0
 31
0
  0
LINE
  8
1
 62
3
  6
DASHDOT
 10
-109.1587459251787
 20
0
 30
0
 11
-113.1784700822974
 21
0
 31
0
  0
LINE
  8
1
 62
7
 10
-97.76504377386048
 20
80.55861913509673
 30
0
 11
-97.76504377386048
 21
85.5391854824509
 31
0
  0
LINE
  8
1
 62
7
 10
-99.0087459251787
 20
80.55861913509673
 30
0
 11
-99.0087459251787
 21
53.5
 31
0
  0
LINE
  8
1
 62
7
 10
-80.25874592517879
 20
-43.49999999999999
 30
0
 11
-77.65874592517879
 21
-43.49999999999999
 31
0
  0
LINE
  8
1
 62
7
 10
-80.25874592517879
 20
-32.49999999999999
 30
0
 11
-77.65874592517879
 21
-32.49999999999999
 31
0
  0
LINE
  8
1
 62
7
 10
-69.45874592517878
 20
-36.3
 30
0
 11
-70.25874592517879
 21
-35.49999999999999
 31
0
  0
LINE
  8
1
 62
7
 10
-70.25874592517879
 20
-40.49999999999999
 30
0
 11
-69.45874592517878
 21
-39.69999999999999
 31
0
  0
LINE
  8
1
 62
7
 10
-80.85874592517878
 20
-52.99999999999999
 30
0
 11
-80.25874592517879
 21
-52.99999999999999
 31
0
  0
LINE
  8
1
 62
7
 10
-81.5587459251788
 20
-53.99999999999999
 30
0
 11
-85.5587459251788
 21
-53.99999999999999
 31
0
  0
LINE
  8
1
 62
7
 10
-80.25874592517879
 20
38
 30
0
 11
-80.25874592517879
 21
-52.99999999999999
 31
0
  0
LINE
  8
1
 62
7
 10
-78.65874592517879
 20
43.5
 30
0
 11
-79.15874592517879
 21
43
 31
0
  0
LINE
  8
1
 62
7
 10
-78.65874592517879
 20
51.5
 30
0
 11
-78.65874592517879
 21
43.5
 31
0
  0
LINE
  8
1
 62
7
 10
-80.85874592517878
 20
43
 30
0
 11
-79.15874592517879
 21
43
 31
0
  0
LINE
  8
1
 62
7
 10
-78.65874592517879
 20
51.5
 30
0
 11
-79.15874592517879
 21
52
 31
0
  0
LINE
  8
1
 62
7
 10
-80.95874592517878
 20
52
 30
0
 11
-79.15874592517879
 21
52
 31
0
  0
LINE
  8
1
 62
7
 10
-80.25874592517879
 20
52
 30
0
 11
-80.2587459251788
 21
42.99999999999999
 31
0
  0
LINE
  8
1
 62
7
 10
-80.95874592517878
 20
53
 30
0
 11
-80.95874592517878
 21
40.54136836602153
 31
0
  0
LINE
  8
1
 62
7
 10
-81.5587459251788
 20
40.61243556529821
 30
0
 11
-80.85874592517878
 21
38
 31
0
  0
LINE
  8
1
 62
7
 10
-80.95874592517878
 20
40.54136836602153
 30
0
 11
-80.25874592517879
 21
38
 31
0
  0
LINE
  8
1
 62
7
 10
-81.5587459251788
 20
53
 30
0
 11
-80.95874592517878
 21
53
 31
0
  0
LINE
  8
1
 62
7
 10
-80.85874592517878
 20
38
 30
0
 11
-80.85874592517878
 21
-52.99999999999999
 31
0
  0
LINE
  8
1
 62
7
 10
-85.5587459251788
 20
54
 30
0
 11
-81.5587459251788
 21
54
 31
0
  0
LINE
  8
1
 62
7
 10
-85.5587459251788
 20
54
 30
0
 11
-85.5587459251788
 21
-53.99999999999999
 31
0
  0
LINE
  8
1
 62
7
 10
-96.5087459251787
 20
80.55861913509673
 30
0
 11
-96.5087459251787
 21
53.5
 31
0
  0
LINE
  8
1
 62
7
 10
-99.0087459251787
 20
80.55861913509673
 30
0
 11
-96.5087459251787
 21
80.55861913509673
 31
0
  0
LINE
  8
1
 62
7
 10
-97.3725421392141
 20
85.55861913509673
 30
0
 11
-97.3725421392141
 21
80.55861913509673
 31
0
  0
LINE
  8
1
 62
7
 10
-96.8328767354425
 20
85.55861913509673
 30
0
 11
-96.8328767354425
 21
80.55861913509673
 31
0
  0
LINE
  8
1
 62
7
 10
-98.68461511491491
 20
80.55861913509673
 30
0
 11
-98.68461511491491
 21
85.55861913509673
 31
0
  0
LINE
  8
1
 62
7
 10
-98.1449497111433
 20
80.55861913509673
 30
0
 11
-98.1449497111433
 21
85.55861913509673
 31
0
  0
LINE
  8
1
 62
7
 10
-109.1587459251787
 20
-67.49999999999999
 30
0
 11
-106.7587459251787
 21
-67.49999999999999
 31
0
  0
LINE
  8
1
 62
7
 10
-109.1587459251787
 20
50
 30
0
 11
-106.7587459251787
 21
50
 31
0
  0
LINE
  8
1
 62
7
 10
-85.75874592517879
 20
53.5
 30
0
 11
-85.75874592517879
 21
-53.49999999999989
 31
0
  0
LINE
  8
1
 62
7
 10
-100.7587459251787
 20
-53.49999999999989
 30
0
 11
-85.75874592517879
 21
-53.49999999999989
 31
0
  0
LINE
  8
1
 62
7
 10
-77.65874592517879
 20
-32.49999999999999
 30
0
 11
-77.65874592517879
 21
-43.49999999999999
 31
0
  0
LINE
  8
1
 62
3
 10
-69.45874592517878
 20
-36.3
 30
0
 11
-77.65874592517879
 21
-36.3
 31
0
  0
LINE
  8
1
 62
3
 10
-69.45874592517878
 20
-39.69999999999999
 30
0
 11
-77.65874592517879
 21
-39.69999999999999
 31
0
  0
LINE
  8
1
 62
7
 10
-69.45874592517878
 20
-36.3
 30
0
 11
-69.45874592517878
 21
-39.69999999999999
 31
0
  0
LINE
  8
1
 62
7
 10
-70.25874592517879
 20
-35.49999999999999
 30
0
 11
-70.25874592517879
 21
-40.49999999999999
 31
0
  0
LINE
  8
1
 62
3
  6
DASHDOT
 10
28.89999999999987
 20
0
 30
0
 11
32.6872366510791
 21
0
 31
0
  0
LINE
  8
1
 62
3
  6
DASHDOT
 10
0
 20
0
 30
0
 11
-4.019724157118802
 21
0
 31
0
  0
LINE
  8
1
 62
7
 10
11.39370215131821
 20
80.55861913509673
 30
0
 11
11.39370215131821
 21
85.5391854824509
 31
0
  0
LINE
  8
1
 62
7
 10
142.4405421040832
 20
80.55861913509673
 30
0
 11
142.4405421040832
 21
54.06711291106191
 31
0
  0
LINE
  8
1
 62
3
  6
DASHDOT
 10
142.4297764058755
 20
-45.45368424403289
 30
0
 11
142.4297764058756
 21
-28.99579470279129
 31
0
  0
LINE
  8
1
 62
3
  6
DASHDOT
 10
142.4297764058756
 20
4.532142053667329
 30
0
 11
142.4297764058756
 21
-4.532142053667329
 31
0
  0
LINE
  8
1
 62
3
  6
DASHDOT
 10
146.9619184595429
 20
0
 30
0
 11
137.8976343522082
 21
0
 31
0
  0
LINE
  8
1
 62
7
 10
10.15000000000001
 20
80.55861913509673
 30
0
 11
10.15000000000001
 21
53.5
 31
0
  0
LINE
  8
1
 62
7
 10
28.29999999999986
 20
-30.00000000000003
 30
0
 11
28.89999999999985
 21
-30.00000000000003
 31
0
  0
LINE
  8
1
 62
7
 10
28.89999999999987
 20
-43.49999999999999
 30
0
 11
31.49999999999989
 21
-43.49999999999999
 31
0
  0
LINE
  8
1
 62
7
 10
28.89999999999987
 20
-32.49999999999999
 30
0
 11
31.4999999999999
 21
-32.49999999999999
 31
0
  0
LINE
  8
1
 62
7
 10
28.89999999999987
 20
-40.49999999999999
 30
0
 11
28.89999999999987
 21
-52.99999999999999
 31
0
  0
LINE
  8
1
 62
7
 10
23.59999999999986
 20
-43.24999999999999
 30
0
 11
27.59999999999986
 21
-43.24999999999999
 31
0
  0
LINE
  8
1
 62
7
 10
23.59999999999986
 20
-32.74999999999999
 30
0
 11
28.29999999999986
 21
-32.74999999999999
 31
0
  0
LINE
  8
1
 62
7
 10
28.29999999999986
 20
-52.99999999999999
 30
0
 11
28.89999999999987
 21
-52.99999999999999
 31
0
  0
LINE
  8
1
 62
7
 10
27.59999999999986
 20
-43.24999999999999
 30
0
 11
27.59999999999986
 21
-53.99999999999999
 31
0
  0
LINE
  8
1
 62
7
 10
23.59999999999986
 20
54
 30
0
 11
23.59999999999986
 21
-53.99999999999999
 31
0
  0
LINE
  8
1
 62
7
 10
27.59999999999986
 20
-53.99999999999999
 30
0
 11
23.59999999999986
 21
-53.99999999999999
 31
0
  0
LINE
  8
1
 62
7
 10
28.29999999999988
 20
-26.50000000000001
 30
0
 11
23.59999999999987
 21
-26.50000000000001
 31
0
  0
LINE
  8
1
 62
7
 10
28.29999999999986
 20
-52.99999999999999
 30
0
 11
28.29999999999986
 21
38
 31
0
  0
LINE
  8
1
 62
7
 10
28.89999999999987
 20
38
 30
0
 11
28.89999999999987
 21
-35.49999999999999
 31
0
  0
LINE
  8
1
 62
7
 10
27.59999999999986
 20
42
 30
0
 11
28.19999999999988
 21
42
 31
0
  0
LINE
  8
1
 62
7
 10
30.49999999999986
 20
43.5
 30
0
 11
29.99999999999986
 21
43
 31
0
  0
LINE
  8
1
 62
7
 10
30.49999999999986
 20
51.5
 30
0
 11
29.99999999999986
 21
52
 31
0
  0
LINE
  8
1
 62
7
 10
28.89999999999985
 20
52
 30
0
 11
28.89999999999987
 21
43
 31
0
  0
LINE
  8
1
 62
7
 10
28.19999999999985
 20
52
 30
0
 11
29.99999999999986
 21
52
 31
0
  0
LINE
  8
1
 62
7
 10
28.19999999999986
 20
43
 30
0
 11
29.99999999999986
 21
43
 31
0
  0
LINE
  8
1
 62
7
 10
30.49999999999986
 20
51.5
 30
0
 11
30.49999999999986
 21
43.5
 31
0
  0
LINE
  8
1
 62
7
 10
27.59999999999986
 20
40.61243556529821
 30
0
 11
28.29999999999986
 21
38
 31
0
  0
LINE
  8
1
 62
7
 10
28.19999999999986
 20
40.54136836602153
 30
0
 11
28.89999999999987
 21
38
 31
0
  0
LINE
  8
1
 62
7
 10
28.19999999999986
 20
53
 30
0
 11
28.19999999999986
 21
40.54136836602153
 31
0
  0
LINE
  8
1
 62
7
 10
27.59999999999986
 20
53
 30
0
 11
28.19999999999986
 21
53
 31
0
  0
LINE
  8
1
 62
7
 10
23.59999999999987
 20
26.5
 30
0
 11
28.29999999999988
 21
26.5
 31
0
  0
LINE
  8
1
 62
7
 10
27.59999999999986
 20
38
 30
0
 11
28.29999999999986
 21
38
 31
0
  0
LINE
  8
1
 62
7
 10
23.59999999999986
 20
54
 30
0
 11
27.59999999999986
 21
54
 31
0
  0
LINE
  8
1
 62
3
  6
DASHDOT
 10
103.1498291473275
 20
22.67828812347706
 30
0
 11
116.4490142923424
 21
15
 31
0
  0
LINE
  8
1
 62
3
  6
DASHDOT
 10
181.7747752121196
 20
39.34499880624404
 30
0
 11
189.0705873100379
 21
46.64081090416229
 31
0
  0
LINE
  8
1
 62
3
  6
DASHDOT
 10
181.9174254753789
 20
-39.48764906950329
 30
0
 11
189.5399157269353
 21
-47.11013932105969
 31
0
  0
LINE
  8
1
 62
3
  6
DASHDOT
 10
96.18509895892936
 20
-46.24467744694618
 30
0
 11
103.3720183389682
 21
-39.0577580669074
 31
0
  0
LINE
  8
1
 62
3
  6
DASHDOT
 10
95.78328563279177
 20
46.64649077308378
 30
0
 11
103.5146686022275
 21
38.91510780364805
 31
0
  0
LINE
  8
1
 62
7
 10
97.08388353783295
 20
50
 30
0
 11
122.0336983515044
 21
50
 31
0
  0
LINE
  8
1
 62
7
 10
162.8258544602467
 20
50
 30
0
 11
187.7756692739182
 21
50
 31
0
  0
LINE
  8
1
 62
7
 10
192.4297764058756
 20
45.34589286804263
 30
0
 11
192.4297764058756
 21
20.39607805437113
 31
0
  0
LINE
  8
1
 62
7
 10
192.4297764058756
 20
-20.39607805437116
 30
0
 11
192.4297764058756
 21
-45.3458928680426
 31
0
  0
LINE
  8
1
 62
7
 10
162.8258544602467
 20
-49.99999999999999
 30
0
 11
187.7756692739182
 21
-49.99999999999999
 31
0
  0
LINE
  8
1
 62
7
 10
97.08388353783295
 20
-49.99999999999999
 30
0
 11
122.0336983515044
 21
-49.99999999999999
 31
0
  0
LINE
  8
1
 62
7
 10
92.42977640587557
 20
-20.39607805437116
 30
0
 11
92.42977640587557
 21
-45.3458928680426
 31
0
  0
LINE
  8
1
 62
7
 10
92.42977640587557
 20
45.34589286804263
 30
0
 11
92.42977640587557
 21
20.39607805437113
 31
0
  0
LINE
  8
1
 62
7
 10
139.9297764058756
 20
53.94209858728152
 30
0
 11
139.9297764058756
 21
80.55861913509673
 31
0
  0
LINE
  8
1
 62
7
 10
144.9297764058756
 20
53.94209858728154
 30
0
 11
144.9297764058756
 21
80.55861913509673
 31
0
  0
LINE
  8
1
 62
7
 10
143.0982095008612
 20
85.55861913509673
 30
0
 11
143.0982095008612
 21
80.55861913509673
 31
0
  0
LINE
  8
1
 62
7
 10
143.6504618528257
 20
85.55861913509673
 30
0
 11
143.6504618528257
 21
80.55861913509673
 31
0
  0
LINE
  8
1
 62
7
 10
144.2027142047903
 20
85.55861913509673
 30
0
 11
144.2027142047903
 21
80.55861913509673
 31
0
  0
LINE
  8
1
 62
7
 10
140.6568386069608
 20
80.55861913509673
 30
0
 11
140.6568386069608
 21
85.55861913509673
 31
0
  0
LINE
  8
1
 62
7
 10
141.2090909589254
 20
80.55861913509673
 30
0
 11
141.2090909589254
 21
85.55861913509673
 31
0
  0
LINE
  8
1
 62
7
 10
141.76134331089
 20
80.55861913509673
 30
0
 11
141.76134331089
 21
85.55861913509673
 31
0
  0
LINE
  8
1
 62
7
 10
11.7862037859646
 20
85.55861913509673
 30
0
 11
11.7862037859646
 21
80.55861913509673
 31
0
  0
LINE
  8
1
 62
7
 10
12.32586918973621
 20
85.55861913509673
 30
0
 11
12.32586918973621
 21
80.55861913509673
 31
0
  0
LINE
  8
1
 62
7
 10
10.4741308102638
 20
80.55861913509673
 30
0
 11
10.4741308102638
 21
85.55861913509673
 31
0
  0
LINE
  8
1
 62
7
 10
11.01379621403541
 20
80.55861913509673
 30
0
 11
11.01379621403541
 21
85.55861913509673
 31
0
  0
LINE
  8
1
 62
3
  6
DASHDOT
 10
168.4105385194088
 20
14.99999999999997
 30
0
 11
181.5378647842224
 21
22.57906535273022
 31
0
  0
LINE
  8
1
 62
3
  6
DASHDOT
 10
-1.774904534659797
 20
-60.99999999999999
 30
0
 11
5.106971465550401
 21
-60.99999999999999
 31
0
  0
LINE
  8
1
 62
7
 10
0
 20
-67.49999999999999
 30
0
 11
2.400000000000006
 21
-67.49999999999999
 31
0
  0
LINE
  8
1
 62
7
 10
0
 20
-64.24999999999999
 30
0
 11
2.400000000000006
 21
-64.24999999999999
 31
0
  0
LINE
  8
1
 62
7
 10
0
 20
-57.74999999999999
 30
0
 11
2.400000000000006
 21
-57.74999999999999
 31
0
  0
LINE
  8
1
 62
7
 10
2.400000000000006
 20
-26.00000000000001
 30
0
 11
0
 21
-26.00000000000001
 31
0
  0
LINE
  8
1
 62
7
 10
0
 20
26
 30
0
 11
2.400000000000006
 21
26
 31
0
  0
LINE
  8
1
 62
7
 10
0
 20
50
 30
0
 11
2.400000000000006
 21
50
 31
0
  0
LINE
  8
1
 62
7
 10
23.39999999999991
 20
53.5
 30
0
 11
8.400000000000006
 21
53.5
 31
0
  0
LINE
  8
1
 62
7
 10
23.40000000000001
 20
27
 30
0
 11
8.400000000000006
 21
27
 31
0
  0
LINE
  8
1
 62
7
 10
8.400000000000006
 20
-26.99999999999997
 30
0
 11
23.40000000000001
 21
-26.99999999999997
 31
0
  0
LINE
  8
1
 62
7
 10
8.400000000000006
 20
-53.49999999999989
 30
0
 11
23.39999999999991
 21
-53.49999999999989
 31
0
  0
LINE
  8
1
 62
7
 10
23.39999999999991
 20
53.5
 30
0
 11
23.39999999999991
 21
-53.49999999999989
 31
0
  0
LINE
  8
1
 62
3
  6
DASHDOT
 10
22.38682213009696
 20
-37.99999999999999
 30
0
 11
42.63112099258236
 21
-37.99999999999999
 31
0
  0
LINE
  8
1
 62
3
  6
DASHDOT
 10
-110.3242136836118
 20
-60.99999999999999
 30
0
 11
-105.4912357203998
 21
-60.99999999999999
 31
0
  0
LINE
  8
1
 62
7
 10
12.65000000000001
 20
53.5
 30
0
 11
12.65000000000001
 21
80.55861913509673
 31
0
  0
LINE
  8
1
 62
7
 10
12.65000000000001
 20
80.55861913509673
 30
0
 11
10.15000000000001
 21
80.55861913509673
 31
0
  0
LINE
  8
1
 62
7
 10
-81.5587459251788
 20
54
 30
0
 11
-81.5587459251788
 21
-53.99999999999999
 31
0
  0
LINE
  8
1
 62
7
 10
-80.85874592517878
 20
38
 30
0
 11
-81.5587459251788
 21
38
 31
0
  0
LINE
  8
1
 62
7
 10
-106.7587459251787
 20
50
 30
0
 11
-106.7587459251787
 21
-67.49999999999999
 31
0
  0
LINE
  8
1
 62
7
 10
-109.1587459251787
 20
-67.49999999999999
 30
0
 11
-109.1587459251787
 21
50
 31
0
  0
LINE
  8
1
 62
7
 10
-85.75874592517879
 20
53.5
 30
0
 11
-100.7587459251787
 21
53.5
 31
0
  0
ARC
  8
1
 62
7
 10
28.54968028912872
 20
-37.72821116362532
 30
0
 40
5.200000000000027
 50
212.2108368677856
 51
254.9564060924423
  0
ARC
  8
1
 62
7
 10
28.54968028912873
 20
-38.27178883637468
 30
0
 40
5.200000000000043
 50
105.0435939075578
 51
147.7891631322143
  0
ARC
  8
1
 62
7
 10
128.4297764058755
 20
-24.24871130596424
 30
0
 40
25
 50
240
 51
291.6182724221584
  0
ARC
  8
1
 62
7
 10
128.4297764058757
 20
24.24871130596432
 30
0
 40
25.00000000000002
 50
120.0000000000003
 51
171.6182724221583
  0
ARC
  8
1
 62
7
 10
142.4297764058756
 20
-59.5757547712756
 30
0
 40
12.99999999999984
 50
68.38172757784267
 51
111.6182724221581
  0
ARC
  8
1
 62
7
 10
90.83565932431893
 20
29.78787738563779
 30
0
 40
12.99999999999986
 50
308.3817275778429
 51
351.6182724221582
  0
ARC
  8
1
 62
7
 10
156.4297764058755
 20
-24.24871130596435
 30
0
 40
24.99999999999999
 50
248.3817275778415
 51
299.9999999999999
  0
ARC
  8
1
 62
7
 10
114.4297764058756
 20
8.526512829121202e-014
 30
0
 40
25.00000000000002
 50
128.3817275778415
 51
180.0000000000001
  0
ARC
  8
1
 62
7
 10
156.4297764058757
 20
24.24871130596428
 30
0
 40
24.99999999999993
 50
8.381727577841463
 51
60.00000000000024
  0
ARC
  8
1
 62
7
 10
194.0238934874322
 20
29.78787738563787
 30
0
 40
12.99999999999985
 50
188.3817275778429
 51
231.6182724221584
  0
ARC
  8
1
 62
7
 10
170.4297764058756
 20
-4.263256414560601e-014
 30
0
 40
25
 50
359.9999999999998
 51
51.61827242215838
  0
ARC
  8
1
 62
7
 10
-100.7587459251787
 20
47.5
 30
0
 40
6
 50
90
 51
180
  0
ARC
  8
1
 62
7
 10
-100.7587459251787
 20
-47.49999999999999
 30
0
 40
6
 50
180
 51
270
  0
ARC
  8
1
 62
7
 10
8.400000000000006
 20
47.5
 30
0
 40
6
 50
90
 51
180
  0
ARC
  8
1
 62
7
 10
8.400000000000006
 20
33
 30
0
 40
6
 50
180
 51
270
  0
ARC
  8
1
 62
7
 10
8.400000000000006
 20
-32.99999999999999
 30
0
 40
6.000000000000021
 50
90
 51
180
  0
ARC
  8
1
 62
7
 10
8.400000000000006
 20
-47.49999999999999
 30
0
 40
6
 50
180
 51
270
  0
ARC
  8
1
 62
7
 10
142.4297764058756
 20
1.4210854715202e-014
 30
0
 40
38.00000000000001
 50
288.754656911743
 51
11.24534308825681
  0
ARC
  8
1
 62
7
 10
142.4297764058756
 20
1.4210854715202e-014
 30
0
 40
38.00000000000006
 50
168.7546569117432
 51
251.245343088257
  0
ARC
  8
1
 62
7
 10
142.4297764058756
 20
1.4210854715202e-014
 30
0
 40
38.00000000000002
 50
48.75465691174311
 51
131.2453430882569
  0
ARC
  8
1
 62
3
  6
DASHDOT
 10
142.4297764058756
 20
1.4210854715202e-014
 30
0
 40
61.00000000000001
 50
128.5719117530581
 51
141.3363338594844
  0
ARC
  8
1
 62
3
  6
DASHDOT
 10
142.4297764058756
 20
1.4210854715202e-014
 30
0
 40
61.00000000000001
 50
219.000931754132
 51
231.1800732104172
  0
ARC
  8
1
 62
3
  6
DASHDOT
 10
142.4297764058756
 20
1.4210854715202e-014
 30
0
 40
60.99999999999995
 50
309.0695782352602
 51
322.1058082419697
  0
ARC
  8
1
 62
3
  6
DASHDOT
 10
142.4297764058756
 20
1.4210854715202e-014
 30
0
 40
60.99999999999999
 50
39.08747099769013
 51
50.86043550625003
  0
ARC
  8
1
 62
7
 10
142.4297764058756
 20
1.4210854715202e-014
 30
0
 40
67.49999999999999
 50
312.2054464037323
 51
317.7945535962678
  0
ARC
  8
1
 62
7
 10
142.4297764058756
 20
1.4210854715202e-014
 30
0
 40
67.50000000000001
 50
222.2054464037323
 51
227.7945535962677
  0
ARC
  8
1
 62
7
 10
142.4297764058756
 20
1.4210854715202e-014
 30
0
 40
67.5
 50
132.2054464037323
 51
137.7945535962678
  0
ARC
  8
1
 62
7
 10
142.4297764058756
 20
1.4210854715202e-014
 30
0
 40
67.5
 50
42.20544640373228
 51
47.79455359626773
  0
ARC
  8
1
 62
7
 10
154.6857059963559
 20
26.28292582406285
 30
0
 40
12.99999999999999
 50
326.6112609121256
 51
64.99999999999989
  0
ARC
  8
1
 62
7
 10
154.6857059963559
 20
26.28292582406285
 30
0
 40
12.99999999999999
 50
326.6112609121256
 51
64.99999999999989
  0
ARC
  8
1
 62
7
 10
142.4297764058756
 20
1.4210854715202e-014
 30
0
 40
41.99999999999999
 50
64.99999999999996
 51
115
  0
ARC
  8
1
 62
7
 10
159.0634930600559
 20
-23.75540928438078
 30
0
 40
13.00000000000002
 50
206.6112609121256
 51
304.9999999999999
  0
ARC
  8
1
 62
7
 10
113.5401301612149
 20
-2.527516539682082
 30
0
 40
13
 50
86.61126091212552
 51
184.9999999999999
  0
ARC
  8
1
 62
7
 10
142.4297764058756
 20
1.4210854715202e-014
 30
0
 40
53.00000000000003
 50
180
 51
239.9999999999999
  0
ARC
  8
1
 62
7
 10
171.3194226505362
 20
-2.527516539682125
 30
0
 40
13
 50
354.9999999999998
 51
93.38873908787417
  0
ARC
  8
1
 62
7
 10
142.4297764058756
 20
1.4210854715202e-014
 30
0
 40
30.00000000000001
 50
20.38490390492613
 51
39.61509609507374
  0
ARC
  8
1
 62
7
 10
142.4297764058756
 20
1.4210854715202e-014
 30
0
 40
53.00000000000004
 50
299.9999999999998
 51
359.9999999999999
  0
ARC
  8
1
 62
7
 10
142.4297764058756
 20
1.4210854715202e-014
 30
0
 40
42.00000000000002
 50
304.9999999999999
 51
354.9999999999999
  0
ARC
  8
1
 62
7
 10
142.4297764058756
 20
1.4210854715202e-014
 30
0
 40
41.99999999999999
 50
185
 51
234.9999999999999
  0
ARC
  8
1
 62
7
 10
142.4297764058756
 20
1.4210854715202e-014
 30
0
 40
30.00000000000007
 50
260.3849039049262
 51
279.6150960950736
  0
ARC
  8
1
 62
7
 10
125.7960597516952
 20
-23.75540928438078
 30
0
 40
13.00000000000001
 50
235
 51
333.3887390878743
  0
ARC
  8
1
 62
7
 10
142.4297764058756
 20
1.4210854715202e-014
 30
0
 40
52.99999999999999
 50
59.99999999999999
 51
120
  0
ARC
  8
1
 62
7
 10
142.4297764058756
 20
1.4210854715202e-014
 30
0
 40
30
 50
140.3849039049262
 51
159.6150960950738
  0
ARC
  8
1
 62
7
 10
130.1738468153953
 20
26.28292582406285
 30
0
 40
13.00000000000001
 50
115
 51
213.3887390878743
  0
ARC
  8
1
 62
3
  6
DASHDOT
 10
142.4297764058756
 20
1.4210854715202e-014
 30
0
 40
38.00000000000002
 50
136.903948741841
 51
164.7303582134275
  0
ARC
  8
1
 62
3
  6
DASHDOT
 10
142.4297764058756
 20
1.4210854715202e-014
 30
0
 40
38.00000000000005
 50
256.6624017185872
 51
283.0993132605756
  0
ARC
  8
1
 62
3
  6
DASHDOT
 10
142.4297764058756
 20
1.4210854715202e-014
 30
0
 40
37.99999999999996
 50
16.41556507699289
 51
42.09809102910545
  0
CIRCLE
  8
1
 62
7
 10
109.5208110620669
 20
19
 30
0
 40
2.5
  0
CIRCLE
  8
1
 62
7
 10
99.29626275349617
 20
-43.13351365237939
 30
0
 40
3.250000000000028
  0
CIRCLE
  8
1
 62
7
 10
185.563290058255
 20
-43.13351365237939
 30
0
 40
3.25
  0
CIRCLE
  8
1
 62
7
 10
185.563290058255
 20
43.13351365237939
 30
0
 40
3.25
  0
CIRCLE
  8
1
 62
7
 10
99.29626275349617
 20
43.13351365237939
 30
0
 40
3.250000000000028
  0
CIRCLE
  8
1
 62
7
 10
142.4297764058756
 20
1.4210854715202e-014
 30
0
 40
54
  0
CIRCLE
  8
1
 62
7
 10
142.4297764058756
 20
1.4210854715202e-014
 30
0
 40
26.5
  0
CIRCLE
  8
1
 62
7
 10
109.5208110620669
 20
19
 30
0
 40
2
  0
CIRCLE
  8
1
 62
7
 10
175.3387417496843
 20
18.99999999999997
 30
0
 40
2
  0
CIRCLE
  8
1
 62
7
 10
175.3387417496843
 20
18.99999999999997
 30
0
 40
2.5
  0
CIRCLE
  8
1
 62
7
 10
175.3387417496843
 20
18.99999999999997
 30
0
 40
5.5
  0
CIRCLE
  8
1
 62
7
 10
183.5659830856364
 20
-23.75000000000003
 30
0
 40
4.5
  0
CIRCLE
  8
1
 62
7
 10
101.2935697261147
 20
-23.75000000000001
 30
0
 40
4.5
  0
CIRCLE
  8
1
 62
7
 10
142.4297764058755
 20
-37.99999999999999
 30
0
 40
2
  0
CIRCLE
  8
1
 62
7
 10
142.4297764058755
 20
-37.99999999999999
 30
0
 40
2.5
  0
CIRCLE
  8
1
 62
7
 10
142.4297764058755
 20
-37.99999999999999
 30
0
 40
5.5
  0
CIRCLE
  8
1
 62
7
 10
109.5208110620669
 20
19
 30
0
 40
5.5
  0
CIRCLE
  8
1
 62
7
 10
142.4297764058756
 20
47.5
 30
0
 40
4.5
  0
TEXT
  8
1
 62
7
 10
-109.1366629764204
 20
99.536137483104
 30
0
 40
4.5
  1
DC1603
 41
0.9
  7
SIMPLEX
  0
TEXT
  8
1
 62
7
 10
-108.7930009470188
 20
107.191771688915
 30
0
 40
4.5
  1
TMB 2.5
 41
0.9
  7
SIMPLEX
  0
ENDSEC
  0
EOF
