  0
SECTION
  2
HEADER
  9
$ACADVER
  1
AC1009
  9
$INSBASE
 10
0
 20
0
  9
$EXTMIN
 10
-221.7998112501817
 20
-132.5
  9
$EXTMAX
 10
399.2009539463816
 20
211.7957031837411
  9
$LIMMIN
 10
-221.7998112501817
 20
-132.5
  9
$LIMMAX
 10
399.2009539463816
 20
211.7957031837411
  9
$VIEWCTR
 10
10
 20
10
  9
$VIEWSIZE
 40
10
  9
$SNAPMODE
 70
0
  9
$SNAPUNIT
 10
1
 20
1
  9
$SNAPBASE
 10
0
 20
0
  9
$SNAPANG
 50
0
  9
$SNAPSTYLE
 70
0
  9
$SNAPISOPAIR
 70
0
  9
$GRIDMODE
 70
0
  9
$GRIDUNIT
 10
0
 20
0
  9
$ORTHOMODE
 70
0
  9
$REGENMODE
 70
1
  9
$FILLMODE
 70
1
  9
$QTEXTMODE
 70
0
  9
$DRAGMODE
 70
2
  9
$LTSCALE
 40
1
  9
$OSMODE
 70
0
  9
$ATTMODE
 70
1
  9
$TEXTSIZE
 40
3.5
  9
$TRACEWID
 40
0.5
  9
$TEXTSTYLE
  7
STANDARD
  9
$CLAYER
  8
0
  9
$CELTYPE
  6
BYLAYER
  9
$CECOLOR
 62
256
  9
$DIMSCALE
 40
1
  9
$DIMASZ
 40
0.18
  9
$DIMEXO
 40
0.0625
  9
$DIMDLI
 40
0.38
  9
$DIMRND
 40
0
  9
$DIMDLE
 40
0
  9
$DIMEXE
 40
0.18
  9
$DIMTP
 40
0
  9
$DIMTM
 40
0
  9
$DIMTXT
 40
0.18
  9
$DIMCEN
 40
0.09
  9
$DIMTSZ
 40
0
  9
$DIMTOL
 70
0
  9
$DIMLIM
 70
0
  9
$DIMTIH
 70
1
  9
$DIMTOH
 70
1
  9
$DIMSE1
 70
0
  9
$DIMSE2
 70
0
  9
$DIMTAD
 70
0
  9
$DIMZIN
 70
0
  9
$DIMBLK
  1

  9
$DIMASO
 70
1
  9
$DIMSHO
 70
1
  9
$DIMPOST
  1

  9
$DIMAPOST
  1

  9
$DIMALT
 70
0
  9
$DIMALTD
 70
2
  9
$DIMALTF
 40
25.4
  9
$DIMLFAC
 40
1
  9
$DIMTOFL
 70
0
  9
$DIMTVP
 40
0
  9
$DIMTIX
 70
0
  9
$DIMSOXD
 70
0
  9
$DIMSAH
 70
0
  9
$DIMBLK1
  1

  9
$DIMBLK2
  1

  9
$DIMSTYLE
  2
*UNNAMED
  9
$DIMCLRD
 70
0
  9
$DIMCLRE
 70
0
  9
$DIMCLRT
 70
0
  9
$DIMTFAC
 40
1
  9
$DIMGAP
 40
0.09
  9
$LUNITS
 70
2
  9
$LUPREC
 70
4
  9
$AXISMODE
 70
0
  9
$AXISUNIT
 10
0
 20
0
  9
$SKETCHINC
 40
0.1
  9
$FILLETRAD
 40
2
  9
$AUNITS
 70
0
  9
$AUPREC
 70
0
  9
$MENU
  1
ACAD
  9
$ELEVATION
 40
0
  9
$THICKNESS
 40
0
  9
$VIEWDIR
 10
0
 20
0
 30
1
  9
$LIMCHECK
 70
0
  9
$BLIPMODE
 70
1
  9
$CHAMFERA
 40
0
  9
$CHAMFERB
 40
0
  9
$FASTZOOM
 70
1
  9
$SKPOLY
 70
0
  9
$ANGBASE
 50
0
  9
$ANGDIR
 70
0
  9
$PDMODE
 70
0
  9
$PDSIZE
 40
0
  9
$PLINEWID
 40
0
  9
$COORDS
 70
2
  0
ENDSEC
  0
SECTION
  2
TABLES
  0
TABLE
  2
DIMSTYLE
 70
0
  0
ENDTAB
  0
TABLE
  2
LTYPE
 70
9
  0
LTYPE
  2
CONTINUOUS
 70
64
  3
Solid line
 72
65
 73
0
 40
0
  0
LTYPE
  2
BORDER
 70
64
  3
__ __ . __ __ .
 72
65
 73
6
 40
28.59871944984173
 49
8.17106269995478
 49
-4.08553134997739
 49
8.17106269995478
 49
-4.08553134997739
 49
0
 49
-4.08553134997739
  0
LTYPE
  2
CENTER
 70
64
  3
____ _ ____ _
 72
65
 73
4
 40
32.68425079981912
 49
20.42765674988695
 49
-4.08553134997739
 49
4.08553134997739
 49
-4.08553134997739
  0
LTYPE
  2
DASHDOT
 70
64
  3
__ . __ . __ .
 72
65
 73
4
 40
16.34212539990956
 49
8.17106269995478
 49
-4.08553134997739
 49
0
 49
-4.08553134997739
  0
LTYPE
  2
DASHED
 70
64
  3
__ __ __ __ __
 72
65
 73
2
 40
12.25659404993217
 49
8.17106269995478
 49
-4.08553134997739
  0
LTYPE
  2
DIVIDE
 70
64
  3
__ . . __ . . 
 72
65
 73
6
 40
20.42765674988695
 49
8.17106269995478
 49
-4.08553134997739
 49
0
 49
-4.08553134997739
 49
0
 49
-4.08553134997739
  0
LTYPE
  2
DOT
 70
64
  3
..............
 72
65
 73
4
 40
8.17106269995478
 49
0
 49
-4.08553134997739
 49
0
 49
-4.08553134997739
  0
LTYPE
  2
HIDDEN
 70
64
  3
_ _ _ _ _ _ _
 72
65
 73
2
 40
6.128297024966084
 49
4.08553134997739
 49
-2.042765674988695
  0
LTYPE
  2
PHANTOM
 70
64
  3
_____ _ _ _____ _ _ 
 72
65
 73
6
 40
40.8553134997739
 49
20.42765674988695
 49
-4.08553134997739
 49
4.08553134997739
 49
-4.08553134997739
 49
4.08553134997739
 49
-4.08553134997739
  0
ENDTAB
  0
TABLE
  2
LAYER
 70
3
  0
LAYER
  2
1
 70
0
 62
7
  6
CONTINUOUS
  0
LAYER
  2
0
 70
0
 62
7
  6
CONTINUOUS
  0
ENDTAB
  0
TABLE
  2
STYLE
 70
4
  0
STYLE
  2
STANDARD
 70
0
 40
0
 41
1
 50
0
 71
0
 42
3.5
  3
txt
  4

  0
STYLE
  2
SIMPLEX
 70
0
 40
0
 41
1
 50
0
 71
0
 42
3.5
  3
simplex
  4

  0
STYLE
  2
COMPLEX
 70
0
 40
0
 41
1
 50
0
 71
0
 42
3.5
  3
complex
  4

  0
STYLE
  2
ITALIC
 70
0
 40
0
 41
1
 50
0
 71
0
 42
3.5
  3
italic
  4

  0
ENDTAB
  0
TABLE
  2
VIEW
 70
0
  0
ENDTAB
  0
ENDSEC
  0
SECTION
  2
BLOCKS
  0
ENDSEC
  0
SECTION
  2
ENTITIES
  0
LINE
  8
1
 62
7
 10
-201.2913910771747
 20
107
 30
0
 11
-201.2913910771747
 21
-107.0071143513191
 31
0
  0
LINE
  8
1
 62
3
  6
DASHDOT
 10
368.9541120022183
 20
-77.25315805583674
 30
0
 11
384.5046031198725
 21
-92.80364917349084
 31
0
  0
LINE
  8
1
 62
3
  6
DASHDOT
 10
291.7009539463815
 20
-92.04163609132017
 30
0
 11
291.7009539463815
 21
-67.51153069922137
 31
0
  0
LINE
  8
1
 62
3
  6
DASHDOT
 10
291.7009539463815
 20
15.51627881569883
 30
0
 11
291.7009539463815
 21
-15.51627881569873
 31
0
  0
LINE
  8
1
 62
3
  6
DASHDOT
 10
307.2172327620803
 20
4.973799150320701e-014
 30
0
 11
276.1846751306828
 21
4.973799150320701e-014
 31
0
  0
LINE
  8
1
 62
7
 10
291.7009539463815
 20
163.0000000000001
 30
0
 11
291.7009539463815
 21
107.5226479459421
 31
0
  0
LINE
  8
1
 62
7
 10
11.56023878498013
 20
163
 30
0
 11
14.09351459457383
 21
163
 31
0
  0
LINE
  8
1
 62
7
 10
41.00000000000003
 20
-93.23278449816661
 30
0
 11
42.6
 21
-93.23278449816661
 31
0
  0
LINE
  8
1
 62
7
 10
41.00000000000003
 20
79.00000000000003
 30
0
 11
41.00000000000003
 21
-106.5
 31
0
  0
LINE
  8
1
 62
7
 10
40.99999999999992
 20
-66.5
 30
0
 11
42.59999999999989
 21
-66.5
 31
0
  0
LINE
  8
1
 62
3
  6
DASHDOT
 10
68.37371240521171
 20
-79
 30
0
 11
31.59999999999999
 21
-79
 31
0
  0
LINE
  8
1
 62
7
 10
42.6
 20
-84
 30
0
 11
42.6
 21
-106.5
 31
0
  0
LINE
  8
1
 62
7
 10
47.5
 20
-88.5
 30
0
 11
42.6
 21
-88.5
 31
0
  0
LINE
  8
1
 62
7
 10
47.50000000000001
 20
-84
 30
0
 11
47.5
 21
-88.5
 31
0
  0
LINE
  8
1
 62
7
 10
47.50000000000001
 20
-69.5
 30
0
 11
47.50000000000001
 21
-74
 31
0
  0
LINE
  8
1
 62
7
 10
42.6
 20
79.00000000000003
 30
0
 11
42.6
 21
-74
 31
0
  0
LINE
  8
1
 62
7
 10
42.6
 20
-69.5
 30
0
 11
47.50000000000001
 21
-69.5
 31
0
  0
LINE
  8
1
 62
7
 10
31.59999999999999
 20
107.5
 30
0
 11
31.59999999999999
 21
-107.5
 31
0
  0
LINE
  8
1
 62
7
 10
39.79999999999999
 20
-89
 30
0
 11
39.79999999999999
 21
-107.5
 31
0
  0
LINE
  8
1
 62
7
 10
31.59999999999999
 20
-89
 30
0
 11
39.79999999999999
 21
-89
 31
0
  0
LINE
  8
1
 62
7
 10
31.59999999999999
 20
-69
 30
0
 11
41.00000000000003
 21
-69
 31
0
  0
LINE
  8
1
 62
7
 10
41.00000000000003
 20
-106.5
 30
0
 11
42.6
 21
-106.5
 31
0
  0
LINE
  8
1
 62
7
 10
39.79999999999999
 20
-107.5
 30
0
 11
31.59999999999999
 21
-107.5
 31
0
  0
LINE
  8
1
 62
7
 10
41.00000000000003
 20
-53.5
 30
0
 11
31.59999999999999
 21
-53.5
 31
0
  0
LINE
  8
1
 62
7
 10
45.20000000000002
 20
88.00000000000003
 30
0
 11
46.20000000000002
 21
89.00000000000003
 31
0
  0
LINE
  8
1
 62
7
 10
46.20000000000002
 20
103
 30
0
 11
45.20000000000002
 21
104
 31
0
  0
LINE
  8
1
 62
7
 10
42.40000000000001
 20
104
 30
0
 11
42.40000000000001
 21
88.00000000000003
 31
0
  0
LINE
  8
1
 62
7
 10
41.40000000000001
 20
88.00000000000003
 30
0
 11
45.20000000000002
 21
88.00000000000003
 31
0
  0
LINE
  8
1
 62
7
 10
46.20000000000002
 20
103
 30
0
 11
46.20000000000002
 21
89.00000000000003
 31
0
  0
LINE
  8
1
 62
7
 10
41.40000000000001
 20
104
 30
0
 11
45.20000000000002
 21
104
 31
0
  0
LINE
  8
1
 62
7
 10
39.79999999999999
 20
85.50000000000003
 30
0
 11
41.40000000000001
 21
85.50000000000003
 31
0
  0
LINE
  8
1
 62
7
 10
41.40000000000001
 20
83.62845421394022
 30
0
 11
42.6
 21
79.00000000000003
 31
0
  0
LINE
  8
1
 62
7
 10
39.79999999999999
 20
106.5
 30
0
 11
41.40000000000001
 21
106.5
 31
0
  0
LINE
  8
1
 62
7
 10
39.79999999999999
 20
83.47846096908262
 30
0
 11
41.00000000000003
 21
79.00000000000003
 31
0
  0
LINE
  8
1
 62
7
 10
39.79999999999999
 20
79.00000000000003
 30
0
 11
41.00000000000003
 21
79.00000000000003
 31
0
  0
LINE
  8
1
 62
7
 10
31.59999999999999
 20
107.5
 30
0
 11
39.79999999999999
 21
107.5
 31
0
  0
LINE
  8
1
 62
7
 10
0
 20
100
 30
0
 11
3
 21
100
 31
0
  0
LINE
  8
1
 62
7
 10
0
 20
-132.5
 30
0
 11
3
 21
-132.5
 31
0
  0
LINE
  8
1
 62
7
 10
0
 20
-125.5
 30
0
 11
3
 21
-125.5
 31
0
  0
LINE
  8
1
 62
7
 10
0
 20
-114.5
 30
0
 11
3
 21
-114.5
 31
0
  0
LINE
  8
1
 62
3
  6
DASHDOT
 10
-3.240819527831718
 20
-120
 30
0
 11
5.241261943773111
 21
-120
 31
0
  0
LINE
  8
1
 62
7
 10
0
 20
-80.00000000000003
 30
0
 11
3
 21
-80.00000000000003
 31
0
  0
LINE
  8
1
 62
7
 10
6
 20
-107
 30
0
 11
3
 21
-104
 31
0
  0
LINE
  8
1
 62
7
 10
6
 20
-107
 30
0
 11
31.19999999999999
 21
-107
 31
0
  0
LINE
  8
1
 62
7
 10
31.19999999999999
 20
107
 30
0
 11
6
 21
107
 31
0
  0
LINE
  8
1
 62
7
 10
3
 20
104
 30
0
 11
6
 21
107
 31
0
  0
LINE
  8
1
 62
7
 10
0
 20
53.50000000000003
 30
0
 11
31
 21
53.50000000000003
 31
0
  0
LINE
  8
1
 62
7
 10
3
 20
80.00000000000003
 30
0
 11
0
 21
80.00000000000003
 31
0
  0
LINE
  8
1
 62
7
 10
3
 20
80.00000000000003
 30
0
 11
3
 21
104
 31
0
  0
LINE
  8
1
 62
3
  6
DASHDOT
 10
-6.733373673615915
 20
0
 30
0
 11
0
 21
0
 31
0
  0
LINE
  8
1
 62
3
  6
DASHDOT
 10
200.0567093420649
 20
-91.6442446043165
 30
0
 11
215.6869749688277
 21
-76.01397897755381
 31
0
  0
LINE
  8
1
 62
3
  6
DASHDOT
 10
385.3926024535991
 20
93.69164850721762
 30
0
 11
370.7624647377485
 21
79.06151079136693
 31
0
  0
LINE
  8
1
 62
3
  6
DASHDOT
 10
200.0567093420649
 20
91.64424460431664
 30
0
 11
214.3171409967412
 21
77.38381294964033
 31
0
  0
LINE
  8
1
 62
7
 10
191.7009539463816
 20
86.92669325356863
 30
0
 11
191.7009539463816
 21
39.4493345951488
 31
0
  0
LINE
  8
1
 62
7
 10
191.7009539463816
 20
-86.92669325356852
 30
0
 11
191.7009539463816
 21
-36.63673020344466
 31
0
  0
LINE
  8
1
 62
7
 10
391.7009539463816
 20
-39.44933459514869
 30
0
 11
391.7009539463816
 21
-86.92669325356852
 31
0
  0
LINE
  8
1
 62
7
 10
391.7009539463816
 20
86.92669325356863
 30
0
 11
391.7009539463816
 21
39.4493345951488
 31
0
  0
LINE
  8
1
 62
7
 10
331.1502885415303
 20
-99.99999999999994
 30
0
 11
378.6276471999501
 21
-99.99999999999994
 31
0
  0
LINE
  8
1
 62
7
 10
204.774260692813
 20
-99.99999999999994
 30
0
 11
252.2516193512328
 21
-99.99999999999994
 31
0
  0
LINE
  8
1
 62
7
 10
331.1502885415303
 20
100
 30
0
 11
378.6276471999501
 21
100
 31
0
  0
LINE
  8
1
 62
7
 10
204.774260692813
 20
100
 30
0
 11
252.2516193512328
 21
100
 31
0
  0
LINE
  8
1
 62
3
  6
DASHDOT
 10
349.2916432980467
 20
33.25000000000003
 30
0
 11
372.4429137873539
 21
46.6163922490833
 31
0
  0
LINE
  8
1
 62
3
  6
DASHDOT
 10
210.9589941054093
 20
46.61639224908336
 30
0
 11
234.1102645947164
 21
33.25000000000006
 31
0
  0
LINE
  8
1
 62
7
 10
11.56023878498013
 20
163
 30
0
 11
11.56023878498013
 21
107.0003465620391
 31
0
  0
LINE
  8
1
 62
7
 10
14.09351459457383
 20
163
 30
0
 11
14.09351459457383
 21
107
 31
0
  0
LINE
  8
1
 62
7
 10
13.21868376525089
 20
168
 30
0
 11
13.21868376525089
 21
163
 31
0
  0
LINE
  8
1
 62
7
 10
13.61969682970391
 20
168
 30
0
 11
13.61969682970391
 21
163
 31
0
  0
LINE
  8
1
 62
7
 10
12.43506961430279
 20
163
 30
0
 11
12.43506961430279
 21
168
 31
0
  0
LINE
  8
1
 62
7
 10
12.03405654984982
 20
163
 30
0
 11
12.03405654984982
 21
168
 31
0
  0
LINE
  8
1
 62
7
 10
294.4009539463815
 20
163.0000000000001
 30
0
 11
294.4009539463815
 21
107.4660876742055
 31
0
  0
LINE
  8
1
 62
7
 10
289.0009539463815
 20
163.0000000000001
 30
0
 11
289.0009539463815
 21
107.4660876742055
 31
0
  0
LINE
  8
1
 62
7
 10
289.0009539463815
 20
163.0000000000001
 30
0
 11
294.4009539463815
 21
163.0000000000001
 31
0
  0
LINE
  8
1
 62
7
 10
292.3977551587696
 20
168
 30
0
 11
292.3977551587696
 21
163.0000000000001
 31
0
  0
LINE
  8
1
 62
7
 10
292.9927911696683
 20
168
 30
0
 11
292.9927911696683
 21
163.0000000000001
 31
0
  0
LINE
  8
1
 62
7
 10
293.6691274798392
 20
168
 30
0
 11
293.6691274798392
 21
163.0000000000001
 31
0
  0
LINE
  8
1
 62
7
 10
289.7327804129239
 20
163.0000000000001
 30
0
 11
289.7327804129239
 21
168
 31
0
  0
LINE
  8
1
 62
7
 10
290.4120813032433
 20
163.0000000000001
 30
0
 11
290.4120813032433
 21
168
 31
0
  0
LINE
  8
1
 62
7
 10
291.0041527339935
 20
163.0000000000001
 30
0
 11
291.0041527339935
 21
168
 31
0
  0
LINE
  8
1
 62
7
 10
0
 20
-53.50000000000002
 30
0
 11
31
 21
-53.50000000000002
 31
0
  0
LINE
  8
1
 62
3
  6
DASHDOT
 10
42.6
 20
0
 30
0
 11
49.91650165423798
 21
0
 31
0
  0
LINE
  8
1
 62
7
 10
32.69953488372088
 20
53.50000000000003
 30
0
 11
41.00000000000003
 21
53.50000000000003
 31
0
  0
LINE
  8
1
 62
7
 10
31.59999999999999
 20
53.50000000000003
 30
0
 11
32.69999999999991
 21
53.50000000000003
 31
0
  0
LINE
  8
1
 62
7
 10
-195.7311522921946
 20
163
 30
0
 11
-193.1978764826008
 21
163
 31
0
  0
LINE
  8
1
 62
3
  6
DASHDOT
 10
-138.917678671963
 20
-79
 30
0
 11
-170.4124514014586
 21
-79
 31
0
  0
LINE
  8
1
 62
3
 10
-142.2913910771747
 20
-82.5
 30
0
 11
-159.7913910771747
 21
-82.5
 31
0
  0
LINE
  8
1
 62
7
 10
-159.7913910771747
 20
-88.5
 30
0
 11
-164.6913910771747
 21
-88.5
 31
0
  0
LINE
  8
1
 62
7
 10
-164.6913910771747
 20
-69.5
 30
0
 11
-159.7913910771747
 21
-69.5
 31
0
  0
LINE
  8
1
 62
7
 10
-175.6913910771746
 20
107.5
 30
0
 11
-175.6913910771746
 21
-107.5
 31
0
  0
LINE
  8
1
 62
7
 10
-143.7913910771747
 20
-84
 30
0
 11
-143.7913910771747
 21
-74
 31
0
  0
LINE
  8
1
 62
7
 10
-143.7913910771747
 20
-74
 30
0
 11
-159.7913910771747
 21
-74
 31
0
  0
LINE
  8
1
 62
7
 10
-142.2913910771747
 20
-75.5
 30
0
 11
-143.7913910771747
 21
-74
 31
0
  0
LINE
  8
1
 62
7
 10
-142.2913910771747
 20
-82.5
 30
0
 11
-142.2913910771747
 21
-75.5
 31
0
  0
LINE
  8
1
 62
7
 10
-143.7913910771747
 20
-84
 30
0
 11
-142.2913910771747
 21
-82.5
 31
0
  0
LINE
  8
1
 62
3
 10
-142.2913910771747
 20
-75.5
 30
0
 11
-159.7913910771747
 21
-75.5
 31
0
  0
LINE
  8
1
 62
7
 10
-166.2913910771746
 20
-106.5
 30
0
 11
-164.6913910771747
 21
-106.5
 31
0
  0
LINE
  8
1
 62
7
 10
-167.4913910771746
 20
-107.5
 30
0
 11
-175.6913910771746
 21
-107.5
 31
0
  0
LINE
  8
1
 62
7
 10
-166.2913910771746
 20
79.00000000000003
 30
0
 11
-166.2913910771746
 21
-106.5
 31
0
  0
LINE
  8
1
 62
7
 10
-162.0913910771747
 20
88.00000000000003
 30
0
 11
-161.0913910771747
 21
89.00000000000003
 31
0
  0
LINE
  8
1
 62
7
 10
-161.0913910771747
 20
103
 30
0
 11
-162.0913910771747
 21
104
 31
0
  0
LINE
  8
1
 62
7
 10
-164.8913910771747
 20
104
 30
0
 11
-164.8913910771747
 21
88.00000000000003
 31
0
  0
LINE
  8
1
 62
7
 10
-165.8913910771747
 20
88.00000000000003
 30
0
 11
-162.0913910771747
 21
88.00000000000003
 31
0
  0
LINE
  8
1
 62
7
 10
-161.0913910771747
 20
103
 30
0
 11
-161.0913910771747
 21
89.00000000000003
 31
0
  0
LINE
  8
1
 62
7
 10
-165.8913910771747
 20
104
 30
0
 11
-162.0913910771747
 21
104
 31
0
  0
LINE
  8
1
 62
7
 10
-165.8913910771747
 20
83.62845421394022
 30
0
 11
-164.6913910771747
 21
79.00000000000003
 31
0
  0
LINE
  8
1
 62
7
 10
-167.4913910771746
 20
83.47846096908262
 30
0
 11
-166.2913910771746
 21
79.00000000000003
 31
0
  0
LINE
  8
1
 62
7
 10
-167.4913910771746
 20
106.5
 30
0
 11
-165.8913910771747
 21
106.5
 31
0
  0
LINE
  8
1
 62
7
 10
-167.4913910771746
 20
79.00000000000003
 30
0
 11
-166.2913910771746
 21
79.00000000000003
 31
0
  0
LINE
  8
1
 62
7
 10
-175.6913910771746
 20
107.5
 30
0
 11
-167.4913910771746
 21
107.5
 31
0
  0
LINE
  8
1
 62
7
 10
-207.2913910771747
 20
100
 30
0
 11
-204.2913910771747
 21
100
 31
0
  0
LINE
  8
1
 62
7
 10
-207.2913910771747
 20
-132.5
 30
0
 11
-204.2913910771747
 21
-132.5
 31
0
  0
LINE
  8
1
 62
3
  6
DASHDOT
 10
-210.5322106050064
 20
-120
 30
0
 11
-202.0501291334016
 21
-120
 31
0
  0
LINE
  8
1
 62
7
 10
-201.2913910771747
 20
-107
 30
0
 11
-204.2913910771747
 21
-104
 31
0
  0
LINE
  8
1
 62
7
 10
-201.2913910771747
 20
-107
 30
0
 11
-176.0913910771746
 21
-107
 31
0
  0
LINE
  8
1
 62
7
 10
-204.2913910771747
 20
104
 30
0
 11
-201.2913910771747
 21
107
 31
0
  0
LINE
  8
1
 62
3
  6
DASHDOT
 10
-214.0247647507906
 20
0
 30
0
 11
-207.2913910771747
 21
0
 31
0
  0
LINE
  8
1
 62
7
 10
-195.7311522921946
 20
163
 30
0
 11
-195.7311522921946
 21
107.0003465620391
 31
0
  0
LINE
  8
1
 62
7
 10
-193.1978764826008
 20
163
 30
0
 11
-193.1978764826008
 21
106.9924612812091
 31
0
  0
LINE
  8
1
 62
7
 10
-194.0727073119238
 20
168
 30
0
 11
-194.0727073119238
 21
163
 31
0
  0
LINE
  8
1
 62
7
 10
-193.6716942474708
 20
168
 30
0
 11
-193.6716942474708
 21
163
 31
0
  0
LINE
  8
1
 62
7
 10
-194.8563214628718
 20
163
 30
0
 11
-194.8563214628718
 21
168
 31
0
  0
LINE
  8
1
 62
7
 10
-195.2573345273249
 20
163
 30
0
 11
-195.2573345273249
 21
168
 31
0
  0
LINE
  8
1
 62
7
 10
-143.7913910771747
 20
-84
 30
0
 11
-159.7913910771747
 21
-84
 31
0
  0
LINE
  8
1
 62
3
  6
DASHDOT
 10
-164.6913910771747
 20
0
 30
0
 11
-157.3748894229367
 21
0
 31
0
  0
LINE
  8
1
 62
7
 10
31.19999999999999
 20
-107
 30
0
 11
31.19999999999999
 21
107
 31
0
  0
LINE
  8
1
 62
7
 10
-176.0913910771746
 20
-107
 30
0
 11
-176.0913910771746
 21
106.9924612812091
 31
0
  0
LINE
  8
1
 62
7
 10
3
 20
-80.00000000000003
 30
0
 11
3
 21
-132.5
 31
0
  0
LINE
  8
1
 62
7
 10
0
 20
-132.5
 30
0
 11
0
 21
100
 31
0
  0
LINE
  8
1
 62
7
 10
41.00000000000003
 20
-87
 30
0
 11
40.00000000000003
 21
-87
 31
0
  0
LINE
  8
1
 62
7
 10
40.00000000000003
 20
-71
 30
0
 11
41.00000000000003
 21
-71
 31
0
  0
LINE
  8
1
 62
7
 10
40.00000000000003
 20
-70
 30
0
 11
39.20000000000003
 21
-70
 31
0
  0
LINE
  8
1
 62
7
 10
39.20000000000003
 20
-70
 30
0
 11
39.20000000000003
 21
-88
 31
0
  0
LINE
  8
1
 62
7
 10
39.20000000000003
 20
-88
 30
0
 11
40.00000000000003
 21
-88
 31
0
  0
LINE
  8
1
 62
7
 10
40.00000000000003
 20
-88
 30
0
 11
40.00000000000003
 21
-70
 31
0
  0
LINE
  8
1
 62
7
 10
33.80000000000003
 20
-74
 30
0
 11
33.80000000000003
 21
-84
 31
0
  0
LINE
  8
1
 62
7
 10
64.00000000000003
 20
-74
 30
0
 11
65.00000000000003
 21
-75
 31
0
  0
LINE
  8
1
 62
7
 10
65.00000000000003
 20
-75
 30
0
 11
65.00000000000003
 21
-83
 31
0
  0
LINE
  8
1
 62
7
 10
65.00000000000003
 20
-83
 30
0
 11
64.00000000000003
 21
-84
 31
0
  0
LINE
  8
1
 62
7
 10
64.00000000000003
 20
-84
 30
0
 11
41.00000000000003
 21
-84
 31
0
  0
LINE
  8
1
 62
7
 10
64.00000000000003
 20
-74
 30
0
 11
64.00000000000003
 21
-84
 31
0
  0
LINE
  8
1
 62
3
 10
65.00000000000003
 20
-75
 30
0
 11
42.2320508075689
 21
-75
 31
0
  0
LINE
  8
1
 62
3
 10
42.2320508075689
 20
-75
 30
0
 11
41.00000000000003
 21
-74.28867513459481
 31
0
  0
LINE
  8
1
 62
3
 10
65.00000000000003
 20
-83
 30
0
 11
42.2320508075689
 21
-83
 31
0
  0
LINE
  8
1
 62
3
 10
42.2320508075689
 20
-83
 30
0
 11
41.00000000000003
 21
-83.71132486540517
 31
0
  0
LINE
  8
1
 62
3
 10
42.2320508075689
 20
-74
 30
0
 11
42.2320508075689
 21
-84
 31
0
  0
LINE
  8
1
 62
7
 10
41.00000000000003
 20
-74
 30
0
 11
64.00000000000003
 21
-74
 31
0
  0
LINE
  8
1
 62
7
 10
39.79999999999999
 20
107.5
 30
0
 11
39.79999999999999
 21
79.00000000000003
 31
0
  0
LINE
  8
1
 62
7
 10
41.40000000000001
 20
83.62845421394022
 30
0
 11
41.40000000000001
 21
106.5
 31
0
  0
LINE
  8
1
 62
7
 10
-207.2913910771747
 20
100
 30
0
 11
-207.2913910771747
 21
-132.5
 31
0
  0
LINE
  8
1
 62
7
 10
-204.2913910771747
 20
104
 30
0
 11
-204.2913910771747
 21
-132.5
 31
0
  0
LINE
  8
1
 62
7
 10
-176.0913910771746
 20
106.9924612812091
 30
0
 11
-201.2913910771747
 21
106.9924612812091
 31
0
  0
LINE
  8
1
 62
7
 10
-164.6913910771747
 20
79.00000000000003
 30
0
 11
-164.6913910771747
 21
-106.5
 31
0
  0
LINE
  8
1
 62
7
 10
-159.7913910771747
 20
-69.5
 30
0
 11
-159.7913910771747
 21
-88.5
 31
0
  0
LINE
  8
1
 62
7
 10
-165.8913910771747
 20
83.62845421394022
 30
0
 11
-165.8913910771747
 21
106.5
 31
0
  0
LINE
  8
1
 62
7
 10
-167.4913910771746
 20
107.5
 30
0
 11
-167.4913910771746
 21
-107.5
 31
0
  0
ARC
  8
1
 62
3
  6
DASHDOT
 10
291.7009539463815
 20
4.973799150320701e-014
 30
0
 40
119.9999999999999
 50
218.8676389157644
 51
231.6414961294262
  0
ARC
  8
1
 62
3
  6
DASHDOT
 10
291.7009539463815
 20
4.973799150320701e-014
 30
0
 40
120
 50
309.2148806862679
 51
321.4631433408305
  0
ARC
  8
1
 62
3
  6
DASHDOT
 10
291.7009539463815
 20
4.973799150320701e-014
 30
0
 40
120
 50
38.78446579847799
 51
50.88758054269722
  0
ARC
  8
1
 62
3
  6
DASHDOT
 10
291.7009539463815
 20
4.973799150320701e-014
 30
0
 40
120
 50
129.6495206376372
 51
140.4900962260114
  0
ARC
  8
1
 62
3
  6
DASHDOT
 10
291.7009539463815
 20
4.973799150320701e-014
 30
0
 40
79.00000000000006
 50
18.86640992431546
 51
41.2000562429342
  0
ARC
  8
1
 62
3
  6
DASHDOT
 10
291.7009539463815
 20
4.973799150320701e-014
 30
0
 40
79
 50
258.7291886593342
 51
281.8572040811026
  0
ARC
  8
1
 62
3
  6
DASHDOT
 10
291.7009539463815
 20
4.973799150320701e-014
 30
0
 40
78.99999999999997
 50
139.3944899877777
 51
161.3904113814413
  0
ARC
  8
1
 62
7
 10
291.7009539463815
 20
4.973799150320701e-014
 30
0
 40
78.99999999999996
 50
167.4350626965633
 51
252.5649373034366
  0
ARC
  8
1
 62
7
 10
291.7009539463815
 20
4.973799150320701e-014
 30
0
 40
79.00000000000004
 50
47.43506269656323
 51
132.5649373034367
  0
ARC
  8
1
 62
7
 10
291.7009539463815
 20
4.973799150320701e-014
 30
0
 40
79.00000000000007
 50
287.4350626965634
 51
12.56493730343678
  0
ARC
  8
1
 62
7
 10
291.7009539463815
 20
4.973799150320701e-014
 30
0
 40
132.4999999999999
 50
220.9993536502047
 51
229.0006463497954
  0
ARC
  8
1
 62
7
 10
291.7009539463815
 20
4.973799150320701e-014
 30
0
 40
132.5
 50
310.9993536502047
 51
319.0006463497953
  0
ARC
  8
1
 62
7
 10
291.7009539463815
 20
4.973799150320701e-014
 30
0
 40
132.5000000000001
 50
40.99935365020465
 51
49.0006463497953
  0
ARC
  8
1
 62
7
 10
291.7009539463815
 20
4.973799150320701e-014
 30
0
 40
132.4999999999999
 50
130.9993536502047
 51
139.0006463497953
  0
ARC
  8
1
 62
7
 10
393.8919515929454
 20
59.00000000000003
 30
0
 40
24.76721550183347
 50
182.7047028571629
 51
237.2952971428367
  0
ARC
  8
1
 62
7
 10
348.2009539463815
 20
0
 30
0
 40
50.00000000000011
 50
359.9999999999999
 51
49.74573655507821
  0
ARC
  8
1
 62
7
 10
344.0011755961982
 20
-4.57567649425205
 30
0
 40
33.00000000000001
 50
354.9999999999999
 51
75.41431673817634
  0
ARC
  8
1
 62
7
 10
291.7009539463815
 20
4.973799150320701e-014
 30
0
 40
66.50000000000004
 50
24.29536677155878
 51
35.70463322844108
  0
ARC
  8
1
 62
7
 10
291.7009539463815
 20
4.973799150320701e-014
 30
0
 40
85.50000000000009
 50
305.0000000000001
 51
355
  0
ARC
  8
1
 62
7
 10
291.7009539463815
 20
4.973799150320701e-014
 30
0
 40
106.5
 50
300.0000000000001
 51
359.9999999999999
  0
ARC
  8
1
 62
7
 10
291.7009539463815
 20
4.973799150320701e-014
 30
0
 40
106.5
 50
59.99999999999999
 51
120
  0
ARC
  8
1
 62
7
 10
291.7009539463815
 20
4.973799150320701e-014
 30
0
 40
85.50000000000004
 50
64.99999999999993
 51
115
  0
ARC
  8
1
 62
7
 10
313.8884126877683
 20
47.58115881942416
 30
0
 40
33.00000000000001
 50
344.5856832618236
 51
64.99999999999999
  0
ARC
  8
1
 62
7
 10
319.9509539463816
 20
48.93043531382082
 30
0
 40
49.99999999999997
 50
10.25426344492184
 51
60.00000000000011
  0
ARC
  8
1
 62
7
 10
291.7009539463815
 20
-118
 30
0
 40
24.76721550183347
 50
62.70470285716314
 51
117.2952971428369
  0
ARC
  8
1
 62
7
 10
263.4509539463815
 20
-48.93043531382072
 30
0
 40
49.99999999999998
 50
240
 51
289.7457365550782
  0
ARC
  8
1
 62
7
 10
261.5881910379516
 20
-43.00548232517201
 30
0
 40
32.99999999999996
 50
235
 51
315.4143167381763
  0
ARC
  8
1
 62
7
 10
291.7009539463815
 20
4.973799150320701e-014
 30
0
 40
66.50000000000001
 50
264.2953667715589
 51
275.7046332284411
  0
ARC
  8
1
 62
7
 10
291.7009539463815
 20
4.973799150320701e-014
 30
0
 40
85.49999999999996
 50
185
 51
235
  0
ARC
  8
1
 62
7
 10
291.7009539463815
 20
4.973799150320701e-014
 30
0
 40
106.4999999999999
 50
180
 51
240
  0
ARC
  8
1
 62
7
 10
321.8137168548115
 20
-43.00548232517202
 30
0
 40
33.00000000000012
 50
224.5856832618235
 51
305.0000000000002
  0
ARC
  8
1
 62
7
 10
319.9509539463816
 20
-48.93043531382073
 30
0
 40
50.00000000000001
 50
250.2542634449217
 51
300.0000000000001
  0
ARC
  8
1
 62
7
 10
189.5099562998178
 20
59.00000000000003
 30
0
 40
24.76721550183341
 50
302.7047028571631
 51
357.2952971428371
  0
ARC
  8
1
 62
7
 10
235.2009539463815
 20
2.842170943040401e-014
 30
0
 40
49.99999999999996
 50
130.2542634449218
 51
180
  0
ARC
  8
1
 62
7
 10
239.4007322965649
 20
-4.575676494252022
 30
0
 40
33.00000000000002
 50
104.5856832618237
 51
185
  0
ARC
  8
1
 62
7
 10
291.7009539463815
 20
4.973799150320701e-014
 30
0
 40
66.50000000000001
 50
144.2953667715588
 51
155.7046332284412
  0
ARC
  8
1
 62
7
 10
269.5134952049948
 20
47.58115881942419
 30
0
 40
32.99999999999997
 50
115
 51
195.4143167381764
  0
ARC
  8
1
 62
7
 10
263.4509539463816
 20
48.93043531382085
 30
0
 40
49.99999999999993
 50
120.0000000000001
 51
169.7457365550782
  0
ARC
  8
1
 62
7
 10
42.10620938802605
 20
-79.56838267383515
 30
0
 40
9.999999999999959
 50
106.8951343742598
 51
146.1625763597104
  0
ARC
  8
1
 62
7
 10
42.10620938802605
 20
-78.43161732616485
 30
0
 40
9.99999999999995
 50
213.8374236402896
 51
253.1048656257403
  0
CIRCLE
  8
1
 62
7
 10
376.5537676887673
 20
84.85281374238582
 30
0
 40
5.5
  0
CIRCLE
  8
1
 62
7
 10
376.5537676887673
 20
-84.85281374238566
 30
0
 40
5.5
  0
CIRCLE
  8
1
 62
7
 10
206.8481402039958
 20
-84.85281374238568
 30
0
 40
5.5
  0
CIRCLE
  8
1
 62
7
 10
206.8481402039958
 20
84.85281374238573
 30
0
 40
5.5
  0
CIRCLE
  8
1
 62
7
 10
291.7009539463815
 20
4.973799150320701e-014
 30
0
 40
53.5
  0
CIRCLE
  8
1
 62
7
 10
291.7009539463815
 20
4.973799150320701e-014
 30
0
 40
107.5000000000001
  0
CIRCLE
  8
1
 62
7
 10
360.1169608453522
 20
39.50000000000003
 30
0
 40
4
  0
CIRCLE
  8
1
 62
7
 10
291.7009539463815
 20
-78.99999999999996
 30
0
 40
4
  0
CIRCLE
  8
1
 62
7
 10
360.1169608453522
 20
39.50000000000003
 30
0
 40
5
  0
CIRCLE
  8
1
 62
7
 10
291.7009539463815
 20
-78.99999999999996
 30
0
 40
5
  0
CIRCLE
  8
1
 62
7
 10
360.1169608453522
 20
39.50000000000003
 30
0
 40
9.500000000000114
  0
CIRCLE
  8
1
 62
7
 10
291.7009539463815
 20
-78.99999999999996
 30
0
 40
9.5
  0
CIRCLE
  8
1
 62
7
 10
374.8393927096877
 20
-48.00000000000001
 30
0
 40
8
  0
CIRCLE
  8
1
 62
7
 10
208.5625151830754
 20
-47.99999999999993
 30
0
 40
8
  0
CIRCLE
  8
1
 62
7
 10
223.2849470474109
 20
39.50000000000006
 30
0
 40
4
  0
CIRCLE
  8
1
 62
7
 10
223.2849470474109
 20
39.50000000000006
 30
0
 40
5
  0
CIRCLE
  8
1
 62
7
 10
223.2849470474109
 20
39.50000000000006
 30
0
 40
9.5
  0
CIRCLE
  8
1
 62
7
 10
291.7009539463815
 20
96.00000000000003
 30
0
 40
8
  0
TEXT
  8
1
 62
7
 10
-221.7998112501817
 20
202.7957031837411
 30
0
 40
9
  1
TMB 20
 41
0.9
  7
SIMPLEX
  0
TEXT
  8
1
 62
7
 10
-221.7998112501817
 20
187.7957031837411
 30
0
 40
9
  1
DC1606
 41
0.9
  7
SIMPLEX
  0
ENDSEC
  0
EOF
