  0
SECTION
  2
HEADER
  9
$ACADVER
  1
AC1009
  9
$INSBASE
 10
0
 20
0
  9
$EXTMIN
 10
-115.5197241571186
 20
-67.49999999999999
  9
$EXTMAX
 10
215.5
 20
131.8267477872381
  9
$LIMMIN
 10
-115.5197241571186
 20
-67.49999999999999
  9
$LIMMAX
 10
215.5
 20
131.8267477872381
  9
$VIEWCTR
 10
10
 20
10
  9
$VIEWSIZE
 40
10
  9
$SNAPMODE
 70
0
  9
$SNAPUNIT
 10
1
 20
1
  9
$SNAPBASE
 10
0
 20
0
  9
$SNAPANG
 50
0
  9
$SNAPSTYLE
 70
0
  9
$SNAPISOPAIR
 70
0
  9
$GRIDMODE
 70
0
  9
$GRIDUNIT
 10
0
 20
0
  9
$ORTHOMODE
 70
0
  9
$REGENMODE
 70
1
  9
$FILLMODE
 70
1
  9
$QTEXTMODE
 70
0
  9
$DRAGMODE
 70
2
  9
$LTSCALE
 40
1
  9
$OSMODE
 70
0
  9
$ATTMODE
 70
1
  9
$TEXTSIZE
 40
3.5
  9
$TRACEWID
 40
0.5
  9
$TEXTSTYLE
  7
STANDARD
  9
$CLAYER
  8
0
  9
$CELTYPE
  6
BYLAYER
  9
$CECOLOR
 62
256
  9
$DIMSCALE
 40
1
  9
$DIMASZ
 40
0.18
  9
$DIMEXO
 40
0.0625
  9
$DIMDLI
 40
0.38
  9
$DIMRND
 40
0
  9
$DIMDLE
 40
0
  9
$DIMEXE
 40
0.18
  9
$DIMTP
 40
0
  9
$DIMTM
 40
0
  9
$DIMTXT
 40
0.18
  9
$DIMCEN
 40
0.09
  9
$DIMTSZ
 40
0
  9
$DIMTOL
 70
0
  9
$DIMLIM
 70
0
  9
$DIMTIH
 70
1
  9
$DIMTOH
 70
1
  9
$DIMSE1
 70
0
  9
$DIMSE2
 70
0
  9
$DIMTAD
 70
0
  9
$DIMZIN
 70
0
  9
$DIMBLK
  1

  9
$DIMASO
 70
1
  9
$DIMSHO
 70
1
  9
$DIMPOST
  1

  9
$DIMAPOST
  1

  9
$DIMALT
 70
0
  9
$DIMALTD
 70
2
  9
$DIMALTF
 40
25.4
  9
$DIMLFAC
 40
1
  9
$DIMTOFL
 70
0
  9
$DIMTVP
 40
0
  9
$DIMTIX
 70
0
  9
$DIMSOXD
 70
0
  9
$DIMSAH
 70
0
  9
$DIMBLK1
  1

  9
$DIMBLK2
  1

  9
$DIMSTYLE
  2
*UNNAMED
  9
$DIMCLRD
 70
0
  9
$DIMCLRE
 70
0
  9
$DIMCLRT
 70
0
  9
$DIMTFAC
 40
1
  9
$DIMGAP
 40
0.09
  9
$LUNITS
 70
2
  9
$LUPREC
 70
4
  9
$AXISMODE
 70
0
  9
$AXISUNIT
 10
0
 20
0
  9
$SKETCHINC
 40
0.1
  9
$FILLETRAD
 40
2
  9
$AUNITS
 70
0
  9
$AUPREC
 70
0
  9
$MENU
  1
ACAD
  9
$ELEVATION
 40
0
  9
$THICKNESS
 40
0
  9
$VIEWDIR
 10
0
 20
0
 30
1
  9
$LIMCHECK
 70
0
  9
$BLIPMODE
 70
1
  9
$CHAMFERA
 40
0
  9
$CHAMFERB
 40
0
  9
$FASTZOOM
 70
1
  9
$SKPOLY
 70
0
  9
$ANGBASE
 50
0
  9
$ANGDIR
 70
0
  9
$PDMODE
 70
0
  9
$PDSIZE
 40
0
  9
$PLINEWID
 40
0
  9
$COORDS
 70
2
  0
ENDSEC
  0
SECTION
  2
TABLES
  0
TABLE
  2
DIMSTYLE
 70
0
  0
ENDTAB
  0
TABLE
  2
LTYPE
 70
9
  0
LTYPE
  2
CONTINUOUS
 70
64
  3
Solid line
 72
65
 73
0
 40
0
  0
LTYPE
  2
BORDER
 70
64
  3
__ __ . __ __ .
 72
65
 73
6
 40
15.24432940197257
 49
4.355522686277877
 49
-2.177761343138938
 49
4.355522686277877
 49
-2.177761343138938
 49
0
 49
-2.177761343138938
  0
LTYPE
  2
CENTER
 70
64
  3
____ _ ____ _
 72
65
 73
4
 40
17.42209074511151
 49
10.88880671569469
 49
-2.177761343138938
 49
2.177761343138938
 49
-2.177761343138938
  0
LTYPE
  2
DASHDOT
 70
64
  3
__ . __ . __ .
 72
65
 73
4
 40
8.711045372555754
 49
4.355522686277877
 49
-2.177761343138938
 49
0
 49
-2.177761343138938
  0
LTYPE
  2
DASHED
 70
64
  3
__ __ __ __ __
 72
65
 73
2
 40
6.533284029416816
 49
4.355522686277877
 49
-2.177761343138938
  0
LTYPE
  2
DIVIDE
 70
64
  3
__ . . __ . . 
 72
65
 73
6
 40
10.88880671569469
 49
4.355522686277877
 49
-2.177761343138938
 49
0
 49
-2.177761343138938
 49
0
 49
-2.177761343138938
  0
LTYPE
  2
DOT
 70
64
  3
..............
 72
65
 73
4
 40
4.355522686277877
 49
0
 49
-2.177761343138938
 49
0
 49
-2.177761343138938
  0
LTYPE
  2
HIDDEN
 70
64
  3
_ _ _ _ _ _ _
 72
65
 73
2
 40
3.266642014708408
 49
2.177761343138938
 49
-1.088880671569469
  0
LTYPE
  2
PHANTOM
 70
64
  3
_____ _ _ _____ _ _ 
 72
65
 73
6
 40
21.77761343138938
 49
10.88880671569469
 49
-2.177761343138938
 49
2.177761343138938
 49
-2.177761343138938
 49
2.177761343138938
 49
-2.177761343138938
  0
ENDTAB
  0
TABLE
  2
LAYER
 70
3
  0
LAYER
  2
1
 70
0
 62
7
  6
CONTINUOUS
  0
LAYER
  2
0
 70
0
 62
7
  6
CONTINUOUS
  0
ENDTAB
  0
TABLE
  2
STYLE
 70
4
  0
STYLE
  2
STANDARD
 70
0
 40
0
 41
1
 50
0
 71
0
 42
3.5
  3
txt
  4

  0
STYLE
  2
SIMPLEX
 70
0
 40
0
 41
1
 50
0
 71
0
 42
3.5
  3
simplex
  4

  0
STYLE
  2
COMPLEX
 70
0
 40
0
 41
1
 50
0
 71
0
 42
3.5
  3
complex
  4

  0
STYLE
  2
ITALIC
 70
0
 40
0
 41
1
 50
0
 71
0
 42
3.5
  3
italic
  4

  0
ENDTAB
  0
TABLE
  2
VIEW
 70
0
  0
ENDTAB
  0
ENDSEC
  0
SECTION
  2
BLOCKS
  0
ENDSEC
  0
SECTION
  2
ENTITIES
  0
LINE
  8
1
 62
3
  6
DASHDOT
 10
182.8822368305939
 20
0
 30
0
 11
169.8132207569685
 21
0
 31
0
  0
LINE
  8
1
 62
3
  6
DASHDOT
 10
161.4999999999999
 20
21.41512557169611
 30
0
 11
161.4999999999999
 21
10.33487281362231
 31
0
  0
LINE
  8
1
 62
3
  6
DASHDOT
 10
-55
 20
0
 30
0
 11
-52.81568757101752
 21
0
 31
0
  0
LINE
  8
1
 62
7
 10
-55
 20
20
 30
0
 11
-74
 21
20
 31
0
  0
LINE
  8
1
 62
7
 10
-55.00000000000001
 20
-20
 30
0
 11
-55
 21
20
 31
0
  0
LINE
  8
1
 62
7
 10
-80
 20
-46.49999999999999
 30
0
 11
-80
 21
46.5
 31
0
  0
LINE
  8
1
 62
7
 10
-75
 20
46.5
 30
0
 11
-75
 21
-46.49999999999999
 31
0
  0
LINE
  8
1
 62
7
 10
-75
 20
-46.49999999999999
 30
0
 11
-80
 21
-46.49999999999999
 31
0
  0
LINE
  8
1
 62
7
 10
-74
 20
-20
 30
0
 11
-55.00000000000001
 21
-20
 31
0
  0
LINE
  8
1
 62
7
 10
-80
 20
46.5
 30
0
 11
-75
 21
46.5
 31
0
  0
LINE
  8
1
 62
3
  6
DASHDOT
 10
56.60000000000001
 20
0
 30
0
 11
58.7843124289825
 21
0
 31
0
  0
LINE
  8
1
 62
3
  6
DASHDOT
 10
48.60000000000001
 20
3.458039325392207
 30
0
 11
48.60000000000001
 21
-3.458039325392178
 31
0
  0
LINE
  8
1
 62
3
  6
DASHDOT
 10
52.0580393253922
 20
1.4210854715202e-014
 30
0
 11
45.14196067460781
 21
1.4210854715202e-014
 31
0
  0
LINE
  8
1
 62
3
  6
DASHDOT
 10
161.5
 20
4.59595427330914
 30
0
 11
161.5
 21
-4.595954273309118
 31
0
  0
LINE
  8
1
 62
3
  6
DASHDOT
 10
166.0959542733091
 20
1.4210854715202e-014
 30
0
 11
156.9040457266908
 21
1.4210854715202e-014
 31
0
  0
LINE
  8
1
 62
7
 10
31.60000000000004
 20
12.00000000000002
 30
0
 11
56.60000000000001
 21
12.00000000000002
 31
0
  0
LINE
  8
1
 62
7
 10
56.60000000000001
 20
20
 30
0
 11
37.60000000000004
 21
20
 31
0
  0
LINE
  8
1
 62
7
 10
50.60000000000001
 20
20
 30
0
 11
50.60000000000001
 21
12.00000000000002
 31
0
  0
LINE
  8
1
 62
7
 10
46.60000000000001
 20
20
 30
0
 11
46.60000000000001
 21
12.00000000000002
 31
0
  0
LINE
  8
1
 62
3
  6
DASHDOT
 10
48.60000000000001
 20
21.6
 30
0
 11
48.60000000000001
 21
10.40000000000002
 31
0
  0
LINE
  8
1
 62
3
 10
51.10000000000001
 20
20
 30
0
 11
51.10000000000001
 21
12.00000000000002
 31
0
  0
LINE
  8
1
 62
3
 10
46.10000000000001
 20
20
 30
0
 11
46.10000000000001
 21
12.00000000000002
 31
0
  0
LINE
  8
1
 62
7
 10
56.59999999999999
 20
-20
 30
0
 11
56.60000000000001
 21
20
 31
0
  0
LINE
  8
1
 62
7
 10
31.60000000000004
 20
-35.49999999999999
 30
0
 11
31.60000000000003
 21
46.5
 31
0
  0
LINE
  8
1
 62
7
 10
31.60000000000004
 20
-9.999999999999986
 30
0
 11
56.60000000000001
 21
-9.999999999999986
 31
0
  0
LINE
  8
1
 62
3
  6
DASHED
 10
171.4999999999999
 20
2.000000000000014
 30
0
 11
181.2957968820116
 21
2.000000000000014
 31
0
  0
LINE
  8
1
 62
3
  6
DASHED
 10
171.4999999999999
 20
-1.999999999999986
 30
0
 11
181.2957968820116
 21
-1.999999999999986
 31
0
  0
LINE
  8
1
 62
3
  6
DASHED
 10
171.4999999999999
 20
2.500000000000014
 30
0
 11
181.2957968820116
 21
2.500000000000014
 31
0
  0
LINE
  8
1
 62
3
  6
DASHED
 10
171.4999999999999
 20
-2.499999999999986
 30
0
 11
181.2957968820116
 21
-2.499999999999986
 31
0
  0
LINE
  8
1
 62
7
 10
158.9999999999999
 20
12.00000000000002
 30
0
 11
163.9999999999999
 21
12.00000000000002
 31
0
  0
LINE
  8
1
 62
3
  6
DASHED
 10
159.4999999999999
 20
12.00000000000002
 30
0
 11
159.4999999999999
 21
20.00000000000002
 31
0
  0
LINE
  8
1
 62
3
  6
DASHED
 10
163.4999999999999
 20
12.00000000000002
 30
0
 11
163.4999999999999
 21
20.00000000000002
 31
0
  0
LINE
  8
1
 62
3
  6
DASHED
 10
158.9999999999999
 20
12.00000000000002
 30
0
 11
158.9999999999999
 21
20.00000000000002
 31
0
  0
LINE
  8
1
 62
3
  6
DASHED
 10
163.9999999999999
 20
12.00000000000002
 30
0
 11
163.9999999999999
 21
20.00000000000002
 31
0
  0
LINE
  8
1
 62
7
 10
163.9999999999999
 20
12.00000000000002
 30
0
 11
163.9999999999999
 21
9.682458365518556
 31
0
  0
LINE
  8
1
 62
7
 10
158.9999999999999
 20
9.682458365518556
 30
0
 11
158.9999999999999
 21
12.00000000000002
 31
0
  0
LINE
  8
1
 62
7
 10
34.10000000000004
 20
-40.49999999999999
 30
0
 11
36.60000000000004
 21
-42.99999999999999
 31
0
  0
LINE
  8
1
 62
7
 10
34.10000000000004
 20
-35.49999999999999
 30
0
 11
34.10000000000004
 21
-40.49999999999999
 31
0
  0
LINE
  8
1
 62
7
 10
36.60000000000004
 20
-21
 30
0
 11
36.60000000000004
 21
-46.49999999999999
 31
0
  0
LINE
  8
1
 62
7
 10
36.60000000000004
 20
-32.99999999999999
 30
0
 11
34.10000000000004
 21
-35.49999999999999
 31
0
  0
LINE
  8
1
 62
7
 10
36.60000000000004
 20
-46.49999999999999
 30
0
 11
31.60000000000003
 21
-46.49999999999999
 31
0
  0
LINE
  8
1
 62
7
 10
37.60000000000004
 20
-20
 30
0
 11
56.59999999999999
 21
-20
 31
0
  0
LINE
  8
1
 62
7
 10
31.60000000000004
 20
-40.49999999999999
 30
0
 11
31.60000000000003
 21
-46.49999999999999
 31
0
  0
LINE
  8
1
 62
7
 10
36.60000000000004
 20
21
 30
0
 11
36.60000000000005
 21
46.5
 31
0
  0
LINE
  8
1
 62
7
 10
31.60000000000003
 20
46.5
 30
0
 11
36.60000000000005
 21
46.5
 31
0
  0
LINE
  8
1
 62
3
 10
36.60000000000004
 20
25.75
 30
0
 11
31.60000000000004
 21
25.75
 31
0
  0
LINE
  8
1
 62
3
 10
36.63175416344819
 20
20.75
 30
0
 11
31.60000000000004
 21
20.75
 31
0
  0
LINE
  8
1
 62
3
  6
DASHDOT
 10
37.60000000000004
 20
23.25
 30
0
 11
30.60000000000004
 21
23.25
 31
0
  0
LINE
  8
1
 62
7
 10
36.60000000000004
 20
25.25
 30
0
 11
31.60000000000004
 21
25.25
 31
0
  0
LINE
  8
1
 62
7
 10
36.60000000000004
 20
21.25
 30
0
 11
31.60000000000004
 21
21.25
 31
0
  0
LINE
  8
1
 62
7
 10
28.39999999999989
 20
-35.49999999999999
 30
0
 11
34.10000000000004
 21
-35.49999999999999
 31
0
  0
LINE
  8
1
 62
7
 10
28.39999999999979
 20
-40.49999999999999
 30
0
 11
34.10000000000004
 21
-40.49999999999999
 31
0
  0
LINE
  8
1
 62
7
 10
28.39999999999999
 20
-42.24999999999999
 30
0
 11
27.79999999999998
 21
-42.24999999999999
 31
0
  0
LINE
  8
1
 62
7
 10
27.79999999999998
 20
-42.49999999999999
 30
0
 11
27.79999999999998
 21
-33.49999999999999
 31
0
  0
LINE
  8
1
 62
7
 10
27.79999999999998
 20
-33.74999999999999
 30
0
 11
28.39999999999999
 21
-33.74999999999999
 31
0
  0
LINE
  8
1
 62
7
 10
27.79999999999998
 20
-33.49999999999999
 30
0
 11
26.29999999999998
 21
-33.49999999999999
 31
0
  0
LINE
  8
1
 62
7
 10
25.99999999999999
 20
-33.8
 30
0
 11
25.99999999999999
 21
-42.19999999999999
 31
0
  0
LINE
  8
1
 62
7
 10
27.79999999999998
 20
-42.49999999999999
 30
0
 11
26.29999999999998
 21
-42.49999999999999
 31
0
  0
LINE
  8
1
 62
7
 10
25.99999999999999
 20
-33.8
 30
0
 11
26.29999999999998
 21
-33.49999999999999
 31
0
  0
LINE
  8
1
 62
7
 10
26.29999999999998
 20
-42.49999999999999
 30
0
 11
25.99999999999999
 21
-42.19999999999999
 31
0
  0
LINE
  8
1
 62
7
 10
56.60000000000001
 20
9.999999999999986
 30
0
 11
31.60000000000004
 21
9.999999999999986
 31
0
  0
LINE
  8
1
 62
7
 10
27.69999999999999
 20
54
 30
0
 11
27.69999999999999
 21
38
 31
0
  0
LINE
  8
1
 62
7
 10
0.1000000000001329
 20
-67.49999999999999
 30
0
 11
0.1000000000001329
 21
50
 31
0
  0
LINE
  8
1
 62
7
 10
2.500000000000142
 20
50
 30
0
 11
2.500000000000142
 21
-67.49999999999999
 31
0
  0
LINE
  8
1
 62
7
 10
159
 20
80.55861913509673
 30
0
 11
164
 21
80.55861913509673
 31
0
  0
LINE
  8
1
 62
3
  6
DASHDOT
 10
-111.4999999999999
 20
0
 30
0
 11
-115.5197241571186
 21
0
 31
0
  0
LINE
  8
1
 62
7
 10
-100.1062978486817
 20
80.55861913509673
 30
0
 11
-100.1062978486817
 21
85.5391854824509
 31
0
  0
LINE
  8
1
 62
7
 10
-101.3499999999999
 20
80.55861913509673
 30
0
 11
-101.3499999999999
 21
53.5
 31
0
  0
LINE
  8
1
 62
7
 10
-82.59999999999999
 20
-43.5
 30
0
 11
-80
 21
-43.5
 31
0
  0
LINE
  8
1
 62
7
 10
-82.59999999999999
 20
-32.5
 30
0
 11
-80
 21
-32.5
 31
0
  0
LINE
  8
1
 62
7
 10
-83.19999999999999
 20
-53
 30
0
 11
-82.59999999999999
 21
-53
 31
0
  0
LINE
  8
1
 62
7
 10
-83.90000000000001
 20
-54
 30
0
 11
-87.90000000000001
 21
-54
 31
0
  0
LINE
  8
1
 62
7
 10
-82.59999999999999
 20
38
 30
0
 11
-82.59999999999999
 21
-53
 31
0
  0
LINE
  8
1
 62
7
 10
-81
 20
43.5
 30
0
 11
-81.5
 21
43
 31
0
  0
LINE
  8
1
 62
7
 10
-81
 20
51.5
 30
0
 11
-81
 21
43.5
 31
0
  0
LINE
  8
1
 62
7
 10
-83.19999999999999
 20
43
 30
0
 11
-81.5
 21
43
 31
0
  0
LINE
  8
1
 62
7
 10
-81
 20
51.5
 30
0
 11
-81.5
 21
52
 31
0
  0
LINE
  8
1
 62
7
 10
-83.29999999999998
 20
52
 30
0
 11
-81.5
 21
52
 31
0
  0
LINE
  8
1
 62
7
 10
-82.59999999999999
 20
52
 30
0
 11
-82.60000000000001
 21
43
 31
0
  0
LINE
  8
1
 62
7
 10
-83.29999999999998
 20
53
 30
0
 11
-83.29999999999998
 21
40.54136836602154
 31
0
  0
LINE
  8
1
 62
7
 10
-83.90000000000001
 20
40.61243556529823
 30
0
 11
-83.19999999999999
 21
38
 31
0
  0
LINE
  8
1
 62
7
 10
-83.29999999999998
 20
40.54136836602154
 30
0
 11
-82.59999999999999
 21
38
 31
0
  0
LINE
  8
1
 62
7
 10
-83.90000000000001
 20
53
 30
0
 11
-83.29999999999998
 21
53
 31
0
  0
LINE
  8
1
 62
7
 10
-83.19999999999999
 20
38
 30
0
 11
-83.19999999999999
 21
-53
 31
0
  0
LINE
  8
1
 62
7
 10
-87.90000000000001
 20
54
 30
0
 11
-83.90000000000001
 21
54
 31
0
  0
LINE
  8
1
 62
7
 10
-87.90000000000001
 20
54
 30
0
 11
-87.90000000000001
 21
-54
 31
0
  0
LINE
  8
1
 62
7
 10
-98.84999999999991
 20
80.55861913509673
 30
0
 11
-98.84999999999991
 21
53.5
 31
0
  0
LINE
  8
1
 62
7
 10
-101.3499999999999
 20
80.55861913509673
 30
0
 11
-98.84999999999991
 21
80.55861913509673
 31
0
  0
LINE
  8
1
 62
7
 10
-99.71379621403531
 20
85.55861913509673
 30
0
 11
-99.71379621403531
 21
80.55861913509673
 31
0
  0
LINE
  8
1
 62
7
 10
-99.17413081026371
 20
85.55861913509673
 30
0
 11
-99.17413081026371
 21
80.55861913509673
 31
0
  0
LINE
  8
1
 62
7
 10
-101.0258691897361
 20
80.55861913509673
 30
0
 11
-101.0258691897361
 21
85.55861913509673
 31
0
  0
LINE
  8
1
 62
7
 10
-100.4862037859645
 20
80.55861913509673
 30
0
 11
-100.4862037859645
 21
85.55861913509673
 31
0
  0
LINE
  8
1
 62
7
 10
-111.4999999999999
 20
-67.49999999999999
 30
0
 11
-109.0999999999999
 21
-67.49999999999999
 31
0
  0
LINE
  8
1
 62
7
 10
-111.4999999999999
 20
50
 30
0
 11
-109.0999999999999
 21
50
 31
0
  0
LINE
  8
1
 62
7
 10
-88.09999999999999
 20
53.5
 30
0
 11
-88.09999999999999
 21
-53.49999999999989
 31
0
  0
LINE
  8
1
 62
7
 10
-103.0999999999999
 20
-53.49999999999989
 30
0
 11
-88.09999999999999
 21
-53.49999999999989
 31
0
  0
LINE
  8
1
 62
3
  6
DASHDOT
 10
0.1000000000001329
 20
0
 30
0
 11
-3.919724157118669
 21
0
 31
0
  0
LINE
  8
1
 62
7
 10
11.49370215131835
 20
80.55861913509673
 30
0
 11
11.49370215131835
 21
85.5391854824509
 31
0
  0
LINE
  8
1
 62
7
 10
161.5107656982076
 20
80.55861913509673
 30
0
 11
161.5107656982076
 21
54.06711291106191
 31
0
  0
LINE
  8
1
 62
7
 10
10.25000000000014
 20
80.55861913509673
 30
0
 11
10.25000000000014
 21
53.5
 31
0
  0
LINE
  8
1
 62
7
 10
28.39999999999999
 20
-30.00000000000003
 30
0
 11
28.99999999999999
 21
-30.00000000000003
 31
0
  0
LINE
  8
1
 62
7
 10
29
 20
-43.5
 30
0
 11
31.60000000000002
 21
-43.5
 31
0
  0
LINE
  8
1
 62
7
 10
29
 20
-32.5
 30
0
 11
31.60000000000004
 21
-32.5
 31
0
  0
LINE
  8
1
 62
7
 10
29
 20
-40.5
 30
0
 11
29
 21
-53
 31
0
  0
LINE
  8
1
 62
7
 10
23.69999999999999
 20
-43.25
 30
0
 11
27.69999999999999
 21
-43.25
 31
0
  0
LINE
  8
1
 62
7
 10
23.69999999999999
 20
-32.75
 30
0
 11
28.39999999999979
 21
-32.74999999999999
 31
0
  0
LINE
  8
1
 62
7
 10
28.39999999999999
 20
-53
 30
0
 11
29
 21
-53
 31
0
  0
LINE
  8
1
 62
7
 10
27.69999999999999
 20
-43.25
 30
0
 11
27.69999999999999
 21
-54
 31
0
  0
LINE
  8
1
 62
7
 10
23.69999999999989
 20
53.99999999999999
 30
0
 11
23.69999999999999
 21
-54
 31
0
  0
LINE
  8
1
 62
7
 10
27.69999999999999
 20
-54
 30
0
 11
23.69999999999999
 21
-54
 31
0
  0
LINE
  8
1
 62
7
 10
28.40000000000001
 20
-26.50000000000001
 30
0
 11
23.69999999999989
 21
-26.50000000000001
 31
0
  0
LINE
  8
1
 62
7
 10
28.39999999999999
 20
-53
 30
0
 11
28.39999999999999
 21
38
 31
0
  0
LINE
  8
1
 62
7
 10
29
 20
38
 30
0
 11
29
 21
-35.5
 31
0
  0
LINE
  8
1
 62
7
 10
27.69999999999999
 20
42
 30
0
 11
28.30000000000001
 21
42
 31
0
  0
LINE
  8
1
 62
7
 10
30.59999999999999
 20
43.5
 30
0
 11
30.09999999999999
 21
43
 31
0
  0
LINE
  8
1
 62
7
 10
30.59999999999999
 20
51.5
 30
0
 11
30.09999999999999
 21
52
 31
0
  0
LINE
  8
1
 62
7
 10
28.99999999999989
 20
52
 30
0
 11
28.99999999999989
 21
43
 31
0
  0
LINE
  8
1
 62
7
 10
28.29999999999998
 20
52
 30
0
 11
30.09999999999999
 21
52
 31
0
  0
LINE
  8
1
 62
7
 10
28.3
 20
43
 30
0
 11
30.09999999999999
 21
43
 31
0
  0
LINE
  8
1
 62
7
 10
30.59999999999999
 20
51.5
 30
0
 11
30.59999999999999
 21
43.5
 31
0
  0
LINE
  8
1
 62
7
 10
27.69999999999999
 20
40.61243556529823
 30
0
 11
28.39999999999999
 21
38
 31
0
  0
LINE
  8
1
 62
7
 10
28.3
 20
40.54136836602154
 30
0
 11
29
 21
38
 31
0
  0
LINE
  8
1
 62
7
 10
28.3
 20
53
 30
0
 11
28.3
 21
40.54136836602154
 31
0
  0
LINE
  8
1
 62
7
 10
27.69999999999999
 20
53
 30
0
 11
28.3
 21
53
 31
0
  0
LINE
  8
1
 62
7
 10
23.7
 20
26.5
 30
0
 11
28.40000000000001
 21
26.5
 31
0
  0
LINE
  8
1
 62
7
 10
27.69999999999999
 20
38
 30
0
 11
28.39999999999999
 21
38
 31
0
  0
LINE
  8
1
 62
7
 10
23.69999999999989
 20
53.99999999999999
 30
0
 11
27.69999999999999
 21
54
 31
0
  0
LINE
  8
1
 62
3
  6
DASHDOT
 10
200.844998806244
 20
39.34499880624404
 30
0
 11
208.1408109041623
 21
46.64081090416229
 31
0
  0
LINE
  8
1
 62
3
  6
DASHDOT
 10
200.9876490695033
 20
-39.48764906950329
 30
0
 11
208.6101393210597
 21
-47.11013932105969
 31
0
  0
LINE
  8
1
 62
3
  6
DASHDOT
 10
115.2553225530538
 20
-46.24467744694618
 30
0
 11
122.4422419330926
 21
-39.0577580669074
 31
0
  0
LINE
  8
1
 62
3
  6
DASHDOT
 10
114.8535092269162
 20
46.64649077308377
 30
0
 11
122.5848921963519
 21
38.91510780364806
 31
0
  0
LINE
  8
1
 62
7
 10
116.1541071319574
 20
50
 30
0
 11
141.1039219456288
 21
50
 31
0
  0
LINE
  8
1
 62
7
 10
181.8960780543711
 20
50
 30
0
 11
206.8458928680426
 21
50
 31
0
  0
LINE
  8
1
 62
7
 10
211.5
 20
45.34589286804263
 30
0
 11
211.5
 21
20.39607805437115
 31
0
  0
LINE
  8
1
 62
7
 10
211.5
 20
-20.39607805437115
 30
0
 11
211.5
 21
-45.3458928680426
 31
0
  0
LINE
  8
1
 62
7
 10
181.8960780543711
 20
-50
 30
0
 11
206.8458928680426
 21
-50
 31
0
  0
LINE
  8
1
 62
7
 10
116.1541071319574
 20
-50
 30
0
 11
141.1039219456288
 21
-50
 31
0
  0
LINE
  8
1
 62
7
 10
111.5
 20
-20.39607805437115
 30
0
 11
111.5
 21
-45.3458928680426
 31
0
  0
LINE
  8
1
 62
7
 10
111.5
 20
45.34589286804263
 30
0
 11
111.5
 21
20.39607805437115
 31
0
  0
LINE
  8
1
 62
7
 10
159
 20
53.94209858728152
 30
0
 11
159
 21
80.55861913509673
 31
0
  0
LINE
  8
1
 62
7
 10
164
 20
53.94209858728155
 30
0
 11
164
 21
80.55861913509673
 31
0
  0
LINE
  8
1
 62
7
 10
162.1684330949856
 20
85.55861913509673
 30
0
 11
162.1684330949856
 21
80.55861913509673
 31
0
  0
LINE
  8
1
 62
7
 10
162.7206854469501
 20
85.55861913509673
 30
0
 11
162.7206854469501
 21
80.55861913509673
 31
0
  0
LINE
  8
1
 62
7
 10
163.2729377989147
 20
85.55861913509673
 30
0
 11
163.2729377989147
 21
80.55861913509673
 31
0
  0
LINE
  8
1
 62
7
 10
159.7270622010852
 20
80.55861913509673
 30
0
 11
159.7270622010852
 21
85.55861913509673
 31
0
  0
LINE
  8
1
 62
7
 10
160.2793145530498
 20
80.55861913509673
 30
0
 11
160.2793145530498
 21
85.55861913509673
 31
0
  0
LINE
  8
1
 62
7
 10
160.8315669050144
 20
80.55861913509673
 30
0
 11
160.8315669050144
 21
85.55861913509673
 31
0
  0
LINE
  8
1
 62
7
 10
11.88620378596473
 20
85.55861913509673
 30
0
 11
11.88620378596473
 21
80.55861913509673
 31
0
  0
LINE
  8
1
 62
7
 10
12.42586918973635
 20
85.55861913509673
 30
0
 11
12.42586918973635
 21
80.55861913509673
 31
0
  0
LINE
  8
1
 62
7
 10
10.57413081026393
 20
80.55861913509673
 30
0
 11
10.57413081026393
 21
85.55861913509673
 31
0
  0
LINE
  8
1
 62
7
 10
11.11379621403555
 20
80.55861913509673
 30
0
 11
11.11379621403555
 21
85.55861913509673
 31
0
  0
LINE
  8
1
 62
3
  6
DASHDOT
 10
-1.674904534659664
 20
-61
 30
0
 11
5.206971465550531
 21
-61
 31
0
  0
LINE
  8
1
 62
7
 10
0.1000000000001329
 20
-67.49999999999999
 30
0
 11
2.500000000000142
 21
-67.49999999999999
 31
0
  0
LINE
  8
1
 62
7
 10
0.1000000000001329
 20
-64.24999999999999
 30
0
 11
2.500000000000142
 21
-64.24999999999999
 31
0
  0
LINE
  8
1
 62
7
 10
0.1000000000001329
 20
-57.75
 30
0
 11
2.500000000000142
 21
-57.75
 31
0
  0
LINE
  8
1
 62
7
 10
2.500000000000142
 20
-26.00000000000001
 30
0
 11
0.1000000000001329
 21
-26.00000000000001
 31
0
  0
LINE
  8
1
 62
7
 10
0.1000000000001329
 20
26
 30
0
 11
2.500000000000142
 21
26
 31
0
  0
LINE
  8
1
 62
7
 10
0.1000000000001329
 20
50
 30
0
 11
2.500000000000142
 21
50
 31
0
  0
LINE
  8
1
 62
7
 10
23.50000000000004
 20
53.5
 30
0
 11
8.500000000000142
 21
53.5
 31
0
  0
LINE
  8
1
 62
7
 10
23.50000000000014
 20
27
 30
0
 11
8.500000000000142
 21
27
 31
0
  0
LINE
  8
1
 62
7
 10
8.500000000000142
 20
-26.99999999999997
 30
0
 11
23.50000000000014
 21
-26.99999999999997
 31
0
  0
LINE
  8
1
 62
7
 10
8.500000000000142
 20
-53.49999999999989
 30
0
 11
23.50000000000004
 21
-53.49999999999989
 31
0
  0
LINE
  8
1
 62
7
 10
23.50000000000004
 20
53.5
 30
0
 11
23.50000000000004
 21
-53.49999999999989
 31
0
  0
LINE
  8
1
 62
3
  6
DASHDOT
 10
-112.665467758433
 20
-61
 30
0
 11
-107.832489795221
 21
-61
 31
0
  0
LINE
  8
1
 62
7
 10
12.75000000000014
 20
53.5
 30
0
 11
12.75000000000014
 21
80.55861913509673
 31
0
  0
LINE
  8
1
 62
7
 10
12.75000000000014
 20
80.55861913509673
 30
0
 11
10.25000000000014
 21
80.55861913509673
 31
0
  0
LINE
  8
1
 62
7
 10
-83.90000000000001
 20
54
 30
0
 11
-83.90000000000001
 21
-54
 31
0
  0
LINE
  8
1
 62
7
 10
-83.19999999999999
 20
38
 30
0
 11
-83.90000000000001
 21
38
 31
0
  0
LINE
  8
1
 62
7
 10
-109.0999999999999
 20
50
 30
0
 11
-109.0999999999999
 21
-67.49999999999999
 31
0
  0
LINE
  8
1
 62
7
 10
-111.4999999999999
 20
-67.49999999999999
 30
0
 11
-111.4999999999999
 21
50
 31
0
  0
LINE
  8
1
 62
7
 10
-88.09999999999999
 20
53.5
 30
0
 11
-103.0999999999999
 21
53.5
 31
0
  0
ARC
  8
1
 62
7
 10
161.5
 20
1.4210854715202e-014
 30
0
 40
10.00000000000003
 50
104.4775121859306
 51
75.52248781407072
  0
ARC
  8
1
 62
7
 10
-74
 20
-21
 30
0
 40
1
 50
90
 51
180
  0
ARC
  8
1
 62
7
 10
-74
 20
21
 30
0
 40
1
 50
180
 51
270
  0
ARC
  8
1
 62
7
 10
37.60000000000004
 20
-21
 30
0
 40
1
 50
90
 51
180
  0
ARC
  8
1
 62
7
 10
37.60000000000004
 20
21
 30
0
 40
1
 50
180
 51
270
  0
ARC
  8
1
 62
7
 10
147.4999999999999
 20
-24.24871130596424
 30
0
 40
25.00000000000001
 50
240
 51
291.6182724221584
  0
ARC
  8
1
 62
7
 10
147.5000000000001
 20
24.24871130596432
 30
0
 40
25.00000000000002
 50
120.0000000000003
 51
171.6182724221583
  0
ARC
  8
1
 62
7
 10
161.5
 20
-59.5757547712756
 30
0
 40
12.99999999999984
 50
68.38172757784267
 51
111.6182724221581
  0
ARC
  8
1
 62
7
 10
109.9058829184433
 20
29.78787738563779
 30
0
 40
12.99999999999984
 50
308.3817275778428
 51
351.6182724221582
  0
ARC
  8
1
 62
7
 10
175.4999999999999
 20
-24.24871130596435
 30
0
 40
24.99999999999999
 50
248.3817275778415
 51
299.9999999999999
  0
ARC
  8
1
 62
7
 10
133.5
 20
8.526512829121202e-014
 30
0
 40
25.00000000000006
 50
128.3817275778416
 51
180.0000000000001
  0
ARC
  8
1
 62
7
 10
175.5000000000001
 20
24.24871130596429
 30
0
 40
24.99999999999993
 50
8.381727577841463
 51
60.00000000000024
  0
ARC
  8
1
 62
7
 10
213.0941170815566
 20
29.78787738563787
 30
0
 40
12.99999999999985
 50
188.3817275778429
 51
231.6182724221584
  0
ARC
  8
1
 62
7
 10
189.5
 20
-2.842170943040401e-014
 30
0
 40
25
 50
359.9999999999997
 51
51.61827242215835
  0
ARC
  8
1
 62
7
 10
-103.0999999999999
 20
47.5
 30
0
 40
6
 50
90
 51
180
  0
ARC
  8
1
 62
7
 10
-103.0999999999999
 20
-47.5
 30
0
 40
6
 50
180
 51
270
  0
ARC
  8
1
 62
7
 10
8.500000000000142
 20
47.5
 30
0
 40
6
 50
90
 51
180
  0
ARC
  8
1
 62
7
 10
8.500000000000142
 20
33
 30
0
 40
6
 50
180
 51
270
  0
ARC
  8
1
 62
7
 10
8.500000000000142
 20
-33
 30
0
 40
6.000000000000028
 50
90
 51
180
  0
ARC
  8
1
 62
7
 10
8.500000000000142
 20
-47.5
 30
0
 40
6
 50
180
 51
270
  0
ARC
  8
1
 62
3
  6
DASHDOT
 10
161.5
 20
1.4210854715202e-014
 30
0
 40
61.00000000000001
 50
128.5719117530581
 51
141.3363338594844
  0
ARC
  8
1
 62
3
  6
DASHDOT
 10
161.5
 20
1.4210854715202e-014
 30
0
 40
61.00000000000004
 50
219.000931754132
 51
231.1800732104172
  0
ARC
  8
1
 62
3
  6
DASHDOT
 10
161.5
 20
1.4210854715202e-014
 30
0
 40
60.99999999999995
 50
309.0695782352602
 51
322.1058082419697
  0
ARC
  8
1
 62
3
  6
DASHDOT
 10
161.5
 20
1.4210854715202e-014
 30
0
 40
60.99999999999998
 50
39.08747099769012
 51
50.86043550625003
  0
ARC
  8
1
 62
7
 10
161.5
 20
1.4210854715202e-014
 30
0
 40
67.49999999999999
 50
312.2054464037323
 51
317.7945535962678
  0
ARC
  8
1
 62
7
 10
161.5
 20
1.4210854715202e-014
 30
0
 40
67.49999999999999
 50
222.2054464037323
 51
227.7945535962677
  0
ARC
  8
1
 62
7
 10
161.5
 20
1.4210854715202e-014
 30
0
 40
67.49999999999996
 50
132.2054464037323
 51
137.7945535962677
  0
ARC
  8
1
 62
7
 10
161.5
 20
1.4210854715202e-014
 30
0
 40
67.5
 50
42.20544640373228
 51
47.79455359626773
  0
ARC
  8
1
 62
7
 10
161.5
 20
1.4210854715202e-014
 30
0
 40
53
 50
180
 51
239.9999999999999
  0
ARC
  8
1
 62
7
 10
161.5
 20
1.4210854715202e-014
 30
0
 40
53.00000000000004
 50
299.9999999999998
 51
359.9999999999999
  0
ARC
  8
1
 62
7
 10
161.5
 20
1.4210854715202e-014
 30
0
 40
53.00000000000001
 50
60.00000000000001
 51
120
  0
ARC
  8
1
 62
7
 10
161.5
 20
47.5
 30
0
 40
4.499999999999989
 50
344.4992219332345
 51
195.5007780667655
  0
ARC
  8
1
 62
7
 10
120.3637933202392
 20
-23.74999999999996
 30
0
 40
4.499999999999973
 50
104.4992219332343
 51
315.5007780667654
  0
ARC
  8
1
 62
7
 10
202.6362066797608
 20
-23.74999999999999
 30
0
 40
4.499999999999993
 50
224.4992219332345
 51
75.50077806676551
  0
CIRCLE
  8
1
 62
3
 10
48.60000000000001
 20
0
 30
0
 40
2.5
  0
CIRCLE
  8
1
 62
7
 10
48.60000000000001
 20
0
 30
0
 40
2
  0
CIRCLE
  8
1
 62
7
 10
161.4999999999999
 20
-37.99999999999999
 30
0
 40
2.5
  0
CIRCLE
  8
1
 62
7
 10
128.5910346561913
 20
19.00000000000006
 30
0
 40
2.5
  0
CIRCLE
  8
1
 62
7
 10
161.4999999999999
 20
-37.99999999999999
 30
0
 40
5
  0
CIRCLE
  8
1
 62
7
 10
128.5910346561913
 20
19.00000000000006
 30
0
 40
5
  0
CIRCLE
  8
1
 62
7
 10
194.4089653438086
 20
18.99999999999997
 30
0
 40
5
  0
CIRCLE
  8
1
 62
7
 10
194.4089653438086
 20
18.99999999999997
 30
0
 40
2.5
  0
CIRCLE
  8
1
 62
3
 10
177.9999215371423
 20
-16.49992153714227
 30
0
 40
2.5
  0
CIRCLE
  8
1
 62
7
 10
177.9999215371423
 20
-16.49992153714227
 30
0
 40
2
  0
CIRCLE
  8
1
 62
3
 10
145.0496674275237
 20
16.45033257247631
 30
0
 40
2.5
  0
CIRCLE
  8
1
 62
7
 10
145.0496674275237
 20
16.45033257247631
 30
0
 40
2
  0
CIRCLE
  8
1
 62
7
 10
161.5
 20
1.4210854715202e-014
 30
0
 40
46.49999999999989
  0
CIRCLE
  8
1
 62
7
 10
161.5
 20
1.4210854715202e-014
 30
0
 40
19.99999999999989
  0
CIRCLE
  8
1
 62
7
 10
118.3664863476206
 20
-43.13351365237939
 30
0
 40
3.25
  0
CIRCLE
  8
1
 62
7
 10
204.6335136523794
 20
-43.13351365237939
 30
0
 40
3.25
  0
CIRCLE
  8
1
 62
7
 10
204.6335136523794
 20
43.13351365237938
 30
0
 40
3.25
  0
CIRCLE
  8
1
 62
7
 10
118.3664863476206
 20
43.13351365237938
 30
0
 40
3.25
  0
CIRCLE
  8
1
 62
7
 10
161.5
 20
1.4210854715202e-014
 30
0
 40
54
  0
TEXT
  8
1
 62
7
 10
-113.3468928683208
 20
126.8267477872381
 30
0
 40
5
  1
TMB 2.5H
 41
0.9
  7
SIMPLEX
  0
TEXT
  8
1
 62
7
 10
-113.7143214218748
 20
118.6373193588001
 30
0
 40
5
  1
DC1703
 41
0.9
  7
SIMPLEX
  0
ENDSEC
  0
EOF
