  0
SECTION
  2
HEADER
  9
$ACADVER
  1
AC1009
  9
$INSBASE
 10
0
 20
0
  9
$EXTMIN
 10
-143.3551670235829
 20
-82.50000000000001
  9
$EXTMAX
 10
270.5
 20
147.2719959984311
  9
$LIMMIN
 10
-143.3551670235829
 20
-82.50000000000001
  9
$LIMMAX
 10
270.5
 20
147.2719959984311
  9
$VIEWCTR
 10
10
 20
10
  9
$VIEWSIZE
 40
10
  9
$SNAPMODE
 70
0
  9
$SNAPUNIT
 10
1
 20
1
  9
$SNAPBASE
 10
0
 20
0
  9
$SNAPANG
 50
0
  9
$SNAPSTYLE
 70
0
  9
$SNAPISOPAIR
 70
0
  9
$GRIDMODE
 70
0
  9
$GRIDUNIT
 10
0
 20
0
  9
$ORTHOMODE
 70
0
  9
$REGENMODE
 70
1
  9
$FILLMODE
 70
1
  9
$QTEXTMODE
 70
0
  9
$DRAGMODE
 70
2
  9
$LTSCALE
 40
1
  9
$OSMODE
 70
0
  9
$ATTMODE
 70
1
  9
$TEXTSIZE
 40
3.5
  9
$TRACEWID
 40
0.5
  9
$TEXTSTYLE
  7
STANDARD
  9
$CLAYER
  8
0
  9
$CELTYPE
  6
BYLAYER
  9
$CECOLOR
 62
256
  9
$DIMSCALE
 40
1
  9
$DIMASZ
 40
0.18
  9
$DIMEXO
 40
0.0625
  9
$DIMDLI
 40
0.38
  9
$DIMRND
 40
0
  9
$DIMDLE
 40
0
  9
$DIMEXE
 40
0.18
  9
$DIMTP
 40
0
  9
$DIMTM
 40
0
  9
$DIMTXT
 40
0.18
  9
$DIMCEN
 40
0.09
  9
$DIMTSZ
 40
0
  9
$DIMTOL
 70
0
  9
$DIMLIM
 70
0
  9
$DIMTIH
 70
1
  9
$DIMTOH
 70
1
  9
$DIMSE1
 70
0
  9
$DIMSE2
 70
0
  9
$DIMTAD
 70
0
  9
$DIMZIN
 70
0
  9
$DIMBLK
  1

  9
$DIMASO
 70
1
  9
$DIMSHO
 70
1
  9
$DIMPOST
  1

  9
$DIMAPOST
  1

  9
$DIMALT
 70
0
  9
$DIMALTD
 70
2
  9
$DIMALTF
 40
25.4
  9
$DIMLFAC
 40
1
  9
$DIMTOFL
 70
0
  9
$DIMTVP
 40
0
  9
$DIMTIX
 70
0
  9
$DIMSOXD
 70
0
  9
$DIMSAH
 70
0
  9
$DIMBLK1
  1

  9
$DIMBLK2
  1

  9
$DIMSTYLE
  2
*UNNAMED
  9
$DIMCLRD
 70
0
  9
$DIMCLRE
 70
0
  9
$DIMCLRT
 70
0
  9
$DIMTFAC
 40
1
  9
$DIMGAP
 40
0.09
  9
$LUNITS
 70
2
  9
$LUPREC
 70
4
  9
$AXISMODE
 70
0
  9
$AXISUNIT
 10
0
 20
0
  9
$SKETCHINC
 40
0.1
  9
$FILLETRAD
 40
2
  9
$AUNITS
 70
0
  9
$AUPREC
 70
0
  9
$MENU
  1
ACAD
  9
$ELEVATION
 40
0
  9
$THICKNESS
 40
0
  9
$VIEWDIR
 10
0
 20
0
 30
1
  9
$LIMCHECK
 70
0
  9
$BLIPMODE
 70
1
  9
$CHAMFERA
 40
0
  9
$CHAMFERB
 40
0
  9
$FASTZOOM
 70
1
  9
$SKPOLY
 70
0
  9
$ANGBASE
 50
0
  9
$ANGDIR
 70
0
  9
$PDMODE
 70
0
  9
$PDSIZE
 40
0
  9
$PLINEWID
 40
0
  9
$COORDS
 70
2
  0
ENDSEC
  0
SECTION
  2
TABLES
  0
TABLE
  2
DIMSTYLE
 70
0
  0
ENDTAB
  0
TABLE
  2
LTYPE
 70
9
  0
LTYPE
  2
CONTINUOUS
 70
64
  3
Solid line
 72
65
 73
0
 40
0
  0
LTYPE
  2
BORDER
 70
64
  3
__ __ . __ __ .
 72
65
 73
6
 40
19.0591195339808
 49
5.445462723994512
 49
-2.722731361997256
 49
5.445462723994512
 49
-2.722731361997256
 49
0
 49
-2.722731361997256
  0
LTYPE
  2
CENTER
 70
64
  3
____ _ ____ _
 72
65
 73
4
 40
21.78185089597805
 49
13.61365680998628
 49
-2.722731361997256
 49
2.722731361997256
 49
-2.722731361997256
  0
LTYPE
  2
DASHDOT
 70
64
  3
__ . __ . __ .
 72
65
 73
4
 40
10.89092544798903
 49
5.445462723994512
 49
-2.722731361997256
 49
0
 49
-2.722731361997256
  0
LTYPE
  2
DASHED
 70
64
  3
__ __ __ __ __
 72
65
 73
2
 40
8.168194085991768
 49
5.445462723994512
 49
-2.722731361997256
  0
LTYPE
  2
DIVIDE
 70
64
  3
__ . . __ . . 
 72
65
 73
6
 40
13.61365680998628
 49
5.445462723994512
 49
-2.722731361997256
 49
0
 49
-2.722731361997256
 49
0
 49
-2.722731361997256
  0
LTYPE
  2
DOT
 70
64
  3
..............
 72
65
 73
4
 40
5.445462723994512
 49
0
 49
-2.722731361997256
 49
0
 49
-2.722731361997256
  0
LTYPE
  2
HIDDEN
 70
64
  3
_ _ _ _ _ _ _
 72
65
 73
2
 40
4.084097042995884
 49
2.722731361997256
 49
-1.361365680998628
  0
LTYPE
  2
PHANTOM
 70
64
  3
_____ _ _ _____ _ _ 
 72
65
 73
6
 40
27.22731361997256
 49
13.61365680998628
 49
-2.722731361997256
 49
2.722731361997256
 49
-2.722731361997256
 49
2.722731361997256
 49
-2.722731361997256
  0
ENDTAB
  0
TABLE
  2
LAYER
 70
3
  0
LAYER
  2
1
 70
0
 62
7
  6
CONTINUOUS
  0
LAYER
  2
0
 70
0
 62
7
  6
CONTINUOUS
  0
ENDTAB
  0
TABLE
  2
STYLE
 70
4
  0
STYLE
  2
STANDARD
 70
0
 40
0
 41
1
 50
0
 71
0
 42
3.5
  3
txt
  4

  0
STYLE
  2
SIMPLEX
 70
0
 40
0
 41
1
 50
0
 71
0
 42
3.5
  3
simplex
  4

  0
STYLE
  2
COMPLEX
 70
0
 40
0
 41
1
 50
0
 71
0
 42
3.5
  3
complex
  4

  0
STYLE
  2
ITALIC
 70
0
 40
0
 41
1
 50
0
 71
0
 42
3.5
  3
italic
  4

  0
ENDTAB
  0
TABLE
  2
VIEW
 70
0
  0
ENDTAB
  0
ENDSEC
  0
SECTION
  2
BLOCKS
  0
ENDSEC
  0
SECTION
  2
ENTITIES
  0
LINE
  8
1
 62
3
  6
DASHDOT
 10
-140.9008029479289
 20
-75
 30
0
 11
-136.4943867484769
 21
-75
 31
0
  0
LINE
  8
1
 62
3
  6
DASHDOT
 10
-139.9999999999999
 20
0
 30
0
 11
-143.3551670235829
 21
0
 31
0
  0
LINE
  8
1
 62
7
 10
-107.8999999999998
 20
-54
 30
0
 11
-104.9999999999998
 21
-54
 31
0
  0
LINE
  8
1
 62
7
 10
-107.8999999999998
 20
-41
 30
0
 11
-104.9999999999998
 21
-41
 31
0
  0
LINE
  8
1
 62
7
 10
-108.8999999999998
 20
-66.53672573724259
 30
0
 11
-107.8999999999998
 21
-66.53672573724259
 31
0
  0
LINE
  8
1
 62
7
 10
-107.8999999999998
 20
-65.77328821041905
 30
0
 11
-107.8999999999998
 21
-66.53672573724259
 31
0
  0
LINE
  8
1
 62
7
 10
-108.6999999999998
 20
50.61729314364249
 30
0
 11
-107.8999999999998
 21
47.63165249758737
 31
0
  0
LINE
  8
1
 62
7
 10
-109.6999999999998
 20
50.48564064605512
 30
0
 11
-108.8999999999998
 21
47.5
 31
0
  0
LINE
  8
1
 62
7
 10
-108.6999999999998
 20
66.5
 30
0
 11
-108.6999999999998
 21
50.61729314364249
 31
0
  0
LINE
  8
1
 62
7
 10
-106.3999999999998
 20
55.5
 30
0
 11
-105.8999999999998
 21
56
 31
0
  0
LINE
  8
1
 62
7
 10
-106.3999999999998
 20
65.5
 30
0
 11
-105.8999999999998
 21
65
 31
0
  0
LINE
  8
1
 62
7
 10
-107.9999999999998
 20
65.5
 30
0
 11
-107.9999999999998
 21
55.5
 31
0
  0
LINE
  8
1
 62
7
 10
-109.6999999999998
 20
66.5
 30
0
 11
-108.6999999999998
 21
66.5
 31
0
  0
LINE
  8
1
 62
7
 10
-108.6999999999998
 20
65.5
 30
0
 11
-106.3999999999998
 21
65.5
 31
0
  0
LINE
  8
1
 62
7
 10
-108.6999999999998
 20
55.5
 30
0
 11
-106.3999999999998
 21
55.5
 31
0
  0
LINE
  8
1
 62
7
 10
-105.8999999999998
 20
65
 30
0
 11
-105.8999999999998
 21
56
 31
0
  0
LINE
  8
1
 62
7
 10
-109.6999999999998
 20
-68
 30
0
 11
-114.5999999999998
 21
-68
 31
0
  0
LINE
  8
1
 62
7
 10
-108.8999999999998
 20
47.5
 30
0
 11
-108.8999999999998
 21
-66.53672573724259
 31
0
  0
LINE
  8
1
 62
7
 10
-114.5999999999998
 20
68
 30
0
 11
-109.6999999999998
 21
68
 31
0
  0
LINE
  8
1
 62
7
 10
-114.5999999999998
 20
68
 30
0
 11
-114.5999999999998
 21
-68
 31
0
  0
LINE
  8
1
 62
7
 10
-129.1168448387831
 20
94.03376807458506
 30
0
 11
-129.1168448387831
 21
99.03376807458506
 31
0
  0
LINE
  8
1
 62
7
 10
-128.7091363816332
 20
94.03376807458506
 30
0
 11
-128.7091363816332
 21
99.03376807458506
 31
0
  0
LINE
  8
1
 62
7
 10
-127.822216826804
 20
99.03376807458506
 30
0
 11
-127.822216826804
 21
94.03376807458506
 31
0
  0
LINE
  8
1
 62
7
 10
-128.2299252839539
 20
99.03376807458506
 30
0
 11
-128.2299252839539
 21
94.03376807458506
 31
0
  0
LINE
  8
1
 62
7
 10
-129.7695308327936
 20
94.03376807458506
 30
0
 11
-127.1695308327936
 21
94.03376807458506
 31
0
  0
LINE
  8
1
 62
7
 10
-127.1695308327936
 20
94.03376807458506
 30
0
 11
-127.1695308327936
 21
67.5
 31
0
  0
LINE
  8
1
 62
7
 10
-129.7695308327936
 20
94.03376807458506
 30
0
 11
-129.7695308327936
 21
67.5
 31
0
  0
LINE
  8
1
 62
7
 10
-131.6999999999999
 20
-67.50000000000001
 30
0
 11
-114.7999999999998
 21
-67.50000000000001
 31
0
  0
LINE
  8
1
 62
7
 10
-114.7999999999998
 20
67.5
 30
0
 11
-114.7999999999998
 21
-67.50000000000001
 31
0
  0
LINE
  8
1
 62
7
 10
-114.7999999999998
 20
67.5
 30
0
 11
-131.6999999999999
 21
67.5
 31
0
  0
LINE
  8
1
 62
7
 10
-139.9999999999999
 20
62.5
 30
0
 11
-137.5999999999999
 21
62.50000000000006
 31
0
  0
LINE
  8
1
 62
7
 10
-139.9999999999999
 20
-82.50000000000001
 30
0
 11
-137.5999999999999
 21
-82.50000000000001
 31
0
  0
LINE
  8
1
 62
3
  6
DASHDOT
 10
0.1000000000000156
 20
0
 30
0
 11
-3.255167023582992
 21
0
 31
0
  0
LINE
  8
1
 62
7
 10
202.4855719724427
 20
94.03376807458503
 30
0
 11
202.4855719724427
 21
67.99999846935307
 31
0
  0
LINE
  8
1
 62
3
  6
DASHDOT
 10
251.9865229841029
 20
-49.48652298410292
 30
0
 11
259.1398506312495
 21
-56.63985063124952
 31
0
  0
LINE
  8
1
 62
3
  6
DASHDOT
 10
251.8316719806559
 20
49.33167198065584
 30
0
 11
259.1022731554814
 21
56.6022731554813
 31
0
  0
LINE
  8
1
 62
3
  6
DASHDOT
 10
145.5183393990672
 20
-56.98166060093288
 30
0
 11
153.4542085275845
 21
-49.04579147241554
 31
0
  0
LINE
  8
1
 62
3
  6
DASHDOT
 10
145.5183393990671
 20
56.98166060093283
 30
0
 11
153.4542085275845
 21
49.04579147241549
 31
0
  0
LINE
  8
1
 62
7
 10
31.20000000000002
 20
-58.28122618943675
 30
0
 11
32.20000000000002
 21
-58.28122618943675
 31
0
  0
LINE
  8
1
 62
7
 10
32.20000000000007
 20
-50.5
 30
0
 11
32.20000000000007
 21
-66.53672573724259
 31
0
  0
LINE
  8
1
 62
7
 10
32.20000000000007
 20
-54
 30
0
 11
35.10000000000005
 21
-54
 31
0
  0
LINE
  8
1
 62
7
 10
32.20000000000007
 20
-41
 30
0
 11
35.10000000000005
 21
-41
 31
0
  0
LINE
  8
1
 62
7
 10
30.40000000000006
 20
-53.5
 30
0
 11
30.40000000000006
 21
-68
 31
0
  0
LINE
  8
1
 62
7
 10
25.50000000000006
 20
-53.5
 30
0
 11
30.40000000000006
 21
-53.5
 31
0
  0
LINE
  8
1
 62
7
 10
25.50000000000006
 20
-41.5
 30
0
 11
31.20000000000007
 21
-41.5
 31
0
  0
LINE
  8
1
 62
7
 10
31.20000000000002
 20
-38.5
 30
0
 11
32.20000000000002
 21
-38.5
 31
0
  0
LINE
  8
1
 62
7
 10
31.20000000000007
 20
-66.53672573724259
 30
0
 11
32.20000000000007
 21
-66.53672573724259
 31
0
  0
LINE
  8
1
 62
7
 10
32.20000000000007
 20
47.63165249758737
 30
0
 11
32.20000000000007
 21
-44.5
 31
0
  0
LINE
  8
1
 62
7
 10
31.40000000000008
 20
50.61729314364249
 30
0
 11
32.20000000000007
 21
47.63165249758737
 31
0
  0
LINE
  8
1
 62
7
 10
30.40000000000006
 20
50.48564064605512
 30
0
 11
31.20000000000007
 21
47.5
 31
0
  0
LINE
  8
1
 62
7
 10
30.40000000000006
 20
54.5
 30
0
 11
31.40000000000008
 21
54.5
 31
0
  0
LINE
  8
1
 62
7
 10
33.70000000000009
 20
55.5
 30
0
 11
34.20000000000009
 21
56
 31
0
  0
LINE
  8
1
 62
7
 10
33.70000000000009
 20
65.5
 30
0
 11
34.20000000000009
 21
65
 31
0
  0
LINE
  8
1
 62
7
 10
32.10000000000007
 20
65.5
 30
0
 11
32.10000000000007
 21
55.5
 31
0
  0
LINE
  8
1
 62
7
 10
30.40000000000006
 20
66.5
 30
0
 11
31.40000000000008
 21
66.5
 31
0
  0
LINE
  8
1
 62
7
 10
31.40000000000008
 20
65.5
 30
0
 11
33.70000000000009
 21
65.5
 31
0
  0
LINE
  8
1
 62
7
 10
31.40000000000008
 20
55.5
 30
0
 11
33.70000000000009
 21
55.5
 31
0
  0
LINE
  8
1
 62
7
 10
34.20000000000009
 20
65
 30
0
 11
34.20000000000009
 21
56
 31
0
  0
LINE
  8
1
 62
7
 10
25.50000000000006
 20
68
 30
0
 11
25.50000000000009
 21
-68.00000000000001
 31
0
  0
LINE
  8
1
 62
7
 10
30.40000000000006
 20
-68
 30
0
 11
25.50000000000009
 21
-68.00000000000001
 31
0
  0
LINE
  8
1
 62
7
 10
31.20000000000007
 20
-33
 30
0
 11
25.50000000000006
 21
-33
 31
0
  0
LINE
  8
1
 62
7
 10
25.50000000000006
 20
33
 30
0
 11
31.20000000000007
 21
33
 31
0
  0
LINE
  8
1
 62
7
 10
31.20000000000007
 20
47.5
 30
0
 11
31.20000000000007
 21
-66.53672573724259
 31
0
  0
LINE
  8
1
 62
7
 10
30.40000000000006
 20
47.5
 30
0
 11
31.20000000000007
 21
47.5
 31
0
  0
LINE
  8
1
 62
7
 10
25.50000000000006
 20
68
 30
0
 11
30.40000000000006
 21
68
 31
0
  0
LINE
  8
1
 62
7
 10
205
 20
94.03376807458503
 30
0
 11
205
 21
67.95402857814977
 31
0
  0
LINE
  8
1
 62
7
 10
200
 20
94.03376807458503
 30
0
 11
200
 21
67.95402857814977
 31
0
  0
LINE
  8
1
 62
7
 10
140
 20
53.85164807134498
 30
0
 11
140
 21
26.79085664923758
 31
0
  0
LINE
  8
1
 62
7
 10
140
 20
-26.79085664923764
 30
0
 11
140
 21
-53.85164807134507
 31
0
  0
LINE
  8
1
 62
7
 10
265
 20
-26.79085664923767
 30
0
 11
265
 21
-53.85164807134507
 31
0
  0
LINE
  8
1
 62
7
 10
265
 20
53.85164807134501
 30
0
 11
265
 21
26.79085664923761
 31
0
  0
LINE
  8
1
 62
7
 10
230.7971453001743
 20
-62.50000000000003
 30
0
 11
256.351648071345
 21
-62.50000000000003
 31
0
  0
LINE
  8
1
 62
7
 10
148.648351928655
 20
-62.50000000000003
 30
0
 11
175.7091433507624
 21
-62.50000000000003
 31
0
  0
LINE
  8
1
 62
7
 10
229.2908566492377
 20
62.49999999999997
 30
0
 11
256.351648071345
 21
62.49999999999997
 31
0
  0
LINE
  8
1
 62
7
 10
148.648351928655
 20
62.49999999999997
 30
0
 11
175.000028860515
 21
62.49999999999997
 31
0
  0
LINE
  8
1
 62
7
 10
203.2014788642462
 20
99.03376807458503
 30
0
 11
203.2014788642462
 21
94.03376807458503
 31
0
  0
LINE
  8
1
 62
7
 10
203.7285573198249
 20
99.03376807458503
 30
0
 11
203.7285573198249
 21
94.03376807458503
 31
0
  0
LINE
  8
1
 62
7
 10
204.3610514665194
 20
99.03376807458503
 30
0
 11
204.3610514665194
 21
94.03376807458503
 31
0
  0
LINE
  8
1
 62
7
 10
200.6389485334807
 20
94.03376807458503
 30
0
 11
200.6389485334807
 21
99.03376807458503
 31
0
  0
LINE
  8
1
 62
7
 10
201.2714426801752
 20
94.03376807458503
 30
0
 11
201.2714426801752
 21
99.03376807458503
 31
0
  0
LINE
  8
1
 62
7
 10
201.7985211357539
 20
94.03376807458503
 30
0
 11
201.7985211357539
 21
99.03376807458503
 31
0
  0
LINE
  8
1
 62
7
 10
10.98315516121681
 20
94.03376807458506
 30
0
 11
10.98315516121681
 21
99.03376807458506
 31
0
  0
LINE
  8
1
 62
7
 10
11.39086361836665
 20
94.03376807458506
 30
0
 11
11.39086361836665
 21
99.03376807458506
 31
0
  0
LINE
  8
1
 62
7
 10
12.27778317319586
 20
99.03376807458506
 30
0
 11
12.27778317319586
 21
94.03376807458506
 31
0
  0
LINE
  8
1
 62
7
 10
11.87007471604602
 20
99.03376807458506
 30
0
 11
11.87007471604602
 21
94.03376807458506
 31
0
  0
LINE
  8
1
 62
7
 10
10.33046916720627
 20
94.03376807458506
 30
0
 11
12.93046916720628
 21
94.03376807458506
 31
0
  0
LINE
  8
1
 62
7
 10
12.93046916720628
 20
94.03376807458506
 30
0
 11
12.93046916720628
 21
67.5
 31
0
  0
LINE
  8
1
 62
7
 10
8.39999999999997
 20
-67.50000000000001
 30
0
 11
25.30000000000007
 21
-67.50000000000001
 31
0
  0
LINE
  8
1
 62
7
 10
8.39999999999997
 20
-33.5
 30
0
 11
25.30000000000007
 21
-33.5
 31
0
  0
LINE
  8
1
 62
7
 10
25.30000000000007
 20
67.5
 30
0
 11
25.30000000000007
 21
-67.50000000000001
 31
0
  0
LINE
  8
1
 62
7
 10
25.30000000000007
 20
33.5
 30
0
 11
8.39999999999997
 21
33.5
 31
0
  0
LINE
  8
1
 62
7
 10
25.30000000000007
 20
67.5
 30
0
 11
8.39999999999997
 21
67.5
 31
0
  0
LINE
  8
1
 62
7
 10
0.1000000000000156
 20
62.5
 30
0
 11
2.499999999999993
 21
62.50000000000006
 31
0
  0
LINE
  8
1
 62
7
 10
0.1000000000000156
 20
62.5
 30
0
 11
0.1000000000000156
 21
-82.50000000000001
 31
0
  0
LINE
  8
1
 62
7
 10
0.1000000000000156
 20
32.5
 30
0
 11
2.499999999999993
 21
32.5
 31
0
  0
LINE
  8
1
 62
7
 10
2.499999999999993
 20
-32.5
 30
0
 11
0.1000000000000156
 21
-32.5
 31
0
  0
LINE
  8
1
 62
7
 10
0.1000000000000156
 20
-78.25000000000001
 30
0
 11
2.500000000000107
 21
-78.25
 31
0
  0
LINE
  8
1
 62
3
  6
DASHDOT
 10
-1.163097449525715
 20
-75.00000000000001
 30
0
 11
4.22574637938839
 21
-75
 31
0
  0
LINE
  8
1
 62
7
 10
0.1000000000000156
 20
-71.75000000000001
 30
0
 11
2.499999999999993
 21
-71.75000000000001
 31
0
  0
LINE
  8
1
 62
7
 10
0.1000000000000156
 20
-82.50000000000001
 30
0
 11
2.499999999999993
 21
-82.50000000000001
 31
0
  0
LINE
  8
1
 62
7
 10
205
 20
94.03376807458503
 30
0
 11
200
 21
94.03376807458503
 31
0
  0
LINE
  8
1
 62
7
 10
2.499999999999993
 20
64.26696164036753
 30
0
 11
2.499999999999993
 21
-82.50000000000001
 31
0
  0
LINE
  8
1
 62
7
 10
30.40000000000006
 20
47.5
 30
0
 11
30.40000000000006
 21
68
 31
0
  0
LINE
  8
1
 62
7
 10
31.40000000000008
 20
66.5
 30
0
 11
31.40000000000008
 21
50.61729314364249
 31
0
  0
LINE
  8
1
 62
7
 10
10.33046916720627
 20
94.03376807458506
 30
0
 11
10.33046916720627
 21
67.5
 31
0
  0
LINE
  8
1
 62
7
 10
-137.5999999999999
 20
64.26696164036753
 30
0
 11
-137.5999999999999
 21
-82.50000000000001
 31
0
  0
LINE
  8
1
 62
7
 10
-139.9999999999999
 20
-82.50000000000001
 30
0
 11
-139.9999999999999
 21
62.5
 31
0
  0
LINE
  8
1
 62
7
 10
-107.8999999999998
 20
-65.77328821041905
 30
0
 11
-107.8999999999998
 21
47.63165249758737
 31
0
  0
LINE
  8
1
 62
7
 10
-109.6999999999998
 20
-68
 30
0
 11
-109.6999999999998
 21
68
 31
0
  0
LINE
  8
1
 62
7
 10
-108.8999999999998
 20
47.5
 30
0
 11
-109.6999999999998
 21
47.5
 31
0
  0
LINE
  8
1
 62
7
 10
-104.9999999999998
 20
55.99999999999999
 30
0
 11
-104.9999999999998
 21
-56.00000000000001
 31
0
  0
LINE
  8
1
 62
7
 10
65.10000000000007
 20
12.49999999999998
 30
0
 11
35.10000000000007
 21
12.49999999999998
 31
0
  0
LINE
  8
1
 62
7
 10
28.60000000000009
 20
-52.50000000000001
 30
0
 11
31.20000000000007
 21
-52.50000000000001
 31
0
  0
LINE
  8
1
 62
7
 10
28.60000000000009
 20
-42.50000000000001
 30
0
 11
31.20000000000007
 21
-42.50000000000001
 31
0
  0
LINE
  8
1
 62
7
 10
35.10000000000005
 20
-56.00000000000001
 30
0
 11
35.10000000000005
 21
-50.50000000000001
 31
0
  0
LINE
  8
1
 62
3
  6
DASHDOT
 10
202.5
 20
6.356310758464854
 30
0
 11
202.5
 21
-6.356310758464891
 31
0
  0
LINE
  8
1
 62
3
  6
DASHDOT
 10
208.8563107584649
 20
-1.77635683940025e-014
 30
0
 11
196.1436892415351
 21
-1.77635683940025e-014
 31
0
  0
LINE
  8
1
 62
7
 10
199
 20
11.99999999999999
 30
0
 11
199
 21
15.49999999999999
 31
0
  0
LINE
  8
1
 62
7
 10
206
 20
15.49999999999999
 30
0
 11
206
 21
11.99999999999999
 31
0
  0
LINE
  8
1
 62
3
  6
DASHED
 10
205.5
 20
15.49999999999998
 30
0
 11
205.5
 21
24.74614193887529
 31
0
  0
LINE
  8
1
 62
3
  6
DASHED
 10
199.5
 20
15.49999999999998
 30
0
 11
199.5
 21
24.74614193887529
 31
0
  0
LINE
  8
1
 62
3
  6
DASHED
 10
204.9
 20
15.49999999999998
 30
0
 11
204.9
 21
24.74614193887529
 31
0
  0
LINE
  8
1
 62
3
  6
DASHED
 10
200.1
 20
15.49999999999998
 30
0
 11
200.1
 21
24.74614193887529
 31
0
  0
LINE
  8
1
 62
7
 10
199
 20
15.49999999999999
 30
0
 11
206
 21
15.49999999999999
 31
0
  0
LINE
  8
1
 62
3
  6
DASHED
 10
214.6905729480359
 20
-3.000000000000021
 30
0
 11
227.2293511618872
 21
-3.000000000000021
 31
0
  0
LINE
  8
1
 62
3
  6
DASHED
 10
214.6905729480359
 20
2.999999999999982
 30
0
 11
227.2293511618872
 21
2.999999999999981
 31
0
  0
LINE
  8
1
 62
3
  6
DASHED
 10
214.6905729480359
 20
-2.40000000000002
 30
0
 11
227.2293511618872
 21
-2.40000000000002
 31
0
  0
LINE
  8
1
 62
3
  6
DASHED
 10
214.6905729480359
 20
2.399999999999983
 30
0
 11
227.2293511618872
 21
2.399999999999982
 31
0
  0
LINE
  8
1
 62
7
 10
35.10000000000006
 20
55.99999999999997
 30
0
 11
41.10000000000006
 21
55.99999999999997
 31
0
  0
LINE
  8
1
 62
7
 10
35.10000000000006
 20
-44.50000000000001
 30
0
 11
35.10000000000006
 21
55.99999999999997
 31
0
  0
LINE
  8
1
 62
7
 10
41.10000000000006
 20
25.99999999999998
 30
0
 11
41.10000000000006
 21
55.99999999999997
 31
0
  0
LINE
  8
1
 62
7
 10
41.10000000000006
 20
-26.00000000000001
 30
0
 11
41.10000000000006
 21
-56.00000000000001
 31
0
  0
LINE
  8
1
 62
7
 10
42.10000000000006
 20
-25.00000000000001
 30
0
 11
65.10000000000001
 21
-25.00000000000001
 31
0
  0
LINE
  8
1
 62
7
 10
41.10000000000006
 20
-56.00000000000001
 30
0
 11
35.10000000000005
 21
-56.00000000000001
 31
0
  0
LINE
  8
1
 62
7
 10
65.10000000000001
 20
-25.00000000000001
 30
0
 11
65.09999999999999
 21
24.99999999999998
 31
0
  0
LINE
  8
1
 62
7
 10
35.10000000000006
 20
-12.50000000000002
 30
0
 11
65.10000000000007
 21
-12.50000000000002
 31
0
  0
LINE
  8
1
 62
7
 10
31.20000000000007
 20
-44.50000000000001
 30
0
 11
39.10000000000006
 21
-44.50000000000001
 31
0
  0
LINE
  8
1
 62
7
 10
39.10000000000006
 20
-44.50000000000001
 30
0
 11
41.10000000000006
 21
-42.50000000000001
 31
0
  0
LINE
  8
1
 62
7
 10
39.10000000000006
 20
-44.50000000000001
 30
0
 11
39.10000000000006
 21
-50.50000000000003
 31
0
  0
LINE
  8
1
 62
7
 10
41.10000000000006
 20
-52.50000000000003
 30
0
 11
39.10000000000006
 21
-50.50000000000003
 31
0
  0
LINE
  8
1
 62
7
 10
28.30000000000008
 20
-52.20000000000002
 30
0
 11
28.30000000000008
 21
-42.80000000000001
 31
0
  0
LINE
  8
1
 62
7
 10
28.60000000000009
 20
-52.50000000000001
 30
0
 11
28.30000000000008
 21
-52.20000000000002
 31
0
  0
LINE
  8
1
 62
7
 10
28.30000000000008
 20
-42.80000000000001
 30
0
 11
28.60000000000009
 21
-42.50000000000001
 31
0
  0
LINE
  8
1
 62
3
 10
52.10000000000007
 20
24.99999999999998
 30
0
 11
52.10000000000007
 21
15.49999999999998
 31
0
  0
LINE
  8
1
 62
7
 10
65.09999999999999
 20
24.99999999999998
 30
0
 11
42.10000000000006
 21
24.99999999999998
 31
0
  0
LINE
  8
1
 62
3
 10
58.3
 20
24.99999999999998
 30
0
 11
58.3
 21
15.49999999999998
 31
0
  0
LINE
  8
1
 62
3
  6
DASHDOT
 10
55.1
 20
26.89999999999998
 30
0
 11
55.1
 21
13.59999999999998
 31
0
  0
LINE
  8
1
 62
7
 10
52.7
 20
24.99999999999998
 30
0
 11
52.7
 21
15.49999999999998
 31
0
  0
LINE
  8
1
 62
7
 10
57.50000000000001
 20
24.99999999999998
 30
0
 11
57.50000000000001
 21
15.49999999999998
 31
0
  0
LINE
  8
1
 62
7
 10
35.10000000000006
 20
15.49999999999998
 30
0
 11
65.10000000000001
 21
15.49999999999998
 31
0
  0
LINE
  8
1
 62
3
 10
35.10000000000006
 20
24.99999999999998
 30
0
 11
42.10000000000006
 21
24.99999999999998
 31
0
  0
LINE
  8
1
 62
3
 10
35.10000000000006
 20
30.99999999999998
 30
0
 11
41.10000000000006
 21
30.99999999999998
 31
0
  0
LINE
  8
1
 62
3
  6
DASHDOT
 10
33.90000000000005
 20
27.99999999999998
 30
0
 11
42.30000000000007
 21
27.99999999999998
 31
0
  0
LINE
  8
1
 62
7
 10
35.10000000000006
 20
25.59999999999998
 30
0
 11
41.18348486100889
 21
25.59999999999998
 31
0
  0
LINE
  8
1
 62
7
 10
35.10000000000006
 20
30.39999999999999
 30
0
 11
41.10000000000006
 21
30.39999999999998
 31
0
  0
LINE
  8
1
 62
7
 10
30.50000000000009
 20
-52.50000000000001
 30
0
 11
30.50000000000009
 21
-42.50000000000001
 31
0
  0
LINE
  8
1
 62
3
  6
DASHDOT
 10
212.7897394593795
 20
-1.77635683940025e-014
 30
0
 11
230.5
 21
-1.77635683940025e-014
 31
0
  0
LINE
  8
1
 62
3
  6
DASHDOT
 10
202.5
 20
13.10132681819096
 30
0
 11
202.5
 21
30.3376582342637
 31
0
  0
LINE
  8
1
 62
3
  6
DASHDOT
 10
59.54054382645673
 20
-1.77635683940025e-014
 30
0
 11
50.65945617354328
 21
-1.77635683940025e-014
 31
0
  0
LINE
  8
1
 62
3
  6
DASHDOT
 10
55.1
 20
4.440543826456711
 30
0
 11
55.1
 21
-4.44054382645675
 31
0
  0
LINE
  8
1
 62
7
 10
39.10000000000006
 20
-50.50000000000003
 30
0
 11
31.20000000000007
 21
-50.50000000000001
 31
0
  0
LINE
  8
1
 62
3
  6
DASHDOT
 10
65.10000000000001
 20
-1.77635683940025e-014
 30
0
 11
67.3463511317174
 21
-1.77635683940025e-014
 31
0
  0
LINE
  8
1
 62
7
 10
-104.9999999999998
 20
55.99999999999999
 30
0
 11
-98.9999999999998
 21
55.99999999999997
 31
0
  0
LINE
  8
1
 62
7
 10
-97.9999999999998
 20
-25.00000000000001
 30
0
 11
-75
 21
-25.00000000000001
 31
0
  0
LINE
  8
1
 62
7
 10
-98.9999999999998
 20
-56.00000000000001
 30
0
 11
-104.9999999999998
 21
-56.00000000000001
 31
0
  0
LINE
  8
1
 62
7
 10
-75
 20
24.99999999999998
 30
0
 11
-97.9999999999998
 21
24.99999999999998
 31
0
  0
LINE
  8
1
 62
7
 10
-98.9999999999998
 20
55.99999999999997
 30
0
 11
-98.9999999999998
 21
-56.00000000000001
 31
0
  0
LINE
  8
1
 62
7
 10
-75
 20
-25.00000000000001
 30
0
 11
-75
 21
24.99999999999998
 31
0
  0
LINE
  8
1
 62
3
  6
DASHDOT
 10
-75
 20
-1.77635683940025e-014
 30
0
 11
-72.75364886828263
 21
-1.77635683940025e-014
 31
0
  0
ARC
  8
1
 62
7
 10
254.8945369289585
 20
-30.25000000000003
 30
0
 40
4.99999999999994
 50
174.7899225525006
 51
125.2100774474988
  0
ARC
  8
1
 62
7
 10
150.1054630710415
 20
-30.25
 30
0
 40
4.999999999999963
 50
54.78992255250104
 51
5.210077447499098
  0
ARC
  8
1
 62
7
 10
202.5
 20
60.49999999999997
 30
0
 40
4.999999999999986
 50
294.7899225525006
 51
245.2100774474995
  0
ARC
  8
1
 62
3
  6
DASHDOT
 10
202.5
 20
-1.77635683940025e-014
 30
0
 40
75.00000000000004
 50
310.2802165747631
 51
319.3131317486746
  0
ARC
  8
1
 62
3
  6
DASHDOT
 10
202.5
 20
-1.77635683940025e-014
 30
0
 40
75.00000000000006
 50
39.43134464471154
 51
50.13788976541064
  0
ARC
  8
1
 62
3
  6
DASHDOT
 10
202.5
 20
-1.77635683940025e-014
 30
0
 40
74.99999999999996
 50
219.6332135999826
 51
230.1306447068699
  0
ARC
  8
1
 62
3
  6
DASHDOT
 10
202.5
 20
-1.77635683940025e-014
 30
0
 40
74.99999999999993
 50
129.6332135999826
 51
140.1306447068699
  0
ARC
  8
1
 62
7
 10
202.5
 20
-1.77635683940025e-014
 30
0
 40
82.5
 50
220.7490543774704
 51
229.2509456225297
  0
ARC
  8
1
 62
7
 10
202.5
 20
-1.77635683940025e-014
 30
0
 40
82.49999999999997
 50
310.7490543774704
 51
319.2509456225296
  0
ARC
  8
1
 62
7
 10
202.5
 20
-1.77635683940025e-014
 30
0
 40
82.49999999999999
 50
40.74905437747039
 51
49.25094562252964
  0
ARC
  8
1
 62
7
 10
202.5
 20
-1.77635683940025e-014
 30
0
 40
82.49999999999997
 50
130.7490543774704
 51
139.2509456225296
  0
ARC
  8
1
 62
7
 10
239.5
 20
-8.526512829121202e-014
 30
0
 40
30
 50
359.9999999999999
 51
55.61978746556417
  0
ARC
  8
1
 62
7
 10
269.616968793294
 20
38.74999999999992
 30
0
 40
19.21877381056327
 50
193.2832916861447
 51
226.7167083138556
  0
ARC
  8
1
 62
7
 10
202.5
 20
-1.77635683940025e-014
 30
0
 40
67.00000000000006
 50
300.0000000000001
 51
359.9999999999999
  0
ARC
  8
1
 62
7
 10
202.5
 20
-1.77635683940025e-014
 30
0
 40
66.99999999999996
 50
59.99999999999999
 51
119.9999999999999
  0
ARC
  8
1
 62
7
 10
221
 20
32.04293994002418
 30
0
 40
29.99999999999999
 50
4.380212534435557
 51
59.99999999999999
  0
ARC
  8
1
 62
7
 10
184
 20
-32.04293994002427
 30
0
 40
29.99999999999997
 50
240
 51
295.6197874655643
  0
ARC
  8
1
 62
7
 10
202.5
 20
-77.50000000000004
 30
0
 40
19.21877381056327
 50
73.28329168614471
 51
106.7167083138553
  0
ARC
  8
1
 62
7
 10
202.5
 20
-1.77635683940025e-014
 30
0
 40
67
 50
180.0000000000001
 51
240
  0
ARC
  8
1
 62
7
 10
221
 20
-32.04293994002427
 30
0
 40
29.99999999999998
 50
244.3802125344357
 51
300.0000000000002
  0
ARC
  8
1
 62
7
 10
165.5
 20
-5.684341886080802e-014
 30
0
 40
30
 50
124.3802125344356
 51
180.0000000000001
  0
ARC
  8
1
 62
7
 10
135.383031206706
 20
38.74999999999997
 30
0
 40
19.21877381056327
 50
313.2832916861447
 51
346.7167083138552
  0
ARC
  8
1
 62
7
 10
184
 20
32.04293994002421
 30
0
 40
30
 50
119.9999999999998
 51
175.6197874655645
  0
ARC
  8
1
 62
7
 10
-131.6999999999999
 20
-60.5
 30
0
 40
6.999999999999981
 50
212.556931837454
 51
270
  0
ARC
  8
1
 62
7
 10
-131.6999999999999
 20
60.5
 30
0
 40
7
 50
90
 51
147.4430681625453
  0
ARC
  8
1
 62
7
 10
8.39999999999997
 20
-40.5
 30
0
 40
7
 50
90
 51
147.443068162546
  0
ARC
  8
1
 62
7
 10
8.39999999999997
 20
-60.5
 30
0
 40
6.999999999999956
 50
212.5569318374541
 51
270
  0
ARC
  8
1
 62
7
 10
8.39999999999997
 20
60.5
 30
0
 40
7
 50
90
 51
147.4430681625452
  0
ARC
  8
1
 62
7
 10
8.39999999999997
 20
40.5
 30
0
 40
7.000000000000013
 50
212.5569318374548
 51
270
  0
ARC
  8
1
 62
7
 10
42.10000000000006
 20
25.99999999999998
 30
0
 40
1
 50
180
 51
270
  0
ARC
  8
1
 62
7
 10
42.10000000000007
 20
-26.00000000000001
 30
0
 40
1
 50
90
 51
180
  0
ARC
  8
1
 62
7
 10
-97.9999999999998
 20
25.99999999999998
 30
0
 40
1
 50
180
 51
270
  0
ARC
  8
1
 62
7
 10
-97.9999999999998
 20
-26.00000000000001
 30
0
 40
1
 50
90
 51
180
  0
ARC
  8
1
 62
7
 10
202.5
 20
-1.77635683940025e-014
 30
0
 40
12.50000000000001
 50
106.260204708312
 51
73.73979529168805
  0
CIRCLE
  8
1
 62
7
 10
255.5330085889911
 20
-53.0330085889911
 30
0
 40
3.249999999999886
  0
CIRCLE
  8
1
 62
7
 10
255.5330085889911
 20
53.03300858899104
 30
0
 40
3.249999999999886
  0
CIRCLE
  8
1
 62
7
 10
149.466991411009
 20
-53.0330085889911
 30
0
 40
3.25
  0
CIRCLE
  8
1
 62
7
 10
149.466991411009
 20
53.03300858899104
 30
0
 40
3.25
  0
CIRCLE
  8
1
 62
7
 10
202.5
 20
-1.77635683940025e-014
 30
0
 40
68
  0
CIRCLE
  8
1
 62
7
 10
202.5
 20
-1.77635683940025e-014
 30
0
 40
25
  0
CIRCLE
  8
1
 62
7
 10
202.5
 20
-1.77635683940025e-014
 30
0
 40
56
  0
CIRCLE
  8
1
 62
7
 10
243.6362066797609
 20
23.74999999999995
 30
0
 40
3
  0
CIRCLE
  8
1
 62
7
 10
243.6362066797609
 20
23.74999999999995
 30
0
 40
6
  0
CIRCLE
  8
1
 62
7
 10
161.3637933202392
 20
23.75000000000003
 30
0
 40
6
  0
CIRCLE
  8
1
 62
7
 10
202.4999999999999
 20
-47.50000000000003
 30
0
 40
6
  0
CIRCLE
  8
1
 62
7
 10
161.3637933202392
 20
23.75000000000003
 30
0
 40
3
  0
CIRCLE
  8
1
 62
7
 10
202.4999999999999
 20
-47.50000000000003
 30
0
 40
3
  0
CIRCLE
  8
1
 62
7
 10
182.7010101267767
 20
19.79898987322331
 30
0
 40
2.400000000000006
  0
CIRCLE
  8
1
 62
3
 10
182.7010101267767
 20
19.79898987322331
 30
0
 40
3
  0
CIRCLE
  8
1
 62
7
 10
222.2989898732233
 20
-19.79898987322335
 30
0
 40
2.400000000000119
  0
CIRCLE
  8
1
 62
3
 10
222.2989898732233
 20
-19.79898987322335
 30
0
 40
3
  0
CIRCLE
  8
1
 62
7
 10
55.1
 20
-1.77635683940025e-014
 30
0
 40
2.400000000000006
  0
CIRCLE
  8
1
 62
3
 10
55.1
 20
-1.77635683940025e-014
 30
0
 40
3
  0
TEXT
  8
1
 62
7
 10
-139.5397891288748
 20
132.3876204650971
 30
0
 40
5.5
  1
DC1704
 41
0.9
  7
SIMPLEX
  0
TEXT
  8
1
 62
7
 10
-138.6210390103558
 20
141.7719959984311
 30
0
 40
5.5
  1
TMB 5H
 41
0.9
  7
SIMPLEX
  0
ENDSEC
  0
EOF
