  0
SECTION
  2
HEADER
  9
$ACADVER
  1
AC1009
  9
$INSBASE
 10
0
 20
0
  9
$EXTMIN
 10
-170.3721209420194
 20
-137.734824746671
  9
$EXTMAX
 10
341.223588559878
 20
171.6186079455544
  9
$LIMMIN
 10
-170.3721209420194
 20
-137.734824746671
  9
$LIMMAX
 10
341.223588559878
 20
171.6186079455544
  9
$VIEWCTR
 10
10
 20
10
  9
$VIEWSIZE
 40
10
  9
$SNAPMODE
 70
0
  9
$SNAPUNIT
 10
1
 20
1
  9
$SNAPBASE
 10
0
 20
0
  9
$SNAPANG
 50
0
  9
$SNAPSTYLE
 70
0
  9
$SNAPISOPAIR
 70
0
  9
$GRIDMODE
 70
0
  9
$GRIDUNIT
 10
0
 20
0
  9
$ORTHOMODE
 70
0
  9
$REGENMODE
 70
1
  9
$FILLMODE
 70
1
  9
$QTEXTMODE
 70
0
  9
$DRAGMODE
 70
2
  9
$LTSCALE
 40
1
  9
$OSMODE
 70
0
  9
$ATTMODE
 70
1
  9
$TEXTSIZE
 40
3.5
  9
$TRACEWID
 40
0.5
  9
$TEXTSTYLE
  7
STANDARD
  9
$CLAYER
  8
0
  9
$CELTYPE
  6
BYLAYER
  9
$CECOLOR
 62
256
  9
$DIMSCALE
 40
1
  9
$DIMASZ
 40
0.18
  9
$DIMEXO
 40
0.0625
  9
$DIMDLI
 40
0.38
  9
$DIMRND
 40
0
  9
$DIMDLE
 40
0
  9
$DIMEXE
 40
0.18
  9
$DIMTP
 40
0
  9
$DIMTM
 40
0
  9
$DIMTXT
 40
0.18
  9
$DIMCEN
 40
0.09
  9
$DIMTSZ
 40
0
  9
$DIMTOL
 70
0
  9
$DIMLIM
 70
0
  9
$DIMTIH
 70
1
  9
$DIMTOH
 70
1
  9
$DIMSE1
 70
0
  9
$DIMSE2
 70
0
  9
$DIMTAD
 70
0
  9
$DIMZIN
 70
0
  9
$DIMBLK
  1

  9
$DIMASO
 70
1
  9
$DIMSHO
 70
1
  9
$DIMPOST
  1

  9
$DIMAPOST
  1

  9
$DIMALT
 70
0
  9
$DIMALTD
 70
2
  9
$DIMALTF
 40
25.4
  9
$DIMLFAC
 40
1
  9
$DIMTOFL
 70
0
  9
$DIMTVP
 40
0
  9
$DIMTIX
 70
0
  9
$DIMSOXD
 70
0
  9
$DIMSAH
 70
0
  9
$DIMBLK1
  1

  9
$DIMBLK2
  1

  9
$DIMSTYLE
  2
*UNNAMED
  9
$DIMCLRD
 70
0
  9
$DIMCLRE
 70
0
  9
$DIMCLRT
 70
0
  9
$DIMTFAC
 40
1
  9
$DIMGAP
 40
0.09
  9
$LUNITS
 70
2
  9
$LUPREC
 70
4
  9
$AXISMODE
 70
0
  9
$AXISUNIT
 10
0
 20
0
  9
$SKETCHINC
 40
0.1
  9
$FILLETRAD
 40
2
  9
$AUNITS
 70
0
  9
$AUPREC
 70
0
  9
$MENU
  1
ACAD
  9
$ELEVATION
 40
0
  9
$THICKNESS
 40
0
  9
$VIEWDIR
 10
0
 20
0
 30
1
  9
$LIMCHECK
 70
0
  9
$BLIPMODE
 70
1
  9
$CHAMFERA
 40
0
  9
$CHAMFERB
 40
0
  9
$FASTZOOM
 70
1
  9
$SKPOLY
 70
0
  9
$ANGBASE
 50
0
  9
$ANGDIR
 70
0
  9
$PDMODE
 70
0
  9
$PDSIZE
 40
0
  9
$PLINEWID
 40
0
  9
$COORDS
 70
2
  0
ENDSEC
  0
SECTION
  2
TABLES
  0
TABLE
  2
DIMSTYLE
 70
0
  0
ENDTAB
  0
TABLE
  2
LTYPE
 70
9
  0
LTYPE
  2
CONTINUOUS
 70
64
  3
Solid line
 72
65
 73
0
 40
0
  0
LTYPE
  2
BORDER
 70
64
  3
__ __ . __ __ .
 72
65
 73
6
 40
23.56032872706107
 49
6.731522493446019
 49
-3.36576124672301
 49
6.731522493446019
 49
-3.36576124672301
 49
0
 49
-3.36576124672301
  0
LTYPE
  2
CENTER
 70
64
  3
____ _ ____ _
 72
65
 73
4
 40
26.92608997378408
 49
16.82880623361505
 49
-3.36576124672301
 49
3.36576124672301
 49
-3.36576124672301
  0
LTYPE
  2
DASHDOT
 70
64
  3
__ . __ . __ .
 72
65
 73
4
 40
13.46304498689204
 49
6.731522493446019
 49
-3.36576124672301
 49
0
 49
-3.36576124672301
  0
LTYPE
  2
DASHED
 70
64
  3
__ __ __ __ __
 72
65
 73
2
 40
10.09728374016903
 49
6.731522493446019
 49
-3.36576124672301
  0
LTYPE
  2
DIVIDE
 70
64
  3
__ . . __ . . 
 72
65
 73
6
 40
16.82880623361505
 49
6.731522493446019
 49
-3.36576124672301
 49
0
 49
-3.36576124672301
 49
0
 49
-3.36576124672301
  0
LTYPE
  2
DOT
 70
64
  3
..............
 72
65
 73
4
 40
6.731522493446019
 49
0
 49
-3.36576124672301
 49
0
 49
-3.36576124672301
  0
LTYPE
  2
HIDDEN
 70
64
  3
_ _ _ _ _ _ _
 72
65
 73
2
 40
5.048641870084515
 49
3.36576124672301
 49
-1.682880623361505
  0
LTYPE
  2
PHANTOM
 70
64
  3
_____ _ _ _____ _ _ 
 72
65
 73
6
 40
33.6576124672301
 49
16.82880623361505
 49
-3.36576124672301
 49
3.36576124672301
 49
-3.36576124672301
 49
3.36576124672301
 49
-3.36576124672301
  0
ENDTAB
  0
TABLE
  2
LAYER
 70
3
  0
LAYER
  2
1
 70
0
 62
7
  6
CONTINUOUS
  0
LAYER
  2
0
 70
0
 62
7
  6
CONTINUOUS
  0
ENDTAB
  0
TABLE
  2
STYLE
 70
4
  0
STYLE
  2
STANDARD
 70
0
 40
0
 41
1
 50
0
 71
0
 42
3.5
  3
txt
  4

  0
STYLE
  2
SIMPLEX
 70
0
 40
0
 41
1
 50
0
 71
0
 42
3.5
  3
simplex
  4

  0
STYLE
  2
COMPLEX
 70
0
 40
0
 41
1
 50
0
 71
0
 42
3.5
  3
complex
  4

  0
STYLE
  2
ITALIC
 70
0
 40
0
 41
1
 50
0
 71
0
 42
3.5
  3
italic
  4

  0
ENDTAB
  0
TABLE
  2
VIEW
 70
0
  0
ENDTAB
  0
ENDSEC
  0
SECTION
  2
BLOCKS
  0
ENDSEC
  0
SECTION
  2
ENTITIES
  0
LINE
  8
1
 62
7
 10
46.22358855987805
 20
-103.7348247466709
 30
0
 11
46.22358855987804
 21
-96.73482474667085
 31
0
  0
LINE
  8
1
 62
7
 10
-123.776411440122
 20
27.42315825043409
 30
0
 11
-123.776411440122
 21
-116.7348247466708
 31
0
  0
LINE
  8
1
 62
7
 10
-123.776411440122
 20
-100.7348247466708
 30
0
 11
-119.776411440122
 21
-100.7348247466708
 31
0
  0
LINE
  8
1
 62
7
 10
-123.776411440122
 20
-84.73482474667085
 30
0
 11
-119.776411440122
 21
-84.73482474667085
 31
0
  0
LINE
  8
1
 62
7
 10
-124.976411440122
 20
-116.7348247466708
 30
0
 11
-123.776411440122
 21
-116.7348247466708
 31
0
  0
LINE
  8
1
 62
7
 10
-125.976411440122
 20
-117.7348247466708
 30
0
 11
-132.376411440122
 21
-117.7348247466708
 31
0
  0
LINE
  8
1
 62
7
 10
-120.976411440122
 20
49.26517525332912
 30
0
 11
-121.476411440122
 21
49.76517525332912
 31
0
  0
LINE
  8
1
 62
7
 10
-121.476411440122
 20
35.76517525332912
 30
0
 11
-120.976411440122
 21
36.26517525332912
 31
0
  0
LINE
  8
1
 62
7
 10
-123.776411440122
 20
49.76517525332912
 30
0
 11
-123.776411440122
 21
35.76517525332912
 31
0
  0
LINE
  8
1
 62
7
 10
-124.776411440122
 20
35.76517525332912
 30
0
 11
-121.476411440122
 21
35.76517525332912
 31
0
  0
LINE
  8
1
 62
7
 10
-120.976411440122
 20
36.26517525332912
 30
0
 11
-120.976411440122
 21
49.26517525332912
 31
0
  0
LINE
  8
1
 62
7
 10
-124.776411440122
 20
49.76517525332912
 30
0
 11
-121.476411440122
 21
49.76517525332912
 31
0
  0
LINE
  8
1
 62
7
 10
-125.976411440122
 20
30.99722606089802
 30
0
 11
-124.976411440122
 21
27.26517525332912
 31
0
  0
LINE
  8
1
 62
7
 10
-124.776411440122
 20
31.15520905800298
 30
0
 11
-123.776411440122
 21
27.42315825043409
 31
0
  0
LINE
  8
1
 62
7
 10
-125.976411440122
 20
51.26517525332912
 30
0
 11
-124.776411440122
 21
51.26517525332912
 31
0
  0
LINE
  8
1
 62
7
 10
-124.976411440122
 20
27.26517525332912
 30
0
 11
-124.976411440122
 21
-116.7348247466708
 31
0
  0
LINE
  8
1
 62
7
 10
-132.376411440122
 20
52.26517525332912
 30
0
 11
-125.976411440122
 21
52.26517525332912
 31
0
  0
LINE
  8
1
 62
7
 10
-132.376411440122
 20
52.26517525332912
 30
0
 11
-132.376411440122
 21
-117.7348247466708
 31
0
  0
LINE
  8
1
 62
3
  6
DASHDOT
 10
-166.191179051624
 20
-32.73482474667088
 30
0
 11
-159.776411440122
 21
-32.73482474667088
 31
0
  0
LINE
  8
1
 62
7
 10
-132.676411440122
 20
51.76517525332912
 30
0
 11
-132.676411440122
 21
-117.2348247466709
 31
0
  0
LINE
  8
1
 62
7
 10
-150.776411440122
 20
-117.2348247466709
 30
0
 11
-132.676411440122
 21
-117.2348247466709
 31
0
  0
LINE
  8
1
 62
7
 10
-132.676411440122
 20
51.76517525332912
 30
0
 11
-150.776411440122
 21
51.76517525332912
 31
0
  0
LINE
  8
1
 62
7
 10
-159.776411440122
 20
45.26517525332912
 30
0
 11
-157.0764114401221
 21
45.26517525332912
 31
0
  0
LINE
  8
1
 62
7
 10
-159.776411440122
 20
-137.734824746671
 30
0
 11
-157.0764114401221
 21
-137.734824746671
 31
0
  0
LINE
  8
1
 62
3
  6
DASHDOT
 10
-161.0867708485138
 20
-127.7348247466709
 30
0
 11
-154.9732247738207
 21
-127.7348247466709
 31
0
  0
LINE
  8
1
 62
7
 10
-148.0173745020414
 20
111.5998375427337
 30
0
 11
-148.0173745020414
 21
107.765175253329
 31
0
  0
LINE
  8
1
 62
7
 10
-146.8808364677291
 20
111.6426693880231
 30
0
 11
-146.8808364677291
 21
107.765175253329
 31
0
  0
LINE
  8
1
 62
7
 10
-148.6521132491242
 20
107.765175253329
 30
0
 11
-146.2521132491242
 21
107.765175253329
 31
0
  0
LINE
  8
1
 62
7
 10
-146.2521132491242
 20
107.765175253329
 30
0
 11
-146.2521132491242
 21
51.76517525332912
 31
0
  0
LINE
  8
1
 62
7
 10
-148.6521132491242
 20
107.765175253329
 30
0
 11
-148.6521132491242
 21
51.76517525332912
 31
0
  0
LINE
  8
1
 62
7
 10
17.34788675087582
 20
51.76517525332912
 30
0
 11
20.21598553516903
 21
51.76517525332912
 31
0
  0
LINE
  8
1
 62
7
 10
256.223588559878
 20
104.7116973360373
 30
0
 11
256.223588559878
 21
52.25745163589266
 31
0
  0
LINE
  8
1
 62
7
 10
254.5150128139885
 20
108.5772041815413
 30
0
 11
254.5150128139885
 21
104.7116973360373
 31
0
  0
LINE
  8
1
 62
7
 10
255.4294229064501
 20
108.5772041815413
 30
0
 11
255.4294229064501
 21
104.7116973360373
 31
0
  0
LINE
  8
1
 62
7
 10
257.1566419699886
 20
108.7296058636183
 30
0
 11
257.1566419699886
 21
104.7116973360373
 31
0
  0
LINE
  8
1
 62
7
 10
257.9694509410655
 20
108.7804064243106
 30
0
 11
257.9694509410655
 21
104.7116973360373
 31
0
  0
LINE
  8
1
 62
7
 10
41.02358855987805
 20
-82.23482474667085
 30
0
 11
42.22358855987804
 21
-82.23482474667085
 31
0
  0
LINE
  8
1
 62
7
 10
42.22358855987804
 20
-96.73482474667082
 30
0
 11
42.22358855987804
 21
-116.7348247466708
 31
0
  0
LINE
  8
1
 62
7
 10
41.02358855987805
 20
-106.0646413160714
 30
0
 11
42.22358855987804
 21
-106.0646413160714
 31
0
  0
LINE
  8
1
 62
7
 10
41.02358855987805
 20
27.26517525332912
 30
0
 11
41.02358855987805
 21
-116.7348247466708
 31
0
  0
LINE
  8
1
 62
7
 10
33.62358855987803
 20
-85.23482474667085
 30
0
 11
41.02358855987805
 21
-85.23482474667085
 31
0
  0
LINE
  8
1
 62
7
 10
33.62358855987803
 20
-100.2348247466708
 30
0
 11
40.02358855987805
 21
-100.2348247466708
 31
0
  0
LINE
  8
1
 62
7
 10
33.62358855987803
 20
-117.7348247466708
 30
0
 11
33.62358855987803
 21
52.26517525332912
 31
0
  0
LINE
  8
1
 62
7
 10
42.22358855987804
 20
-100.7348247466708
 30
0
 11
46.22358855987804
 21
-100.7348247466708
 31
0
  0
LINE
  8
1
 62
7
 10
42.22358855987804
 20
-84.73482474667085
 30
0
 11
46.22358855987804
 21
-84.73482474667085
 31
0
  0
LINE
  8
1
 62
7
 10
41.02358855987805
 20
-116.7348247466708
 30
0
 11
42.22358855987804
 21
-116.7348247466708
 31
0
  0
LINE
  8
1
 62
7
 10
41.02358855987805
 20
-74.23482474667085
 30
0
 11
33.62358855987803
 21
-74.23482474667085
 31
0
  0
LINE
  8
1
 62
7
 10
40.02358855987805
 20
-117.7348247466708
 30
0
 11
33.62358855987803
 21
-117.7348247466708
 31
0
  0
LINE
  8
1
 62
7
 10
40.02358855987805
 20
34.26517525332912
 30
0
 11
41.22358855987804
 21
34.26517525332912
 31
0
  0
LINE
  8
1
 62
7
 10
45.02358855987805
 20
49.26517525332912
 30
0
 11
44.52358855987805
 21
49.76517525332912
 31
0
  0
LINE
  8
1
 62
7
 10
44.52358855987805
 20
35.76517525332912
 30
0
 11
45.02358855987805
 21
36.26517525332912
 31
0
  0
LINE
  8
1
 62
7
 10
42.22358855987804
 20
49.76517525332912
 30
0
 11
42.22358855987804
 21
35.76517525332912
 31
0
  0
LINE
  8
1
 62
7
 10
41.22358855987804
 20
35.76517525332912
 30
0
 11
44.52358855987805
 21
35.76517525332912
 31
0
  0
LINE
  8
1
 62
7
 10
45.02358855987805
 20
36.26517525332912
 30
0
 11
45.02358855987805
 21
49.26517525332912
 31
0
  0
LINE
  8
1
 62
7
 10
41.22358855987804
 20
49.76517525332912
 30
0
 11
44.52358855987805
 21
49.76517525332912
 31
0
  0
LINE
  8
1
 62
7
 10
40.02358855987805
 20
30.99722606089802
 30
0
 11
41.02358855987805
 21
27.26517525332912
 31
0
  0
LINE
  8
1
 62
7
 10
42.22358855987804
 20
27.42315825043409
 30
0
 11
42.22358855987804
 21
-88.73482474667082
 31
0
  0
LINE
  8
1
 62
7
 10
41.22358855987804
 20
31.15520905800298
 30
0
 11
42.22358855987804
 21
27.42315825043409
 31
0
  0
LINE
  8
1
 62
7
 10
40.02358855987805
 20
51.26517525332912
 30
0
 11
41.22358855987804
 21
51.26517525332912
 31
0
  0
LINE
  8
1
 62
7
 10
40.02358855987805
 20
27.26517525332912
 30
0
 11
41.02358855987805
 21
27.26517525332912
 31
0
  0
LINE
  8
1
 62
7
 10
33.62358855987803
 20
52.26517525332912
 30
0
 11
40.02358855987805
 21
52.26517525332912
 31
0
  0
LINE
  8
1
 62
7
 10
33.62358855987803
 20
8.765175253329119
 30
0
 11
41.02358855987805
 21
8.765175253329119
 31
0
  0
LINE
  8
1
 62
3
  6
DASHDOT
 10
-0.191179051623962
 20
-32.73482474667088
 30
0
 11
6.223588559878024
 21
-32.73482474667088
 31
0
  0
LINE
  8
1
 62
7
 10
253.723588559878
 20
104.7116973360373
 30
0
 11
253.723588559878
 21
52.22840259316132
 31
0
  0
LINE
  8
1
 62
7
 10
258.723588559878
 20
104.7116973360373
 30
0
 11
258.723588559878
 21
52.22840259316132
 31
0
  0
LINE
  8
1
 62
7
 10
178.223588559878
 20
37.55742233648908
 30
0
 11
178.223588559878
 21
1.04386676143821
 31
0
  0
LINE
  8
1
 62
7
 10
178.223588559878
 20
-66.51351625477992
 30
0
 11
178.223588559878
 21
-103.0270718298307
 31
0
  0
LINE
  8
1
 62
7
 10
185.9313414767181
 20
-110.7348247466709
 30
0
 11
222.444897051769
 21
-110.7348247466709
 31
0
  0
LINE
  8
1
 62
7
 10
290.002280067987
 20
-110.7348247466709
 30
0
 11
326.5158356430379
 21
-110.7348247466709
 31
0
  0
LINE
  8
1
 62
7
 10
334.223588559878
 20
-66.51351625477992
 30
0
 11
334.223588559878
 21
-103.0270718298307
 31
0
  0
LINE
  8
1
 62
7
 10
334.223588559878
 20
37.55742233648903
 30
0
 11
334.223588559878
 21
2.296406638868177
 31
0
  0
LINE
  8
1
 62
7
 10
290.002280067987
 20
45.26517525332912
 30
0
 11
326.5158356430379
 21
45.26517525332912
 31
0
  0
LINE
  8
1
 62
7
 10
185.9313414767181
 20
45.26517525332912
 30
0
 11
222.444897051769
 21
45.26517525332912
 31
0
  0
LINE
  8
1
 62
3
  6
DASHDOT
 10
183.1172433504223
 20
40.37152046278476
 30
0
 11
194.6866945796548
 21
28.80206923355235
 31
0
  0
LINE
  8
1
 62
3
  6
DASHDOT
 10
183.1172433504223
 20
-105.8411699561265
 30
0
 11
194.6866945796548
 21
-94.27171872689402
 31
0
  0
LINE
  8
1
 62
3
  6
DASHDOT
 10
329.3299337693337
 20
-105.8411699561265
 30
0
 11
317.7604825401012
 21
-94.27171872689405
 31
0
  0
LINE
  8
1
 62
3
  6
DASHDOT
 10
329.3299337693337
 20
40.37152046278476
 30
0
 11
317.7604825401012
 21
28.80206923355235
 31
0
  0
LINE
  8
1
 62
7
 10
17.34788675087582
 20
51.76517525332912
 30
0
 11
15.22358855987802
 21
51.76517525332912
 31
0
  0
LINE
  8
1
 62
7
 10
33.32358855987802
 20
51.76517525332912
 30
0
 11
33.32358855987802
 21
-117.2348247466709
 31
0
  0
LINE
  8
1
 62
7
 10
15.22358855987802
 20
-74.73482474667088
 30
0
 11
33.32358855987802
 21
-74.73482474667088
 31
0
  0
LINE
  8
1
 62
7
 10
15.22358855987802
 20
-117.2348247466709
 30
0
 11
33.32358855987802
 21
-117.2348247466709
 31
0
  0
LINE
  8
1
 62
7
 10
33.32358855987802
 20
51.76517525332912
 30
0
 11
19.74788675087582
 21
51.76517525332912
 31
0
  0
LINE
  8
1
 62
7
 10
33.32358855987802
 20
9.265175253329119
 30
0
 11
15.22358855987802
 21
9.265175253329119
 31
0
  0
LINE
  8
1
 62
7
 10
6.223588559878024
 20
45.26517525332912
 30
0
 11
8.923588559877928
 21
45.26517525332912
 31
0
  0
LINE
  8
1
 62
7
 10
6.223588559878024
 20
-137.734824746671
 30
0
 11
8.923588559877928
 21
-137.734824746671
 31
0
  0
LINE
  8
1
 62
7
 10
6.223588559878024
 20
-131.9848247466709
 30
0
 11
8.923588559877928
 21
-131.9848247466709
 31
0
  0
LINE
  8
1
 62
3
  6
DASHDOT
 10
4.91322915148622
 20
-127.7348247466709
 30
0
 11
11.02677522617934
 21
-127.7348247466709
 31
0
  0
LINE
  8
1
 62
7
 10
6.223588559878024
 20
-123.4848247466709
 30
0
 11
8.923588559877928
 21
-123.4848247466709
 31
0
  0
LINE
  8
1
 62
7
 10
6.223588559878024
 20
45.26517525332912
 30
0
 11
6.223588559878024
 21
-137.734824746671
 31
0
  0
LINE
  8
1
 62
7
 10
17.98262549795864
 20
111.5998375427337
 30
0
 11
17.98262549795864
 21
107.765175253329
 31
0
  0
LINE
  8
1
 62
7
 10
19.11916353227092
 20
111.6426693880231
 30
0
 11
19.11916353227092
 21
107.765175253329
 31
0
  0
LINE
  8
1
 62
7
 10
17.34788675087582
 20
107.765175253329
 30
0
 11
19.74788675087582
 21
107.765175253329
 31
0
  0
LINE
  8
1
 62
7
 10
8.923588559877928
 20
-137.734824746671
 30
0
 11
8.923588559877928
 21
48.69569246757754
 31
0
  0
LINE
  8
1
 62
7
 10
6.223588559878024
 20
7.265175253329119
 30
0
 11
8.923588559877928
 21
7.265175253329119
 31
0
  0
LINE
  8
1
 62
7
 10
6.223588559878024
 20
-72.73482474667088
 30
0
 11
8.923588559877928
 21
-72.73482474667088
 31
0
  0
LINE
  8
1
 62
7
 10
258.723588559878
 20
104.7116973360373
 30
0
 11
253.723588559878
 21
104.7116973360373
 31
0
  0
LINE
  8
1
 62
7
 10
40.02358855987805
 20
-117.7348247466708
 30
0
 11
40.02358855987805
 21
-100.2348247466708
 31
0
  0
LINE
  8
1
 62
7
 10
41.22358855987804
 20
51.26517525332912
 30
0
 11
41.22358855987804
 21
31.15520905800298
 31
0
  0
LINE
  8
1
 62
7
 10
40.02358855987805
 20
52.26517525332912
 30
0
 11
40.02358855987805
 21
27.26517525332912
 31
0
  0
LINE
  8
1
 62
7
 10
19.74788675087582
 20
107.765175253329
 30
0
 11
19.74788675087582
 21
51.76517525332912
 31
0
  0
LINE
  8
1
 62
7
 10
17.34788675087582
 20
107.765175253329
 30
0
 11
17.34788675087582
 21
51.76517525332912
 31
0
  0
LINE
  8
1
 62
7
 10
18.54788675087582
 20
111.6426693880231
 30
0
 11
18.54788675087582
 21
107.765175253329
 31
0
  0
LINE
  8
1
 62
7
 10
-157.0764114401221
 20
-137.734824746671
 30
0
 11
-157.0764114401221
 21
48.69569246757754
 31
0
  0
LINE
  8
1
 62
7
 10
-159.776411440122
 20
45.26517525332912
 30
0
 11
-159.776411440122
 21
-137.734824746671
 31
0
  0
LINE
  8
1
 62
7
 10
-125.976411440122
 20
-117.7348247466708
 30
0
 11
-125.976411440122
 21
52.26517525332912
 31
0
  0
LINE
  8
1
 62
7
 10
-124.976411440122
 20
27.26517525332912
 30
0
 11
-125.976411440122
 21
27.26517525332912
 31
0
  0
LINE
  8
1
 62
7
 10
-124.776411440122
 20
51.26517525332912
 30
0
 11
-124.776411440122
 21
31.15520905800298
 31
0
  0
LINE
  8
1
 62
7
 10
-147.4521132491242
 20
111.6426693880231
 30
0
 11
-147.4521132491242
 21
107.765175253329
 31
0
  0
LINE
  8
1
 62
7
 10
86.22358855987802
 20
-17.73482474667097
 30
0
 11
46.22358855987804
 21
-17.73482474667097
 31
0
  0
LINE
  8
1
 62
3
  6
DASHDOT
 10
-79.77641144012198
 20
-32.73482474667087
 30
0
 11
-75.70578297501417
 21
-32.7348247466709
 31
0
  0
LINE
  8
1
 62
7
 10
-112.776411440122
 20
-103.7348247466709
 30
0
 11
-119.776411440122
 21
-103.7348247466709
 31
0
  0
LINE
  8
1
 62
7
 10
-111.776411440122
 20
-65.2348247466709
 30
0
 11
-79.77641144012198
 21
-65.2348247466709
 31
0
  0
LINE
  8
1
 62
7
 10
-79.77641144012198
 20
-65.2348247466709
 30
0
 11
-79.77641144012198
 21
-0.2348247466708955
 31
0
  0
LINE
  8
1
 62
7
 10
-79.77641144012198
 20
-0.2348247466708955
 30
0
 11
-111.776411440122
 21
-0.2348247466708955
 31
0
  0
LINE
  8
1
 62
7
 10
-112.776411440122
 20
38.2651752533291
 30
0
 11
-112.776411440122
 21
-103.7348247466709
 31
0
  0
LINE
  8
1
 62
7
 10
-119.776411440122
 20
38.2651752533291
 30
0
 11
-112.776411440122
 21
38.2651752533291
 31
0
  0
LINE
  8
1
 62
7
 10
-119.776411440122
 20
-103.7348247466709
 30
0
 11
-119.776411440122
 21
38.2651752533291
 31
0
  0
LINE
  8
1
 62
3
  6
DASHDOT
 10
86.22358855987802
 20
-32.73482474667087
 30
0
 11
90.29421702498581
 21
-32.7348247466709
 31
0
  0
LINE
  8
1
 62
3
  6
DASHDOT
 10
76.22358855987802
 20
-27.08821320738581
 30
0
 11
76.22358855987802
 21
-38.38143628595599
 31
0
  0
LINE
  8
1
 62
3
  6
DASHDOT
 10
81.87020009916311
 20
-32.7348247466709
 30
0
 11
70.57697702059294
 21
-32.7348247466709
 31
0
  0
LINE
  8
1
 62
3
  6
DASHDOT
 10
256.223588559878
 20
3.275772843132366
 30
0
 11
256.223588559878
 21
-20.98725257485567
 31
0
  0
LINE
  8
1
 62
3
  6
DASHDOT
 10
268.1286285767606
 20
-32.73482474667083
 30
0
 11
293.5831418500966
 21
-32.73482474667083
 31
0
  0
LINE
  8
1
 62
3
  6
DASHDOT
 10
256.223588559878
 20
-26.49750602345021
 30
0
 11
256.223588559878
 21
-38.97214346989144
 31
0
  0
LINE
  8
1
 62
3
  6
DASHDOT
 10
262.4609072830986
 20
-32.73482474667083
 30
0
 11
249.9862698366574
 21
-32.73482474667083
 31
0
  0
LINE
  8
1
 62
7
 10
79.42358855987803
 20
-0.2348247466708955
 30
0
 11
79.42358855987803
 21
-14.73482474667083
 31
0
  0
LINE
  8
1
 62
7
 10
73.02358855987802
 20
-0.2348247466708955
 30
0
 11
73.02358855987802
 21
-14.73482474667083
 31
0
  0
LINE
  8
1
 62
3
  6
DASHDOT
 10
76.22358855987802
 20
2.665175253329089
 30
0
 11
76.22358855987802
 21
-17.63482474667081
 31
0
  0
LINE
  8
1
 62
3
 10
80.22358855987802
 20
-0.2348247466708955
 30
0
 11
80.22358855987802
 21
-14.73482474667083
 31
0
  0
LINE
  8
1
 62
3
 10
72.22358855987802
 20
-0.2348247466708955
 30
0
 11
72.22358855987802
 21
-14.73482474667083
 31
0
  0
LINE
  8
1
 62
7
 10
46.22358855987804
 20
6.66517525332911
 30
0
 11
53.22358855987803
 21
6.66517525332911
 31
0
  0
LINE
  8
1
 62
7
 10
46.22358855987804
 20
1.865175253329106
 30
0
 11
53.22358855987803
 21
1.865175253329106
 31
0
  0
LINE
  8
1
 62
3
  6
DASHDOT
 10
44.82358855987804
 20
4.265175253329105
 30
0
 11
54.62358855987804
 21
4.265175253329105
 31
0
  0
LINE
  8
1
 62
3
 10
46.22358855987804
 20
7.265175253329105
 30
0
 11
53.22358855987803
 21
7.265175253329105
 31
0
  0
LINE
  8
1
 62
3
 10
46.22358855987804
 20
1.265175253329105
 30
0
 11
53.22358855987803
 21
1.265175253329105
 31
0
  0
LINE
  8
1
 62
7
 10
46.22358855987804
 20
-47.73482474667083
 30
0
 11
86.22358855987802
 21
-47.73482474667083
 31
0
  0
LINE
  8
1
 62
7
 10
46.22358855987804
 20
-14.73482474667083
 30
0
 11
86.22358855987802
 21
-14.73482474667083
 31
0
  0
LINE
  8
1
 62
7
 10
259.723588559878
 20
-14.73482474667083
 30
0
 11
259.723588559878
 21
-18.148872600856
 31
0
  0
LINE
  8
1
 62
7
 10
252.723588559878
 20
-14.73482474667083
 30
0
 11
259.723588559878
 21
-14.73482474667083
 31
0
  0
LINE
  8
1
 62
7
 10
252.723588559878
 20
-18.148872600856
 30
0
 11
252.723588559878
 21
-14.73482474667083
 31
0
  0
LINE
  8
1
 62
7
 10
37.52358855987804
 20
-99.31907020822357
 30
0
 11
37.22358855987804
 21
-99.01907020822358
 31
0
  0
LINE
  8
1
 62
7
 10
37.22358855987804
 20
-86.45057928511827
 30
0
 11
37.52358855987804
 21
-86.15057928511828
 31
0
  0
LINE
  8
1
 62
7
 10
37.22358855987804
 20
-86.45057928511827
 30
0
 11
37.22358855987804
 21
-99.01907020822358
 31
0
  0
LINE
  8
1
 62
7
 10
37.52358855987804
 20
-99.31907020822357
 30
0
 11
41.02358855987804
 21
-99.31907020822357
 31
0
  0
LINE
  8
1
 62
7
 10
53.22358855987803
 20
-100.7348247466709
 30
0
 11
49.22358855987804
 21
-96.73482474667085
 31
0
  0
LINE
  8
1
 62
7
 10
49.22358855987804
 20
-88.73482474667088
 30
0
 11
49.22358855987804
 21
-96.73482474667085
 31
0
  0
LINE
  8
1
 62
7
 10
49.22358855987804
 20
-88.73482474667088
 30
0
 11
53.22358855987803
 21
-84.7348247466709
 31
0
  0
LINE
  8
1
 62
7
 10
53.22358855987802
 20
-103.7348247466709
 30
0
 11
46.22358855987805
 21
-103.7348247466709
 31
0
  0
LINE
  8
1
 62
7
 10
54.22358855987803
 20
-65.2348247466709
 30
0
 11
86.22358855987802
 21
-65.23482474667091
 31
0
  0
LINE
  8
1
 62
7
 10
53.22358855987802
 20
-103.7348247466709
 30
0
 11
53.22358855987803
 21
-66.2348247466709
 31
0
  0
LINE
  8
1
 62
7
 10
86.22358855987802
 20
-65.23482474667091
 30
0
 11
86.22358855987802
 21
-0.2348247466708955
 31
0
  0
LINE
  8
1
 62
7
 10
86.22358855987802
 20
-0.2348247466708955
 30
0
 11
54.22358855987803
 21
-0.2348247466708955
 31
0
  0
LINE
  8
1
 62
7
 10
53.22358855987803
 20
38.2651752533291
 30
0
 11
53.22358855987803
 21
0.7651752533291045
 31
0
  0
LINE
  8
1
 62
7
 10
46.22358855987804
 20
38.2651752533291
 30
0
 11
53.22358855987803
 21
38.2651752533291
 31
0
  0
LINE
  8
1
 62
7
 10
46.22358855987804
 20
-88.73482474667088
 30
0
 11
46.22358855987804
 21
38.2651752533291
 31
0
  0
LINE
  8
1
 62
7
 10
37.52358855987804
 20
-86.15057928511828
 30
0
 11
41.02358855987804
 21
-86.15057928511828
 31
0
  0
LINE
  8
1
 62
7
 10
49.22358855987804
 20
-96.73482474667085
 30
0
 11
41.02358855987804
 21
-96.73482474667085
 31
0
  0
LINE
  8
1
 62
7
 10
49.22358855987804
 20
-88.73482474667088
 30
0
 11
41.02358855987804
 21
-88.73482474667088
 31
0
  0
LINE
  8
1
 62
3
  6
DASHED
 10
252.223588559878
 20
-0.2348247466708244
 30
0
 11
252.223588559878
 21
-18.23482474667082
 31
0
  0
LINE
  8
1
 62
3
  6
DASHED
 10
260.223588559878
 20
-0.2348247466708244
 30
0
 11
260.223588559878
 21
-18.23482474667082
 31
0
  0
LINE
  8
1
 62
3
  6
DASHED
 10
253.023588559878
 20
-0.2348247466708244
 30
0
 11
253.023588559878
 21
-14.73482474667083
 31
0
  0
LINE
  8
1
 62
3
  6
DASHED
 10
259.423588559878
 20
-0.2348247466708244
 30
0
 11
259.423588559878
 21
-14.73482474667083
 31
0
  0
LINE
  8
1
 62
3
  6
DASHED
 10
271.223588559878
 20
-36.73482474667083
 30
0
 11
288.5167234339132
 21
-36.73482474667083
 31
0
  0
LINE
  8
1
 62
3
  6
DASHED
 10
271.223588559878
 20
-28.73482474667083
 30
0
 11
288.5167234339132
 21
-28.73482474667083
 31
0
  0
LINE
  8
1
 62
3
  6
DASHED
 10
271.223588559878
 20
-35.93482474667083
 30
0
 11
288.5167234339132
 21
-35.93482474667083
 31
0
  0
LINE
  8
1
 62
3
  6
DASHED
 10
271.223588559878
 20
-29.53482474667082
 30
0
 11
288.5167234339132
 21
-29.53482474667082
 31
0
  0
LINE
  8
1
 62
7
 10
40.02358855987804
 20
-86.15057928511828
 30
0
 11
40.02358855987804
 21
-99.31907020822357
 31
0
  0
ARC
  8
1
 62
7
 10
321.6085065456031
 20
-70.48482474667082
 30
0
 40
6.650000000000085
 50
195.5276359619234
 51
104.4723640380767
  0
ARC
  8
1
 62
7
 10
190.8386705741529
 20
-70.48482474667077
 30
0
 40
6.650000000000021
 50
75.52763596192328
 51
344.4723640380765
  0
ARC
  8
1
 62
7
 10
256.223588559878
 20
42.76517525332912
 30
0
 40
6.650000000000018
 50
315.5276359619234
 51
224.4723640380765
  0
ARC
  8
1
 62
7
 10
167.8889973738652
 20
18.26517525332918
 30
0
 40
28.67018343059946
 50
307.3001618313575
 51
352.6998381686425
  0
ARC
  8
1
 62
7
 10
232.723588559878
 20
7.968369231197755
 30
0
 40
37.00000000000003
 50
120
 51
169.6400632437805
  0
ARC
  8
1
 62
7
 10
256.223588559878
 20
-32.73482474667083
 30
0
 40
84
 50
180
 51
239.9999999999999
  0
ARC
  8
1
 62
7
 10
209.223588559878
 20
-32.73482474667088
 30
0
 40
37.00000000000001
 50
130.3599367562194
 51
180
  0
ARC
  8
1
 62
7
 10
279.723588559878
 20
-73.43801872453946
 30
0
 40
36.99999999999999
 50
250.3599367562195
 51
299.9999999999999
  0
ARC
  8
1
 62
7
 10
256.223588559878
 20
-32.73482474667083
 30
0
 40
84.00000000000003
 50
299.9999999999999
 51
359.9999999999998
  0
ARC
  8
1
 62
7
 10
232.7235885598779
 20
-73.43801872453946
 30
0
 40
36.99999999999996
 50
239.9999999999998
 51
289.6400632437806
  0
ARC
  8
1
 62
7
 10
256.2235885598779
 20
-134.7348247466708
 30
0
 40
28.67018343059939
 50
67.3001618313571
 51
112.6998381686425
  0
ARC
  8
1
 62
7
 10
279.723588559878
 20
7.968369231197755
 30
0
 40
37
 50
10.3599367562195
 51
60.00000000000007
  0
ARC
  8
1
 62
7
 10
256.223588559878
 20
-32.73482474667083
 30
0
 40
84.00000000000004
 50
60.00000000000002
 51
120
  0
ARC
  8
1
 62
7
 10
303.223588559878
 20
-32.73482474667088
 30
0
 40
37
 50
359.9999999999997
 51
49.64006324378062
  0
ARC
  8
1
 62
7
 10
344.5581797458908
 20
18.26517525332912
 30
0
 40
28.67018343059944
 50
187.3001618313573
 51
232.6998381686423
  0
ARC
  8
1
 62
7
 10
256.223588559878
 20
-32.73482474667083
 30
0
 40
105
 50
42.02462757937722
 51
47.97537242062275
  0
ARC
  8
1
 62
7
 10
256.223588559878
 20
-32.73482474667083
 30
0
 40
105
 50
132.0246275793773
 51
137.9753724206228
  0
ARC
  8
1
 62
7
 10
256.223588559878
 20
-32.73482474667083
 30
0
 40
105
 50
222.0246275793772
 51
227.9753724206228
  0
ARC
  8
1
 62
7
 10
256.223588559878
 20
-32.73482474667083
 30
0
 40
105.0000000000001
 50
312.0246275793772
 51
317.9753724206228
  0
ARC
  8
1
 62
3
  6
DASHDOT
 10
256.223588559878
 20
-32.73482474667083
 30
0
 40
95
 50
129.2356257536401
 51
141.1695612802237
  0
ARC
  8
1
 62
3
  6
DASHDOT
 10
256.223588559878
 20
-32.73482474667083
 30
0
 40
94.99999999999999
 50
39.60205267537874
 51
51.08523433625139
  0
ARC
  8
1
 62
3
  6
DASHDOT
 10
256.223588559878
 20
-32.73482474667083
 30
0
 40
95.00000000000003
 50
309.5384280769269
 51
321.6737501779941
  0
ARC
  8
1
 62
3
  6
DASHDOT
 10
256.223588559878
 20
-32.73482474667083
 30
0
 40
95.00000000000001
 50
218.6609463271926
 51
231.5149385193351
  0
ARC
  8
1
 62
7
 10
-150.776411440122
 20
-109.2348247466709
 30
0
 40
8.000000000000071
 50
218.0475074536194
 51
270
  0
ARC
  8
1
 62
7
 10
-150.776411440122
 20
43.76517525332912
 30
0
 40
8
 50
90
 51
141.9524925463806
  0
ARC
  8
1
 62
7
 10
15.22358855987802
 20
-82.73482474667088
 30
0
 40
8
 50
90
 51
141.9524925463806
  0
ARC
  8
1
 62
7
 10
15.22358855987802
 20
-109.2348247466709
 30
0
 40
8.000000000000068
 50
218.0475074536194
 51
270
  0
ARC
  8
1
 62
7
 10
15.22358855987802
 20
43.76517525332912
 30
0
 40
8
 50
90
 51
141.9524925463806
  0
ARC
  8
1
 62
7
 10
15.22358855987802
 20
17.26517525332912
 30
0
 40
8.000000000000078
 50
218.0475074536195
 51
270
  0
ARC
  8
1
 62
7
 10
-111.776411440122
 20
-66.2348247466709
 30
0
 40
1
 50
90
 51
180
  0
ARC
  8
1
 62
7
 10
-111.776411440122
 20
0.7651752533291045
 30
0
 40
1
 50
180
 51
270
  0
ARC
  8
1
 62
7
 10
54.22358855987803
 20
-66.2348247466709
 30
0
 40
1
 50
90
 51
180
  0
ARC
  8
1
 62
7
 10
54.22358855987803
 20
0.7651752533291045
 30
0
 40
1
 50
180
 51
270
  0
ARC
  8
1
 62
7
 10
256.223588559878
 20
-32.73482474667083
 30
0
 40
15.00000000000001
 50
103.4933988215517
 51
76.50660117844832
  0
CIRCLE
  8
1
 62
7
 10
256.223588559878
 20
-32.73482474667083
 30
0
 40
85
  0
CIRCLE
  8
1
 62
7
 10
189.048444347156
 20
34.44031946605116
 30
0
 40
4.25
  0
CIRCLE
  8
1
 62
7
 10
189.0484443471559
 20
-99.9099689593929
 30
0
 40
4.25
  0
CIRCLE
  8
1
 62
7
 10
323.3987327726
 20
-99.9099689593929
 30
0
 40
4.25
  0
CIRCLE
  8
1
 62
7
 10
323.3987327726
 20
34.44031946605116
 30
0
 40
4.25
  0
CIRCLE
  8
1
 62
3
 10
76.22358855987802
 20
-32.7348247466709
 30
0
 40
4
  0
CIRCLE
  8
1
 62
7
 10
76.22358855987802
 20
-32.7348247466709
 30
0
 40
3.200000000000003
  0
CIRCLE
  8
1
 62
3
 10
282.3865394637803
 20
-58.89777565057308
 30
0
 40
3
  0
CIRCLE
  8
1
 62
7
 10
282.3865394637803
 20
-58.89777565057308
 30
0
 40
2.399999999999977
  0
CIRCLE
  8
1
 62
3
 10
230.0606376559758
 20
-6.571873842768571
 30
0
 40
3
  0
CIRCLE
  8
1
 62
7
 10
230.0606376559758
 20
-6.571873842768571
 30
0
 40
2.399999999999892
  0
CIRCLE
  8
1
 62
7
 10
256.223588559878
 20
-92.73482474667092
 30
0
 40
4
  0
CIRCLE
  8
1
 62
7
 10
204.2620643328116
 20
-2.734824746670942
 30
0
 40
4
  0
CIRCLE
  8
1
 62
7
 10
256.223588559878
 20
-92.73482474667092
 30
0
 40
8.000000000000114
  0
CIRCLE
  8
1
 62
7
 10
204.2620643328116
 20
-2.734824746670942
 30
0
 40
8
  0
CIRCLE
  8
1
 62
7
 10
308.1851127869443
 20
-2.734824746670814
 30
0
 40
8
  0
CIRCLE
  8
1
 62
7
 10
308.1851127869443
 20
-2.734824746670814
 30
0
 40
4
  0
CIRCLE
  8
1
 62
7
 10
256.223588559878
 20
-32.73482474667083
 30
0
 40
32.5
  0
CIRCLE
  8
1
 62
7
 10
256.223588559878
 20
-32.73482474667083
 30
0
 40
71
  0
TEXT
  8
1
 62
7
 10
-170.3721209420194
 20
154.1186079455544
 30
0
 40
7
  1
DC1705
 41
0.9
  7
SIMPLEX
  0
TEXT
  8
1
 62
7
 10
-170.3721209420194
 20
164.6186079455544
 30
0
 40
7
  1
TMB 10H
 41
0.9
  7
SIMPLEX
  0
ENDSEC
  0
EOF
