  0
SECTION
  2
HEADER
  9
$ACADVER
  1
AC1009
  9
$INSBASE
 10
0
 20
0
  9
$EXTMIN
 10
-227.3397612150198
 20
-132.5
  9
$EXTMAX
 10
421.4
 20
261.0946235594072
  9
$LIMMIN
 10
-227.3397612150198
 20
-132.5
  9
$LIMMAX
 10
421.4
 20
261.0946235594072
  9
$VIEWCTR
 10
10
 20
10
  9
$VIEWSIZE
 40
10
  9
$SNAPMODE
 70
0
  9
$SNAPUNIT
 10
1
 20
1
  9
$SNAPBASE
 10
0
 20
0
  9
$SNAPANG
 50
0
  9
$SNAPSTYLE
 70
0
  9
$SNAPISOPAIR
 70
0
  9
$GRIDMODE
 70
0
  9
$GRIDUNIT
 10
0
 20
0
  9
$ORTHOMODE
 70
0
  9
$REGENMODE
 70
1
  9
$FILLMODE
 70
1
  9
$QTEXTMODE
 70
0
  9
$DRAGMODE
 70
2
  9
$LTSCALE
 40
1
  9
$OSMODE
 70
0
  9
$ATTMODE
 70
1
  9
$TEXTSIZE
 40
3.5
  9
$TRACEWID
 40
0.5
  9
$TEXTSTYLE
  7
STANDARD
  9
$CLAYER
  8
0
  9
$CELTYPE
  6
BYLAYER
  9
$CECOLOR
 62
256
  9
$DIMSCALE
 40
1
  9
$DIMASZ
 40
0.18
  9
$DIMEXO
 40
0.0625
  9
$DIMDLI
 40
0.38
  9
$DIMRND
 40
0
  9
$DIMDLE
 40
0
  9
$DIMEXE
 40
0.18
  9
$DIMTP
 40
0
  9
$DIMTM
 40
0
  9
$DIMTXT
 40
0.18
  9
$DIMCEN
 40
0.09
  9
$DIMTSZ
 40
0
  9
$DIMTOL
 70
0
  9
$DIMLIM
 70
0
  9
$DIMTIH
 70
1
  9
$DIMTOH
 70
1
  9
$DIMSE1
 70
0
  9
$DIMSE2
 70
0
  9
$DIMTAD
 70
0
  9
$DIMZIN
 70
0
  9
$DIMBLK
  1

  9
$DIMASO
 70
1
  9
$DIMSHO
 70
1
  9
$DIMPOST
  1

  9
$DIMAPOST
  1

  9
$DIMALT
 70
0
  9
$DIMALTD
 70
2
  9
$DIMALTF
 40
25.4
  9
$DIMLFAC
 40
1
  9
$DIMTOFL
 70
0
  9
$DIMTVP
 40
0
  9
$DIMTIX
 70
0
  9
$DIMSOXD
 70
0
  9
$DIMSAH
 70
0
  9
$DIMBLK1
  1

  9
$DIMBLK2
  1

  9
$DIMSTYLE
  2
*UNNAMED
  9
$DIMCLRD
 70
0
  9
$DIMCLRE
 70
0
  9
$DIMCLRT
 70
0
  9
$DIMTFAC
 40
1
  9
$DIMGAP
 40
0.09
  9
$LUNITS
 70
2
  9
$LUPREC
 70
4
  9
$AXISMODE
 70
0
  9
$AXISUNIT
 10
0
 20
0
  9
$SKETCHINC
 40
0.1
  9
$FILLETRAD
 40
2
  9
$AUNITS
 70
0
  9
$AUPREC
 70
0
  9
$MENU
  1
ACAD
  9
$ELEVATION
 40
0
  9
$THICKNESS
 40
0
  9
$VIEWDIR
 10
0
 20
0
 30
1
  9
$LIMCHECK
 70
0
  9
$BLIPMODE
 70
1
  9
$CHAMFERA
 40
0
  9
$CHAMFERB
 40
0
  9
$FASTZOOM
 70
1
  9
$SKPOLY
 70
0
  9
$ANGBASE
 50
0
  9
$ANGDIR
 70
0
  9
$PDMODE
 70
0
  9
$PDSIZE
 40
0
  9
$PLINEWID
 40
0
  9
$COORDS
 70
2
  0
ENDSEC
  0
SECTION
  2
TABLES
  0
TABLE
  2
DIMSTYLE
 70
0
  0
ENDTAB
  0
TABLE
  2
LTYPE
 70
9
  0
LTYPE
  2
CONTINUOUS
 70
64
  3
Solid line
 72
65
 73
0
 40
0
  0
LTYPE
  2
BORDER
 70
64
  3
__ __ . __ __ .
 72
65
 73
6
 40
29.8761732138496
 49
8.536049489671314
 49
-4.268024744835657
 49
8.536049489671314
 49
-4.268024744835657
 49
0
 49
-4.268024744835657
  0
LTYPE
  2
CENTER
 70
64
  3
____ _ ____ _
 72
65
 73
4
 40
34.14419795868525
 49
21.34012372417828
 49
-4.268024744835657
 49
4.268024744835657
 49
-4.268024744835657
  0
LTYPE
  2
DASHDOT
 70
64
  3
__ . __ . __ .
 72
65
 73
4
 40
17.07209897934263
 49
8.536049489671314
 49
-4.268024744835657
 49
0
 49
-4.268024744835657
  0
LTYPE
  2
DASHED
 70
64
  3
__ __ __ __ __
 72
65
 73
2
 40
12.80407423450697
 49
8.536049489671314
 49
-4.268024744835657
  0
LTYPE
  2
DIVIDE
 70
64
  3
__ . . __ . . 
 72
65
 73
6
 40
21.34012372417828
 49
8.536049489671314
 49
-4.268024744835657
 49
0
 49
-4.268024744835657
 49
0
 49
-4.268024744835657
  0
LTYPE
  2
DOT
 70
64
  3
..............
 72
65
 73
4
 40
8.536049489671314
 49
0
 49
-4.268024744835657
 49
0
 49
-4.268024744835657
  0
LTYPE
  2
HIDDEN
 70
64
  3
_ _ _ _ _ _ _
 72
65
 73
2
 40
6.402037117253485
 49
4.268024744835657
 49
-2.134012372417828
  0
LTYPE
  2
PHANTOM
 70
64
  3
_____ _ _ _____ _ _ 
 72
65
 73
6
 40
42.68024744835657
 49
21.34012372417828
 49
-4.268024744835657
 49
4.268024744835657
 49
-4.268024744835657
 49
4.268024744835657
 49
-4.268024744835657
  0
ENDTAB
  0
TABLE
  2
LAYER
 70
3
  0
LAYER
  2
1
 70
0
 62
7
  6
CONTINUOUS
  0
LAYER
  2
0
 70
0
 62
7
  6
CONTINUOUS
  0
ENDTAB
  0
TABLE
  2
STYLE
 70
4
  0
STYLE
  2
STANDARD
 70
0
 40
0
 41
1
 50
0
 71
0
 42
3.5
  3
txt
  4

  0
STYLE
  2
SIMPLEX
 70
0
 40
0
 41
1
 50
0
 71
0
 42
3.5
  3
simplex
  4

  0
STYLE
  2
COMPLEX
 70
0
 40
0
 41
1
 50
0
 71
0
 42
3.5
  3
complex
  4

  0
STYLE
  2
ITALIC
 70
0
 40
0
 41
1
 50
0
 71
0
 42
3.5
  3
italic
  4

  0
ENDTAB
  0
TABLE
  2
VIEW
 70
0
  0
ENDTAB
  0
ENDSEC
  0
SECTION
  2
BLOCKS
  0
ENDSEC
  0
SECTION
  2
ENTITIES
  0
LINE
  8
1
 62
3
  6
DASHDOT
 10
-100.7213945210563
 20
7.105427357601002e-015
 30
0
 11
-110
 21
0
 31
0
  0
LINE
  8
1
 62
7
 10
-110
 20
-40
 30
0
 11
-110
 21
40
 31
0
  0
LINE
  8
1
 62
7
 10
-150
 20
-40.00000000000001
 30
0
 11
-110
 21
-40
 31
0
  0
LINE
  8
1
 62
7
 10
-150
 20
-40.00000000000001
 30
0
 11
-110
 21
-40
 31
0
  0
LINE
  8
1
 62
7
 10
-151
 20
-93.50000000000001
 30
0
 11
-160
 21
-93.50000000000001
 31
0
  0
LINE
  8
1
 62
7
 10
-151
 20
-93.50000000000001
 30
0
 11
-159
 21
-93.50000000000001
 31
0
  0
LINE
  8
1
 62
7
 10
-151
 20
-93.50000000000001
 30
0
 11
-159
 21
-93.50000000000001
 31
0
  0
LINE
  8
1
 62
7
 10
-110
 20
40
 30
0
 11
-150
 21
40
 31
0
  0
LINE
  8
1
 62
7
 10
-160
 20
93.50000000000003
 30
0
 11
-151
 21
93.50000000000003
 31
0
  0
LINE
  8
1
 62
3
  6
DASHDOT
 10
106.6786054789437
 20
7.105427357601002e-015
 30
0
 11
97.40000000000003
 21
0
 31
0
  0
LINE
  8
1
 62
3
  6
DASHDOT
 10
82.40000000000003
 20
7.306575666914746
 30
0
 11
82.40000000000003
 21
-7.306575666914732
 31
0
  0
LINE
  8
1
 62
3
  6
DASHDOT
 10
89.70657566691472
 20
7.105427357601002e-015
 30
0
 11
75.09342433308524
 21
7.105427357601002e-015
 31
0
  0
LINE
  8
1
 62
3
  6
DASHDOT
 10
313.8999999999999
 20
8.128076087735813
 30
0
 11
313.8999999999999
 21
-8.128076087735714
 31
0
  0
LINE
  8
1
 62
3
  6
DASHDOT
 10
322.0280760877357
 20
4.973799150320701e-014
 30
0
 11
305.7719239122642
 21
4.973799150320701e-014
 31
0
  0
LINE
  8
1
 62
7
 10
56.40000000000003
 20
44.30000000000004
 30
0
 11
47.40000000000003
 21
44.30000000000004
 31
0
  0
LINE
  8
1
 62
7
 10
56.40000000000003
 20
50.70000000000005
 30
0
 11
47.40000000000003
 21
50.70000000000005
 31
0
  0
LINE
  8
1
 62
3
  6
DASHDOT
 10
58.20000000000005
 20
47.50000000000004
 30
0
 11
45.59999999999991
 21
47.50000000000004
 31
0
  0
LINE
  8
1
 62
3
 10
56.40000000000003
 20
43.50000000000004
 30
0
 11
47.40000000000003
 21
43.50000000000004
 31
0
  0
LINE
  8
1
 62
3
 10
56.40000000000003
 20
51.50000000000003
 30
0
 11
47.40000000000003
 21
51.50000000000003
 31
0
  0
LINE
  8
1
 62
7
 10
85.59999999999991
 20
40
 30
0
 11
85.59999999999991
 21
23.50000000000006
 31
0
  0
LINE
  8
1
 62
7
 10
79.20000000000005
 20
40
 30
0
 11
79.20000000000005
 21
23.50000000000006
 31
0
  0
LINE
  8
1
 62
3
  6
DASHDOT
 10
82.40000000000003
 20
43.29999999999998
 30
0
 11
82.40000000000003
 21
20.20000000000007
 31
0
  0
LINE
  8
1
 62
3
 10
86.40000000000003
 20
40
 30
0
 11
86.40000000000003
 21
23.50000000000006
 31
0
  0
LINE
  8
1
 62
3
 10
78.40000000000003
 20
40
 30
0
 11
78.40000000000003
 21
23.50000000000006
 31
0
  0
LINE
  8
1
 62
7
 10
36.09999999999995
 20
-70.30000000000001
 30
0
 11
36.3999999999999
 21
-70
 31
0
  0
LINE
  8
1
 62
7
 10
36.3999999999999
 20
-88
 30
0
 11
36.09999999999995
 21
-87.70000000000002
 31
0
  0
LINE
  8
1
 62
7
 10
36.09999999999995
 20
-87.70000000000002
 30
0
 11
36.09999999999995
 21
-70.30000000000001
 31
0
  0
LINE
  8
1
 62
7
 10
40.8999999999999
 20
-70
 30
0
 11
36.3999999999999
 21
-70
 31
0
  0
LINE
  8
1
 62
7
 10
56.40000000000003
 20
-89
 30
0
 11
51.40000000000003
 21
-84
 31
0
  0
LINE
  8
1
 62
7
 10
51.40000000000003
 20
-74
 30
0
 11
51.40000000000003
 21
-84
 31
0
  0
LINE
  8
1
 62
7
 10
51.40000000000003
 20
-84
 30
0
 11
40.8999999999999
 21
-84
 31
0
  0
LINE
  8
1
 62
7
 10
51.40000000000003
 20
-74
 30
0
 11
56.40000000000003
 21
-69
 31
0
  0
LINE
  8
1
 62
7
 10
40.8999999999999
 20
-74
 30
0
 11
51.40000000000003
 21
-74
 31
0
  0
LINE
  8
1
 62
7
 10
47.40000000000003
 20
-74
 30
0
 11
47.40000000000003
 21
93.50000000000003
 31
0
  0
LINE
  8
1
 62
7
 10
47.40000000000003
 20
-19.99999999999995
 30
0
 11
97.40000000000003
 21
-19.99999999999995
 31
0
  0
LINE
  8
1
 62
7
 10
47.40000000000003
 20
23.50000000000006
 30
0
 11
97.40000000000003
 21
23.50000000000006
 31
0
  0
LINE
  8
1
 62
7
 10
97.40000000000003
 20
-40
 30
0
 11
97.40000000000003
 21
40
 31
0
  0
LINE
  8
1
 62
7
 10
57.40000000000003
 20
-40.00000000000001
 30
0
 11
97.40000000000003
 21
-40
 31
0
  0
LINE
  8
1
 62
7
 10
56.40000000000003
 20
-41.00000000000001
 30
0
 11
56.40000000000003
 21
-93.50000000000001
 31
0
  0
LINE
  8
1
 62
7
 10
56.40000000000003
 20
-93.50000000000001
 30
0
 11
47.40000000000003
 21
-93.50000000000001
 31
0
  0
LINE
  8
1
 62
7
 10
56.40000000000003
 20
-93.50000000000001
 30
0
 11
47.40000000000003
 21
-93.50000000000001
 31
0
  0
LINE
  8
1
 62
7
 10
56.40000000000003
 20
-93.50000000000001
 30
0
 11
47.40000000000003
 21
-93.50000000000001
 31
0
  0
LINE
  8
1
 62
7
 10
47.40000000000003
 20
-92.50000000000001
 30
0
 11
47.40000000000003
 21
-93.50000000000001
 31
0
  0
LINE
  8
1
 62
7
 10
56.40000000000003
 20
41
 30
0
 11
56.40000000000003
 21
93.50000000000003
 31
0
  0
LINE
  8
1
 62
7
 10
97.40000000000003
 20
40
 30
0
 11
57.40000000000003
 21
40
 31
0
  0
LINE
  8
1
 62
7
 10
47.40000000000003
 20
93.50000000000003
 30
0
 11
56.40000000000003
 21
93.50000000000003
 31
0
  0
LINE
  8
1
 62
7
 10
39.8999999999999
 20
-70
 30
0
 11
39.8999999999999
 21
-88
 31
0
  0
LINE
  8
1
 62
7
 10
308.8999999999999
 20
19.36491673103714
 30
0
 11
308.8999999999999
 21
23.50000000000006
 31
0
  0
LINE
  8
1
 62
7
 10
308.8999999999999
 20
23.50000000000006
 30
0
 11
318.8999999999999
 21
23.50000000000006
 31
0
  0
LINE
  8
1
 62
7
 10
318.8999999999999
 20
23.50000000000006
 30
0
 11
318.8999999999999
 21
19.36491673103714
 31
0
  0
LINE
  8
1
 62
3
  6
DASHED
 10
333.8999999999999
 20
-3.99999999999995
 30
0
 11
353.8999999999999
 21
-3.99999999999995
 31
0
  0
LINE
  8
1
 62
3
  6
DASHED
 10
333.8999999999999
 20
4.00000000000005
 30
0
 11
353.8999999999999
 21
4.00000000000005
 31
0
  0
LINE
  8
1
 62
3
  6
DASHDOT
 10
329.8999999999999
 20
4.973799150320701e-014
 30
0
 11
357.8999999999999
 21
4.973799150320701e-014
 31
0
  0
LINE
  8
1
 62
3
  6
DASHED
 10
333.8999999999999
 20
-3.199999999999953
 30
0
 11
353.8999999999999
 21
-3.199999999999953
 31
0
  0
LINE
  8
1
 62
3
  6
DASHED
 10
333.8999999999999
 20
3.20000000000006
 30
0
 11
353.8999999999999
 21
3.200000000000045
 31
0
  0
LINE
  8
1
 62
3
  6
DASHED
 10
317.8999999999999
 20
23.50000000000006
 30
0
 11
317.8999999999999
 21
40.00000000000004
 31
0
  0
LINE
  8
1
 62
3
  6
DASHED
 10
309.8999999999999
 20
23.50000000000006
 30
0
 11
309.8999999999999
 21
40.00000000000004
 31
0
  0
LINE
  8
1
 62
3
  6
DASHDOT
 10
313.8999999999999
 20
20.20000000000006
 30
0
 11
313.8999999999999
 21
43.30000000000004
 31
0
  0
LINE
  8
1
 62
3
  6
DASHED
 10
317.0999999999999
 20
23.50000000000006
 30
0
 11
317.0999999999999
 21
40.00000000000004
 31
0
  0
LINE
  8
1
 62
3
  6
DASHED
 10
310.6999999999999
 20
23.50000000000006
 30
0
 11
310.6999999999999
 21
40.00000000000004
 31
0
  0
LINE
  8
1
 62
7
 10
36.3999999999999
 20
-88
 30
0
 11
40.8999999999999
 21
-88
 31
0
  0
LINE
  8
1
 62
7
 10
47.40000000000003
 20
-92.50000000000001
 30
0
 11
47.40000000000003
 21
-84
 31
0
  0
LINE
  8
1
 62
7
 10
-151
 20
93.50000000000003
 30
0
 11
-151
 21
-93.50000000000001
 31
0
  0
LINE
  8
1
 62
7
 10
-160
 20
93.50000000000003
 30
0
 11
-160
 21
-93.50000000000001
 31
0
  0
LINE
  8
1
 62
7
 10
-201.5
 20
107
 30
0
 11
-201.5
 21
-107.0071143513191
 31
0
  0
LINE
  8
1
 62
3
  6
DASHDOT
 10
391.1531580558367
 20
-77.25315805583674
 30
0
 11
406.7036491734909
 21
-92.80364917349084
 31
0
  0
LINE
  8
1
 62
7
 10
313.8999999999999
 20
163.0000000000001
 30
0
 11
313.8999999999999
 21
107.5226479459421
 31
0
  0
LINE
  8
1
 62
7
 10
11.46023878498001
 20
163
 30
0
 11
13.99351459457371
 21
163
 31
0
  0
LINE
  8
1
 62
7
 10
40.89999999999991
 20
-93.23278449816661
 30
0
 11
42.49999999999989
 21
-93.23278449816661
 31
0
  0
LINE
  8
1
 62
7
 10
40.89999999999991
 20
79.00000000000006
 30
0
 11
40.89999999999991
 21
-106.5
 31
0
  0
LINE
  8
1
 62
7
 10
40.89999999999981
 20
-66.5
 30
0
 11
42.49999999999977
 21
-66.5
 31
0
  0
LINE
  8
1
 62
7
 10
42.49999999999989
 20
-84
 30
0
 11
42.49999999999989
 21
-106.5
 31
0
  0
LINE
  8
1
 62
7
 10
47.39999999999988
 20
-88.5
 30
0
 11
42.49999999999989
 21
-88.5
 31
0
  0
LINE
  8
1
 62
7
 10
42.49999999999989
 20
79.00000000000006
 30
0
 11
42.49999999999989
 21
-74
 31
0
  0
LINE
  8
1
 62
7
 10
42.49999999999989
 20
-69.5
 30
0
 11
47.39999999999989
 21
-69.5
 31
0
  0
LINE
  8
1
 62
7
 10
31.49999999999987
 20
107.5
 30
0
 11
31.49999999999987
 21
-107.5
 31
0
  0
LINE
  8
1
 62
7
 10
39.69999999999988
 20
-89
 30
0
 11
39.69999999999988
 21
-107.5
 31
0
  0
LINE
  8
1
 62
7
 10
31.49999999999987
 20
-89
 30
0
 11
39.69999999999988
 21
-89
 31
0
  0
LINE
  8
1
 62
7
 10
31.49999999999987
 20
-69
 30
0
 11
40.89999999999991
 21
-69
 31
0
  0
LINE
  8
1
 62
7
 10
40.89999999999991
 20
-106.5
 30
0
 11
42.49999999999989
 21
-106.5
 31
0
  0
LINE
  8
1
 62
7
 10
39.69999999999988
 20
-107.5
 30
0
 11
31.49999999999987
 21
-107.5
 31
0
  0
LINE
  8
1
 62
7
 10
40.89999999999991
 20
-53.5
 30
0
 11
31.49999999999987
 21
-53.5
 31
0
  0
LINE
  8
1
 62
7
 10
45.0999999999999
 20
88.00000000000006
 30
0
 11
46.0999999999999
 21
89.00000000000006
 31
0
  0
LINE
  8
1
 62
7
 10
46.0999999999999
 20
103
 30
0
 11
45.0999999999999
 21
104
 31
0
  0
LINE
  8
1
 62
7
 10
42.2999999999999
 20
104
 30
0
 11
42.2999999999999
 21
88.00000000000006
 31
0
  0
LINE
  8
1
 62
7
 10
41.2999999999999
 20
88.00000000000006
 30
0
 11
45.0999999999999
 21
88.00000000000006
 31
0
  0
LINE
  8
1
 62
7
 10
46.0999999999999
 20
103
 30
0
 11
46.0999999999999
 21
89.00000000000006
 31
0
  0
LINE
  8
1
 62
7
 10
41.2999999999999
 20
104
 30
0
 11
45.0999999999999
 21
104
 31
0
  0
LINE
  8
1
 62
7
 10
39.69999999999988
 20
85.50000000000006
 30
0
 11
41.2999999999999
 21
85.50000000000006
 31
0
  0
LINE
  8
1
 62
7
 10
41.2999999999999
 20
83.62845421394019
 30
0
 11
42.49999999999989
 21
79.00000000000006
 31
0
  0
LINE
  8
1
 62
7
 10
39.69999999999988
 20
106.5
 30
0
 11
41.2999999999999
 21
106.5
 31
0
  0
LINE
  8
1
 62
7
 10
39.69999999999988
 20
83.47846096908262
 30
0
 11
40.89999999999991
 21
79.00000000000006
 31
0
  0
LINE
  8
1
 62
7
 10
39.69999999999988
 20
79.00000000000006
 30
0
 11
40.89999999999991
 21
79.00000000000006
 31
0
  0
LINE
  8
1
 62
7
 10
31.49999999999987
 20
107.5
 30
0
 11
39.69999999999988
 21
107.5
 31
0
  0
LINE
  8
1
 62
7
 10
-0.1000000000001222
 20
100
 30
0
 11
2.899999999999878
 21
100
 31
0
  0
LINE
  8
1
 62
7
 10
-0.1000000000001222
 20
-132.5
 30
0
 11
2.899999999999878
 21
-132.5
 31
0
  0
LINE
  8
1
 62
7
 10
-0.1000000000001222
 20
-125.5
 30
0
 11
2.899999999999878
 21
-125.5
 31
0
  0
LINE
  8
1
 62
7
 10
-0.1000000000001222
 20
-114.5
 30
0
 11
2.899999999999878
 21
-114.5
 31
0
  0
LINE
  8
1
 62
3
  6
DASHDOT
 10
-3.34081952783184
 20
-120
 30
0
 11
5.141261943772989
 21
-120
 31
0
  0
LINE
  8
1
 62
7
 10
-0.1000000000001222
 20
-80.00000000000003
 30
0
 11
2.899999999999878
 21
-80.00000000000003
 31
0
  0
LINE
  8
1
 62
7
 10
5.899999999999878
 20
-107
 30
0
 11
2.899999999999878
 21
-104
 31
0
  0
LINE
  8
1
 62
7
 10
5.899999999999878
 20
-107
 30
0
 11
31.09999999999987
 21
-107
 31
0
  0
LINE
  8
1
 62
7
 10
31.09999999999987
 20
107
 30
0
 11
5.899999999999878
 21
107
 31
0
  0
LINE
  8
1
 62
7
 10
2.899999999999878
 20
104
 30
0
 11
5.899999999999878
 21
107
 31
0
  0
LINE
  8
1
 62
7
 10
-0.1000000000001222
 20
53.50000000000006
 30
0
 11
31.09999999999987
 21
53.50000000000006
 31
0
  0
LINE
  8
1
 62
7
 10
2.899999999999878
 20
80.00000000000006
 30
0
 11
-0.1000000000001222
 21
80.00000000000006
 31
0
  0
LINE
  8
1
 62
7
 10
2.899999999999878
 20
80.00000000000006
 30
0
 11
2.899999999999878
 21
104
 31
0
  0
LINE
  8
1
 62
3
  6
DASHDOT
 10
-6.833373673616038
 20
0
 30
0
 11
-0.1000000000001222
 21
0
 31
0
  0
LINE
  8
1
 62
3
  6
DASHDOT
 10
222.2557553956833
 20
-91.6442446043165
 30
0
 11
237.8860210224461
 21
-76.01397897755379
 31
0
  0
LINE
  8
1
 62
3
  6
DASHDOT
 10
407.5916485072175
 20
93.69164850721762
 30
0
 11
392.9615107913669
 21
79.06151079136691
 31
0
  0
LINE
  8
1
 62
3
  6
DASHDOT
 10
222.2557553956833
 20
91.64424460431661
 30
0
 11
236.5161870503596
 21
77.38381294964034
 31
0
  0
LINE
  8
1
 62
7
 10
213.9
 20
86.92669325356866
 30
0
 11
213.9
 21
39.4493345951488
 31
0
  0
LINE
  8
1
 62
7
 10
213.9
 20
-86.92669325356852
 30
0
 11
213.9
 21
-36.63673020344464
 31
0
  0
LINE
  8
1
 62
7
 10
413.9
 20
-39.44933459514868
 30
0
 11
413.9
 21
-86.92669325356852
 31
0
  0
LINE
  8
1
 62
7
 10
413.9
 20
86.92669325356866
 30
0
 11
413.9
 21
39.4493345951488
 31
0
  0
LINE
  8
1
 62
7
 10
353.3493345951487
 20
-99.99999999999994
 30
0
 11
400.8266932535685
 21
-99.99999999999994
 31
0
  0
LINE
  8
1
 62
7
 10
226.9733067464314
 20
-99.99999999999994
 30
0
 11
274.4506654048512
 21
-99.99999999999994
 31
0
  0
LINE
  8
1
 62
7
 10
353.3493345951487
 20
100
 30
0
 11
400.8266932535685
 21
100
 31
0
  0
LINE
  8
1
 62
7
 10
226.9733067464314
 20
100
 30
0
 11
274.4506654048512
 21
100
 31
0
  0
LINE
  8
1
 62
7
 10
11.46023878498001
 20
163
 30
0
 11
11.46023878498001
 21
107.0003465620391
 31
0
  0
LINE
  8
1
 62
7
 10
13.99351459457371
 20
163
 30
0
 11
13.99351459457371
 21
107
 31
0
  0
LINE
  8
1
 62
7
 10
13.11868376525077
 20
168
 30
0
 11
13.11868376525077
 21
163
 31
0
  0
LINE
  8
1
 62
7
 10
13.51969682970379
 20
168
 30
0
 11
13.51969682970379
 21
163
 31
0
  0
LINE
  8
1
 62
7
 10
12.33506961430267
 20
163
 30
0
 11
12.33506961430267
 21
168
 31
0
  0
LINE
  8
1
 62
7
 10
11.9340565498497
 20
163
 30
0
 11
11.9340565498497
 21
168
 31
0
  0
LINE
  8
1
 62
7
 10
316.5999999999999
 20
163.0000000000001
 30
0
 11
316.5999999999999
 21
107.4660876742055
 31
0
  0
LINE
  8
1
 62
7
 10
311.1999999999999
 20
163.0000000000001
 30
0
 11
311.1999999999999
 21
107.4660876742055
 31
0
  0
LINE
  8
1
 62
7
 10
311.1999999999999
 20
163.0000000000001
 30
0
 11
316.5999999999999
 21
163.0000000000001
 31
0
  0
LINE
  8
1
 62
7
 10
314.596801212388
 20
168
 30
0
 11
314.596801212388
 21
163.0000000000001
 31
0
  0
LINE
  8
1
 62
7
 10
315.1918372232867
 20
168
 30
0
 11
315.1918372232867
 21
163.0000000000001
 31
0
  0
LINE
  8
1
 62
7
 10
315.8681735334576
 20
168
 30
0
 11
315.8681735334576
 21
163.0000000000001
 31
0
  0
LINE
  8
1
 62
7
 10
311.9318264665423
 20
163.0000000000001
 30
0
 11
311.9318264665423
 21
168
 31
0
  0
LINE
  8
1
 62
7
 10
312.6111273568617
 20
163.0000000000001
 30
0
 11
312.6111273568617
 21
168
 31
0
  0
LINE
  8
1
 62
7
 10
313.2031987876119
 20
163.0000000000001
 30
0
 11
313.2031987876119
 21
168
 31
0
  0
LINE
  8
1
 62
7
 10
-0.1000000000001222
 20
-53.50000000000003
 30
0
 11
31.09999999999987
 21
-53.50000000000003
 31
0
  0
LINE
  8
1
 62
7
 10
32.59953488372076
 20
53.50000000000006
 30
0
 11
40.89999999999991
 21
53.50000000000006
 31
0
  0
LINE
  8
1
 62
7
 10
31.5
 20
53.50000000000003
 30
0
 11
32.5999999999998
 21
53.50000000000006
 31
0
  0
LINE
  8
1
 62
7
 10
-195.9397612150199
 20
163
 30
0
 11
-193.4064854054261
 21
163
 31
0
  0
LINE
  8
1
 62
7
 10
-160
 20
-88.5
 30
0
 11
-164.9
 21
-88.5
 31
0
  0
LINE
  8
1
 62
7
 10
-164.9
 20
-69.5
 30
0
 11
-160
 21
-69.5
 31
0
  0
LINE
  8
1
 62
7
 10
-175.8999999999999
 20
107.5
 30
0
 11
-175.8999999999999
 21
-107.5
 31
0
  0
LINE
  8
1
 62
7
 10
-166.4999999999999
 20
-106.5
 30
0
 11
-164.9
 21
-106.5
 31
0
  0
LINE
  8
1
 62
7
 10
-167.6999999999999
 20
-107.5
 30
0
 11
-175.8999999999999
 21
-107.5
 31
0
  0
LINE
  8
1
 62
7
 10
-166.4999999999999
 20
79.00000000000006
 30
0
 11
-166.4999999999999
 21
-106.5
 31
0
  0
LINE
  8
1
 62
7
 10
-162.3
 20
88.00000000000006
 30
0
 11
-161.3
 21
89.00000000000006
 31
0
  0
LINE
  8
1
 62
7
 10
-161.3
 20
103
 30
0
 11
-162.3
 21
104
 31
0
  0
LINE
  8
1
 62
7
 10
-165.1
 20
104
 30
0
 11
-165.1
 21
88.00000000000006
 31
0
  0
LINE
  8
1
 62
7
 10
-166.1
 20
88.00000000000006
 30
0
 11
-162.3
 21
88.00000000000006
 31
0
  0
LINE
  8
1
 62
7
 10
-161.3
 20
103
 30
0
 11
-161.3
 21
89.00000000000006
 31
0
  0
LINE
  8
1
 62
7
 10
-166.1
 20
104
 30
0
 11
-162.3
 21
104
 31
0
  0
LINE
  8
1
 62
7
 10
-166.1
 20
83.62845421394019
 30
0
 11
-164.9
 21
79.00000000000006
 31
0
  0
LINE
  8
1
 62
7
 10
-167.6999999999999
 20
83.47846096908262
 30
0
 11
-166.4999999999999
 21
79.00000000000006
 31
0
  0
LINE
  8
1
 62
7
 10
-167.6999999999999
 20
106.5
 30
0
 11
-166.1
 21
106.5
 31
0
  0
LINE
  8
1
 62
7
 10
-167.6999999999999
 20
79.00000000000006
 30
0
 11
-166.4999999999999
 21
79.00000000000006
 31
0
  0
LINE
  8
1
 62
7
 10
-175.8999999999999
 20
107.5
 30
0
 11
-167.6999999999999
 21
107.5
 31
0
  0
LINE
  8
1
 62
7
 10
-207.5
 20
100
 30
0
 11
-204.5
 21
100
 31
0
  0
LINE
  8
1
 62
7
 10
-207.5
 20
-132.5
 30
0
 11
-204.5
 21
-132.5
 31
0
  0
LINE
  8
1
 62
3
  6
DASHDOT
 10
-210.7408195278317
 20
-120
 30
0
 11
-202.2587380562269
 21
-120
 31
0
  0
LINE
  8
1
 62
7
 10
-201.5
 20
-107
 30
0
 11
-204.5
 21
-104
 31
0
  0
LINE
  8
1
 62
7
 10
-201.5
 20
-107
 30
0
 11
-176.2999999999999
 21
-107
 31
0
  0
LINE
  8
1
 62
7
 10
-204.5
 20
104
 30
0
 11
-201.5
 21
107
 31
0
  0
LINE
  8
1
 62
3
  6
DASHDOT
 10
-214.2333736736159
 20
0
 30
0
 11
-207.5
 21
0
 31
0
  0
LINE
  8
1
 62
7
 10
-195.9397612150199
 20
163
 30
0
 11
-195.9397612150199
 21
107.0003465620391
 31
0
  0
LINE
  8
1
 62
7
 10
-193.4064854054261
 20
163
 30
0
 11
-193.4064854054261
 21
106.9924612812091
 31
0
  0
LINE
  8
1
 62
7
 10
-194.2813162347491
 20
168
 30
0
 11
-194.2813162347491
 21
163
 31
0
  0
LINE
  8
1
 62
7
 10
-193.8803031702961
 20
168
 30
0
 11
-193.8803031702961
 21
163
 31
0
  0
LINE
  8
1
 62
7
 10
-195.0649303856971
 20
163
 30
0
 11
-195.0649303856971
 21
168
 31
0
  0
LINE
  8
1
 62
7
 10
-195.4659434501502
 20
163
 30
0
 11
-195.4659434501502
 21
168
 31
0
  0
LINE
  8
1
 62
7
 10
31.09999999999987
 20
-107
 30
0
 11
31.09999999999987
 21
107
 31
0
  0
LINE
  8
1
 62
7
 10
-176.2999999999999
 20
-107
 30
0
 11
-176.2999999999999
 21
106.9924612812091
 31
0
  0
LINE
  8
1
 62
7
 10
2.899999999999878
 20
-80.00000000000003
 30
0
 11
2.899999999999878
 21
-132.5
 31
0
  0
LINE
  8
1
 62
7
 10
-0.1000000000001222
 20
-132.5
 30
0
 11
-0.1000000000001222
 21
100
 31
0
  0
LINE
  8
1
 62
7
 10
39.69999999999988
 20
107.5
 30
0
 11
39.69999999999988
 21
79.00000000000006
 31
0
  0
LINE
  8
1
 62
7
 10
41.2999999999999
 20
83.62845421394019
 30
0
 11
41.2999999999999
 21
106.5
 31
0
  0
LINE
  8
1
 62
7
 10
-207.5
 20
100
 30
0
 11
-207.5
 21
-132.5
 31
0
  0
LINE
  8
1
 62
7
 10
-204.5
 20
104
 30
0
 11
-204.5
 21
-132.5
 31
0
  0
LINE
  8
1
 62
7
 10
-176.2999999999999
 20
106.9924612812091
 30
0
 11
-201.5
 21
106.9924612812091
 31
0
  0
LINE
  8
1
 62
7
 10
-164.9
 20
79.00000000000006
 30
0
 11
-164.9
 21
-106.5
 31
0
  0
LINE
  8
1
 62
7
 10
-166.1
 20
83.62845421394019
 30
0
 11
-166.1
 21
106.5
 31
0
  0
LINE
  8
1
 62
7
 10
-167.6999999999999
 20
107.5
 30
0
 11
-167.6999999999999
 21
-107.5
 31
0
  0
LINE
  8
1
 62
7
 10
97.40000000000003
 20
19.99999999999996
 30
0
 11
47.40000000000003
 21
19.99999999999996
 31
0
  0
ARC
  8
1
 62
7
 10
313.8999999999999
 20
4.973799150320701e-014
 30
0
 40
20
 50
104.4775121859299
 51
75.52248781407008
  0
ARC
  8
1
 62
7
 10
-150
 20
-41.00000000000001
 30
0
 40
1
 50
90
 51
180
  0
ARC
  8
1
 62
7
 10
-150
 20
41
 30
0
 40
1
 50
180
 51
270
  0
ARC
  8
1
 62
7
 10
57.40000000000003
 20
-41.00000000000001
 30
0
 40
1
 50
90
 51
180
  0
ARC
  8
1
 62
7
 10
57.40000000000003
 20
41
 30
0
 40
1
 50
180
 51
270
  0
ARC
  8
1
 62
3
  6
DASHDOT
 10
313.8999999999999
 20
4.973799150320701e-014
 30
0
 40
119.9999999999998
 50
218.8676389157645
 51
231.6414961294262
  0
ARC
  8
1
 62
3
  6
DASHDOT
 10
313.8999999999999
 20
4.973799150320701e-014
 30
0
 40
120
 50
309.2148806862679
 51
321.4631433408305
  0
ARC
  8
1
 62
3
  6
DASHDOT
 10
313.8999999999999
 20
4.973799150320701e-014
 30
0
 40
120
 50
38.78446579847802
 51
50.88758054269724
  0
ARC
  8
1
 62
3
  6
DASHDOT
 10
313.8999999999999
 20
4.973799150320701e-014
 30
0
 40
120
 50
129.6495206376372
 51
140.4900962260114
  0
ARC
  8
1
 62
7
 10
313.8999999999999
 20
4.973799150320701e-014
 30
0
 40
132.4999999999999
 50
220.9993536502047
 51
229.0006463497954
  0
ARC
  8
1
 62
7
 10
313.8999999999999
 20
4.973799150320701e-014
 30
0
 40
132.5
 50
310.9993536502047
 51
319.0006463497953
  0
ARC
  8
1
 62
7
 10
313.8999999999999
 20
4.973799150320701e-014
 30
0
 40
132.5000000000001
 50
40.99935365020468
 51
49.0006463497953
  0
ARC
  8
1
 62
7
 10
313.8999999999999
 20
4.973799150320701e-014
 30
0
 40
132.4999999999999
 50
130.9993536502047
 51
139.0006463497953
  0
ARC
  8
1
 62
7
 10
416.0909976465638
 20
59.00000000000006
 30
0
 40
24.76721550183347
 50
182.704702857163
 51
237.2952971428368
  0
ARC
  8
1
 62
7
 10
370.3999999999999
 20
0
 30
0
 40
50.00000000000006
 50
359.9999999999999
 51
49.74573655507821
  0
ARC
  8
1
 62
7
 10
313.8999999999999
 20
4.973799150320701e-014
 30
0
 40
106.5
 50
300.0000000000001
 51
359.9999999999999
  0
ARC
  8
1
 62
7
 10
313.8999999999999
 20
4.973799150320701e-014
 30
0
 40
106.5
 50
59.99999999999999
 51
120
  0
ARC
  8
1
 62
7
 10
342.15
 20
48.93043531382085
 30
0
 40
49.99999999999997
 50
10.25426344492182
 51
60.00000000000003
  0
ARC
  8
1
 62
7
 10
313.8999999999999
 20
-118
 30
0
 40
24.76721550183352
 50
62.70470285716276
 51
117.2952971428369
  0
ARC
  8
1
 62
7
 10
285.6499999999999
 20
-48.93043531382074
 30
0
 40
49.99999999999996
 50
240
 51
289.7457365550782
  0
ARC
  8
1
 62
7
 10
313.8999999999999
 20
4.973799150320701e-014
 30
0
 40
106.4999999999999
 50
180
 51
240
  0
ARC
  8
1
 62
7
 10
342.15
 20
-48.93043531382074
 30
0
 40
49.99999999999996
 50
250.2542634449219
 51
300.0000000000002
  0
ARC
  8
1
 62
7
 10
211.7090023534362
 20
59.00000000000006
 30
0
 40
24.76721550183346
 50
302.7047028571632
 51
357.2952971428371
  0
ARC
  8
1
 62
7
 10
257.3999999999999
 20
2.842170943040401e-014
 30
0
 40
49.99999999999992
 50
130.2542634449217
 51
180
  0
ARC
  8
1
 62
7
 10
285.65
 20
48.93043531382085
 30
0
 40
49.99999999999992
 50
120
 51
169.7457365550782
  0
ARC
  8
1
 62
7
 10
313.8999999999999
 20
96.00000000000006
 30
0
 40
8.000000000000002
 50
339.506711678181
 51
200.4932883218192
  0
ARC
  8
1
 62
7
 10
230.7615612366938
 20
-47.99999999999994
 30
0
 40
7.999999999999993
 50
99.50671167818112
 51
320.4932883218193
  0
ARC
  8
1
 62
7
 10
397.038438763306
 20
-48
 30
0
 40
7.999999999999964
 50
219.5067116781809
 51
80.49328832181888
  0
CIRCLE
  8
1
 62
3
 10
82.40000000000003
 20
7.105427357601002e-015
 30
0
 40
4
  0
CIRCLE
  8
1
 62
7
 10
82.40000000000003
 20
7.105427357601002e-015
 30
0
 40
3.199999999999989
  0
CIRCLE
  8
1
 62
3
 10
347.4875721063609
 20
-33.58757210636095
 30
0
 40
4
  0
CIRCLE
  8
1
 62
7
 10
347.4875721063609
 20
-33.58757210636095
 30
0
 40
3.199999999999989
  0
CIRCLE
  8
1
 62
3
 10
280.3124278936389
 20
33.58757210636105
 30
0
 40
4
  0
CIRCLE
  8
1
 62
7
 10
280.3124278936389
 20
33.58757210636105
 30
0
 40
3.200000000000102
  0
CIRCLE
  8
1
 62
7
 10
313.8999999999999
 20
-78.99999999999993
 30
0
 40
5
  0
CIRCLE
  8
1
 62
7
 10
245.4839931010293
 20
39.50000000000009
 30
0
 40
5
  0
CIRCLE
  8
1
 62
7
 10
313.8999999999999
 20
-78.99999999999993
 30
0
 40
10
  0
CIRCLE
  8
1
 62
7
 10
245.4839931010293
 20
39.50000000000009
 30
0
 40
10
  0
CIRCLE
  8
1
 62
7
 10
382.3160068989706
 20
39.50000000000001
 30
0
 40
10
  0
CIRCLE
  8
1
 62
7
 10
382.3160068989706
 20
39.50000000000001
 30
0
 40
5
  0
CIRCLE
  8
1
 62
7
 10
313.8999999999999
 20
4.973799150320701e-014
 30
0
 40
93.5
  0
CIRCLE
  8
1
 62
7
 10
313.8999999999999
 20
4.973799150320701e-014
 30
0
 40
40
  0
CIRCLE
  8
1
 62
7
 10
398.7528137423857
 20
84.85281374238582
 30
0
 40
5.5
  0
CIRCLE
  8
1
 62
7
 10
398.7528137423857
 20
-84.85281374238565
 30
0
 40
5.5
  0
CIRCLE
  8
1
 62
7
 10
229.0471862576142
 20
-84.85281374238568
 30
0
 40
5.5
  0
CIRCLE
  8
1
 62
7
 10
229.0471862576142
 20
84.85281374238576
 30
0
 40
5.5
  0
CIRCLE
  8
1
 62
7
 10
313.8999999999999
 20
4.973799150320701e-014
 30
0
 40
107.5000000000001
  0
TEXT
  8
1
 62
7
 10
-227.3397612150198
 20
252.0946235594072
 30
0
 40
9
  1
TMB 20H
 41
0.9
  7
SIMPLEX
  0
TEXT
  8
1
 62
7
 10
-227.3397612150198
 20
237.0946235594072
 30
0
 40
9
  1
DC1706
 41
0.9
  7
SIMPLEX
  0
ENDSEC
  0
EOF
