  0
SECTION
  2
HEADER
  9
$ACADVER
  1
AC1009
  9
$INSBASE
 10
0
 20
0
  9
$EXTMIN
 10
-64.3668257942887
 20
-42.5
  9
$EXTMAX
 10
127.5488455339966
 20
80.33784036927715
  9
$LIMMIN
 10
-64.3668257942887
 20
-42.5
  9
$LIMMAX
 10
127.5488455339966
 20
80.33784036927715
  9
$VIEWCTR
 10
10
 20
10
  9
$VIEWSIZE
 40
10
  9
$SNAPMODE
 70
0
  9
$SNAPUNIT
 10
1
 20
1
  9
$SNAPBASE
 10
0
 20
0
  9
$SNAPANG
 50
0
  9
$SNAPSTYLE
 70
0
  9
$SNAPISOPAIR
 70
0
  9
$GRIDMODE
 70
0
  9
$GRIDUNIT
 10
0
 20
0
  9
$ORTHOMODE
 70
0
  9
$REGENMODE
 70
1
  9
$FILLMODE
 70
1
  9
$QTEXTMODE
 70
0
  9
$DRAGMODE
 70
2
  9
$LTSCALE
 40
1
  9
$OSMODE
 70
0
  9
$ATTMODE
 70
1
  9
$TEXTSIZE
 40
3.5
  9
$TRACEWID
 40
0.5
  9
$TEXTSTYLE
  7
STANDARD
  9
$CLAYER
  8
0
  9
$CELTYPE
  6
BYLAYER
  9
$CECOLOR
 62
256
  9
$DIMSCALE
 40
1
  9
$DIMASZ
 40
0.18
  9
$DIMEXO
 40
0.0625
  9
$DIMDLI
 40
0.38
  9
$DIMRND
 40
0
  9
$DIMDLE
 40
0
  9
$DIMEXE
 40
0.18
  9
$DIMTP
 40
0
  9
$DIMTM
 40
0
  9
$DIMTXT
 40
0.18
  9
$DIMCEN
 40
0.09
  9
$DIMTSZ
 40
0
  9
$DIMTOL
 70
0
  9
$DIMLIM
 70
0
  9
$DIMTIH
 70
1
  9
$DIMTOH
 70
1
  9
$DIMSE1
 70
0
  9
$DIMSE2
 70
0
  9
$DIMTAD
 70
0
  9
$DIMZIN
 70
0
  9
$DIMBLK
  1

  9
$DIMASO
 70
1
  9
$DIMSHO
 70
1
  9
$DIMPOST
  1

  9
$DIMAPOST
  1

  9
$DIMALT
 70
0
  9
$DIMALTD
 70
2
  9
$DIMALTF
 40
25.4
  9
$DIMLFAC
 40
1
  9
$DIMTOFL
 70
0
  9
$DIMTVP
 40
0
  9
$DIMTIX
 70
0
  9
$DIMSOXD
 70
0
  9
$DIMSAH
 70
0
  9
$DIMBLK1
  1

  9
$DIMBLK2
  1

  9
$DIMSTYLE
  2
*UNNAMED
  9
$DIMCLRD
 70
0
  9
$DIMCLRE
 70
0
  9
$DIMCLRT
 70
0
  9
$DIMTFAC
 40
1
  9
$DIMGAP
 40
0.09
  9
$LUNITS
 70
2
  9
$LUPREC
 70
4
  9
$AXISMODE
 70
0
  9
$AXISUNIT
 10
0
 20
0
  9
$SKETCHINC
 40
0.1
  9
$FILLETRAD
 40
2
  9
$AUNITS
 70
0
  9
$AUPREC
 70
0
  9
$MENU
  1
ACAD
  9
$ELEVATION
 40
0
  9
$THICKNESS
 40
0
  9
$VIEWDIR
 10
0
 20
0
 30
1
  9
$LIMCHECK
 70
0
  9
$BLIPMODE
 70
1
  9
$CHAMFERA
 40
0
  9
$CHAMFERB
 40
0
  9
$FASTZOOM
 70
1
  9
$SKPOLY
 70
0
  9
$ANGBASE
 50
0
  9
$ANGDIR
 70
0
  9
$PDMODE
 70
0
  9
$PDSIZE
 40
0
  9
$PLINEWID
 40
0
  9
$COORDS
 70
2
  0
ENDSEC
  0
SECTION
  2
TABLES
  0
TABLE
  2
DIMSTYLE
 70
0
  0
ENDTAB
  0
TABLE
  2
LTYPE
 70
9
  0
LTYPE
  2
CONTINUOUS
 70
64
  3
Solid line
 72
65
 73
0
 40
0
  0
LTYPE
  2
BORDER
 70
64
  3
__ __ . __ __ .
 72
65
 73
6
 40
8.838221705907875
 49
2.525206201687964
 49
-1.262603100843982
 49
2.525206201687964
 49
-1.262603100843982
 49
0
 49
-1.262603100843982
  0
LTYPE
  2
CENTER
 70
64
  3
____ _ ____ _
 72
65
 73
4
 40
10.10082480675186
 49
6.313015504219911
 49
-1.262603100843982
 49
1.262603100843982
 49
-1.262603100843982
  0
LTYPE
  2
DASHDOT
 70
64
  3
__ . __ . __ .
 72
65
 73
4
 40
5.050412403375929
 49
2.525206201687964
 49
-1.262603100843982
 49
0
 49
-1.262603100843982
  0
LTYPE
  2
DASHED
 70
64
  3
__ __ __ __ __
 72
65
 73
2
 40
3.787809302531946
 49
2.525206201687964
 49
-1.262603100843982
  0
LTYPE
  2
DIVIDE
 70
64
  3
__ . . __ . . 
 72
65
 73
6
 40
6.313015504219911
 49
2.525206201687964
 49
-1.262603100843982
 49
0
 49
-1.262603100843982
 49
0
 49
-1.262603100843982
  0
LTYPE
  2
DOT
 70
64
  3
..............
 72
65
 73
4
 40
2.525206201687964
 49
0
 49
-1.262603100843982
 49
0
 49
-1.262603100843982
  0
LTYPE
  2
HIDDEN
 70
64
  3
_ _ _ _ _ _ _
 72
65
 73
2
 40
1.893904651265973
 49
1.262603100843982
 49
-0.6313015504219911
  0
LTYPE
  2
PHANTOM
 70
64
  3
_____ _ _ _____ _ _ 
 72
65
 73
6
 40
12.62603100843982
 49
6.313015504219911
 49
-1.262603100843982
 49
1.262603100843982
 49
-1.262603100843982
 49
1.262603100843982
 49
-1.262603100843982
  0
ENDTAB
  0
TABLE
  2
LAYER
 70
3
  0
LAYER
  2
1
 70
0
 62
7
  6
CONTINUOUS
  0
LAYER
  2
0
 70
0
 62
7
  6
CONTINUOUS
  0
ENDTAB
  0
TABLE
  2
STYLE
 70
4
  0
STYLE
  2
STANDARD
 70
0
 40
0
 41
1
 50
0
 71
0
 42
3.5
  3
txt
  4

  0
STYLE
  2
SIMPLEX
 70
0
 40
0
 41
1
 50
0
 71
0
 42
3.5
  3
simplex
  4

  0
STYLE
  2
COMPLEX
 70
0
 40
0
 41
1
 50
0
 71
0
 42
3.5
  3
complex
  4

  0
STYLE
  2
ITALIC
 70
0
 40
0
 41
1
 50
0
 71
0
 42
3.5
  3
italic
  4

  0
ENDTAB
  0
TABLE
  2
VIEW
 70
0
  0
ENDTAB
  0
ENDSEC
  0
SECTION
  2
BLOCKS
  0
ENDSEC
  0
SECTION
  2
ENTITIES
  0
LINE
  8
1
 62
7
 10
-38.24900000000006
 20
32.75
 30
0
 11
-38.249
 21
24.5454813220625
 31
0
  0
LINE
  8
1
 62
7
 10
-38.24900000000006
 20
32.75
 30
0
 11
-38.64900000000002
 21
32.75
 31
0
  0
LINE
  8
1
 62
7
 10
-38.24900000000006
 20
23
 30
0
 11
-38.64900000000004
 21
23
 31
0
  0
LINE
  8
1
 62
7
 10
-38.64900000000002
 20
-33.5
 30
0
 11
-38.64900000000002
 21
33.5
 31
0
  0
LINE
  8
1
 62
7
 10
-59.24884553399658
 20
-42.5
 30
0
 11
-59.24884553399656
 21
31
 31
0
  0
LINE
  8
1
 62
7
 10
-54.04884553399665
 20
32.80908465674332
 30
0
 11
-54.04884553399663
 21
54.74310680686226
 31
0
  0
LINE
  8
1
 62
7
 10
-52.44884553399663
 20
33
 30
0
 11
-52.4488455339966
 21
54.74310680686226
 31
0
  0
LINE
  8
1
 62
7
 10
-52.4488455339966
 20
54.74310680686226
 30
0
 11
-54.04884553399663
 21
54.74310680686226
 31
0
  0
LINE
  8
1
 62
7
 10
6.999845533996634
 20
32.8866772150146
 30
0
 11
6.999845533996634
 21
54.7431068068623
 31
0
  0
LINE
  8
1
 62
7
 10
8.599845533996657
 20
54.7431068068623
 30
0
 11
6.999845533996634
 21
54.7431068068623
 31
0
  0
LINE
  8
1
 62
7
 10
22.39984553399664
 20
23
 30
0
 11
22.39984553399664
 21
33.5
 31
0
  0
LINE
  8
1
 62
7
 10
22.39984553399664
 20
-26.24999999999999
 30
0
 11
22.39984553399664
 21
-33.5
 31
0
  0
LINE
  8
1
 62
7
 10
1.799845533996702
 20
31
 30
0
 11
1.799845533996702
 21
-42.5
 31
0
  0
LINE
  8
1
 62
7
 10
94.04884553399663
 20
54.74310680686227
 30
0
 11
94.04884553399663
 21
33.5
 31
0
  0
LINE
  8
1
 62
7
 10
125.0488455339965
 20
-12.69842509920048
 30
0
 11
125.0488455339966
 21
-29.07318352021328
 31
0
  0
LINE
  8
1
 62
7
 10
81.35042043479635
 20
-31.00000000000001
 30
0
 11
64.97566201378334
 21
-31.00000000000001
 31
0
  0
LINE
  8
1
 62
7
 10
63.04884553399663
 20
12.69842509920028
 30
0
 11
63.04884553399663
 21
29.07318352021326
 31
0
  0
LINE
  8
1
 62
7
 10
106.7472706331969
 20
31
 30
0
 11
123.1220290542098
 21
31
 31
0
  0
LINE
  8
1
 62
3
  6
DASHDOT
 10
-62.08104855841932
 20
-37.5
 30
0
 11
-58.14722604871181
 21
-37.5
 31
0
  0
LINE
  8
1
 62
3
  6
DASHDOT
 10
65.05910300633732
 20
28.98974252765933
 30
0
 11
70.01521385730155
 21
24.03363167669508
 31
0
  0
LINE
  8
1
 62
3
  6
DASHDOT
 10
65.04688772012915
 20
-29.00195781386744
 30
0
 11
69.79649395230322
 21
-24.25235158169338
 31
0
  0
LINE
  8
1
 62
3
  6
DASHDOT
 10
118.2684597812724
 20
-24.21961424727583
 30
0
 11
123.2245706322365
 21
-29.17572509824001
 31
0
  0
LINE
  8
1
 62
3
  6
DASHDOT
 10
118.2562444950643
 20
24.20739896106772
 30
0
 11
123.3500250918886
 21
29.301179557892
 31
0
  0
LINE
  8
1
 62
7
 10
95.04909678717621
 20
56.54946380579725
 30
0
 11
95.04909678717621
 21
54.74310680686227
 31
0
  0
LINE
  8
1
 62
7
 10
94.53146785261512
 20
56.54946380579725
 30
0
 11
94.53146785261512
 21
54.74310680686227
 31
0
  0
LINE
  8
1
 62
7
 10
93.17269189939222
 20
56.54946380579725
 30
0
 11
93.17269189939222
 21
54.74310680686227
 31
0
  0
LINE
  8
1
 62
7
 10
93.65796902554331
 20
56.58181561420736
 30
0
 11
93.65796902554331
 21
54.74310680686227
 31
0
  0
LINE
  8
1
 62
7
 10
64.97566201378334
 20
31
 30
0
 11
81.35042043479635
 21
31
 31
0
  0
LINE
  8
1
 62
7
 10
125.0488455339966
 20
29.07318352021326
 30
0
 11
125.0488455339966
 21
12.69842509920028
 31
0
  0
LINE
  8
1
 62
7
 10
123.1220290542098
 20
-31.00000000000001
 30
0
 11
106.5886827158327
 21
-31.00000000000001
 31
0
  0
LINE
  8
1
 62
7
 10
63.04884553399663
 20
-29.07318352021326
 30
0
 11
63.04884553399663
 21
-12.69842509920031
 31
0
  0
LINE
  8
1
 62
7
 10
95.64884553399662
 20
54.74310680686227
 30
0
 11
95.64884553399662
 21
33.46176922997347
 31
0
  0
LINE
  8
1
 62
7
 10
92.44884553399652
 20
54.74310680686227
 30
0
 11
95.64884553399662
 21
54.74310680686227
 31
0
  0
LINE
  8
1
 62
7
 10
92.44884553399652
 20
54.74310680686227
 30
0
 11
92.44884553399652
 21
33.46176922997347
 31
0
  0
LINE
  8
1
 62
7
 10
92.72606372946373
 20
54.74310680686227
 30
0
 11
92.72606372946373
 21
56.58181561420736
 31
0
  0
LINE
  8
1
 62
7
 10
95.48943312395673
 20
54.74310680686227
 30
0
 11
95.48943312395673
 21
56.56802242797517
 31
0
  0
LINE
  8
1
 62
7
 10
-53.38621140066413
 20
56.24212162590172
 30
0
 11
-53.38621140066413
 21
54.7431068068623
 31
0
  0
LINE
  8
1
 62
7
 10
-53.06592849740445
 20
56.21300499833262
 30
0
 11
-53.06592849740445
 21
54.7431068068623
 31
0
  0
LINE
  8
1
 62
7
 10
-52.80387884928288
 20
56.18388837076346
 30
0
 11
-52.80387884928288
 21
54.74310680686226
 31
0
  0
LINE
  8
1
 62
7
 10
-53.64826104878566
 20
56.21300499833255
 30
0
 11
-53.64826104878566
 21
54.74310680686226
 31
0
  0
LINE
  8
1
 62
7
 10
-41.84900000000002
 20
33
 30
0
 11
-41.84900000000002
 21
-33
 31
0
  0
LINE
  8
1
 62
7
 10
-61.04884553399665
 20
-42.5
 30
0
 11
-59.24884553399658
 21
-42.5
 31
0
  0
LINE
  8
1
 62
7
 10
-61.04884553399663
 20
31
 30
0
 11
-59.24884553399656
 21
31
 31
0
  0
LINE
  8
1
 62
7
 10
-61.04884553399663
 20
31
 30
0
 11
-61.04884553399665
 21
-42.5
 31
0
  0
LINE
  8
1
 62
7
 10
-52.74999999999999
 20
-33
 30
0
 11
-41.84900000000002
 21
-33
 31
0
  0
LINE
  8
1
 62
7
 10
-36.949
 20
26
 30
0
 11
-36.64900000000004
 21
26.30000000000001
 31
0
  0
LINE
  8
1
 62
7
 10
-36.94900000000001
 20
32
 30
0
 11
-36.64900000000004
 21
31.70000000000002
 31
0
  0
LINE
  8
1
 62
7
 10
-38.24900000000006
 20
32
 30
0
 11
-36.94900000000001
 21
32
 31
0
  0
LINE
  8
1
 62
7
 10
-37.749
 20
26
 30
0
 11
-37.74900000000006
 21
32
 31
0
  0
LINE
  8
1
 62
7
 10
-38.249
 20
26
 30
0
 11
-36.949
 21
26
 31
0
  0
LINE
  8
1
 62
7
 10
-36.64900000000004
 20
31.70000000000002
 30
0
 11
-36.64900000000004
 21
26.30000000000001
 31
0
  0
LINE
  8
1
 62
7
 10
-41.64900000000004
 20
-33.5
 30
0
 11
-38.64900000000002
 21
-33.5
 31
0
  0
LINE
  8
1
 62
7
 10
-41.64900000000004
 20
33.5
 30
0
 11
-41.64900000000004
 21
-33.5
 31
0
  0
LINE
  8
1
 62
7
 10
-38.24900000000006
 20
23
 30
0
 11
-38.249
 21
-32.75
 31
0
  0
LINE
  8
1
 62
7
 10
-41.64900000000004
 20
33.5
 30
0
 11
-38.64900000000002
 21
33.5
 31
0
  0
LINE
  8
1
 62
7
 10
-38.249
 20
24.5454813220625
 30
0
 11
-37.84899999999998
 21
23.103527618041
 31
0
  0
LINE
  8
1
 62
7
 10
-38.249
 20
24.5454813220625
 30
0
 11
-37.84899999999998
 21
23.103527618041
 31
0
  0
LINE
  8
1
 62
7
 10
-38.24900000000006
 20
23
 30
0
 11
-38.64900000000002
 21
24.4928203230275
 31
0
  0
LINE
  8
1
 62
7
 10
-38.249
 20
-32.75
 30
0
 11
-37.84899999999999
 21
-32.75
 31
0
  0
LINE
  8
1
 62
7
 10
-37.84899999999999
 20
-26.49999999999999
 30
0
 11
-36.54900000000001
 21
-26.5
 31
0
  0
LINE
  8
1
 62
7
 10
-37.849
 20
-19.5
 30
0
 11
-36.54900000000001
 21
-19.5
 31
0
  0
LINE
  8
1
 62
3
  6
DASHDOT
 10
-61.04884553399665
 20
0
 30
0
 11
-64.3668257942887
 21
0
 31
0
  0
LINE
  8
1
 62
3
  6
DASHDOT
 10
18.91121713640739
 20
-22.99999999999999
 30
0
 11
31.21316310989975
 21
-22.99999999999999
 31
0
  0
LINE
  8
1
 62
7
 10
22.79984553399665
 20
-17.99999999999999
 30
0
 11
23.19984553399665
 21
-17.99999999999999
 31
0
  0
LINE
  8
1
 62
7
 10
23.19984553399664
 20
-24.5
 30
0
 11
23.19984553399665
 21
-32.75
 31
0
  0
LINE
  8
1
 62
7
 10
22.79984553399665
 20
-32.75
 30
0
 11
23.19984553399665
 21
-32.75
 31
0
  0
LINE
  8
1
 62
7
 10
19.39984553399664
 20
-26.24999999999999
 30
0
 11
22.39984553399664
 21
-26.24999999999999
 31
0
  0
LINE
  8
1
 62
7
 10
19.39984553399664
 20
-19.74999999999999
 30
0
 11
22.79984553399665
 21
-19.74999999999999
 31
0
  0
LINE
  8
1
 62
7
 10
22.39984553399664
 20
25.25
 30
0
 11
22.79984553399665
 21
25.25
 31
0
  0
LINE
  8
1
 62
7
 10
22.79984553399665
 20
23
 30
0
 11
22.39984553399664
 21
24.4928203230275
 31
0
  0
LINE
  8
1
 62
7
 10
23.19984553399665
 20
18
 30
0
 11
22.79984553399665
 21
18
 31
0
  0
LINE
  8
1
 62
7
 10
23.19984553399664
 20
-21.5
 30
0
 11
23.19984553399664
 21
-16.00000000000001
 31
0
  0
LINE
  8
1
 62
7
 10
22.79984553399665
 20
24.5454813220625
 30
0
 11
23.19984553399665
 21
23.103527618041
 31
0
  0
LINE
  8
1
 62
7
 10
22.79984553399665
 20
24.5454813220625
 30
0
 11
23.19984553399665
 21
23.103527618041
 31
0
  0
LINE
  8
1
 62
7
 10
22.79984553399665
 20
32.75
 30
0
 11
22.79984553399665
 21
24.5454813220625
 31
0
  0
LINE
  8
1
 62
7
 10
22.39984553399664
 20
32.75
 30
0
 11
22.79984553399665
 21
32.75
 31
0
  0
LINE
  8
1
 62
7
 10
22.39984553399664
 20
32.75
 30
0
 11
22.79984553399665
 21
32.75
 31
0
  0
LINE
  8
1
 62
7
 10
22.39984553399664
 20
32.75
 30
0
 11
22.79984553399665
 21
32.75
 31
0
  0
LINE
  8
1
 62
7
 10
19.39984553399664
 20
33.5
 30
0
 11
22.39984553399664
 21
33.5
 31
0
  0
LINE
  8
1
 62
7
 10
22.39984553399664
 20
23
 30
0
 11
22.79984553399665
 21
23
 31
0
  0
LINE
  8
1
 62
7
 10
22.79984553399665
 20
23
 30
0
 11
22.79984553399665
 21
16
 31
0
  0
LINE
  8
1
 62
7
 10
19.39984553399664
 20
33.5
 30
0
 11
19.39984553399664
 21
16
 31
0
  0
LINE
  8
1
 62
7
 10
19.39984553399664
 20
17.5
 30
0
 11
22.79984553399665
 21
17.5
 31
0
  0
LINE
  8
1
 62
7
 10
19.39984553399664
 20
-33.5
 30
0
 11
22.39984553399664
 21
-33.5
 31
0
  0
LINE
  8
1
 62
7
 10
19.39984553399664
 20
-17.49999999999999
 30
0
 11
22.79984553399665
 21
-17.49999999999999
 31
0
  0
LINE
  8
1
 62
7
 10
24.39984553399664
 20
31.70000000000002
 30
0
 11
24.39984553399664
 21
26.30000000000001
 31
0
  0
LINE
  8
1
 62
7
 10
22.79984553399665
 20
26
 30
0
 11
24.09984553399663
 21
26
 31
0
  0
LINE
  8
1
 62
7
 10
23.29984553399665
 20
26
 30
0
 11
23.29984553399665
 21
32
 31
0
  0
LINE
  8
1
 62
7
 10
22.79984553399665
 20
32
 30
0
 11
24.09984553399663
 21
32
 31
0
  0
LINE
  8
1
 62
7
 10
24.09984553399663
 20
32
 30
0
 11
24.39984553399664
 21
31.70000000000002
 31
0
  0
LINE
  8
1
 62
7
 10
24.09984553399663
 20
26
 30
0
 11
24.39984553399664
 21
26.30000000000001
 31
0
  0
LINE
  8
1
 62
7
 10
8.298691067993289
 20
-33.00000000000009
 30
0
 11
19.19984553399664
 21
-33
 31
0
  0
LINE
  8
1
 62
7
 10
-0.0001544660033658829
 20
-35.25
 30
0
 11
1.799845533996702
 21
-35.25
 31
0
  0
LINE
  8
1
 62
7
 10
-0.0001544660033658829
 20
-17.49999999999999
 30
0
 11
1.799845533996702
 21
-17.49999999999999
 31
0
  0
LINE
  8
1
 62
7
 10
-0.0001544660033658829
 20
17.5
 30
0
 11
1.799845533996702
 21
17.5
 31
0
  0
LINE
  8
1
 62
7
 10
-0.0001544660033658829
 20
31
 30
0
 11
-0.0001544660033658829
 21
-42.5
 31
0
  0
LINE
  8
1
 62
7
 10
-0.0001544660033658829
 20
31
 30
0
 11
1.799845533996702
 21
31
 31
0
  0
LINE
  8
1
 62
7
 10
-0.0001544660033658829
 20
-42.5
 30
0
 11
1.799845533996702
 21
-42.5
 31
0
  0
LINE
  8
1
 62
3
  6
DASHDOT
 10
-1.33345812523423
 20
-37.5
 30
0
 11
3.456865356987194
 21
-37.5
 31
0
  0
LINE
  8
1
 62
7
 10
4.571054728596167
 20
18.10000000000002
 30
0
 11
19.19984553399664
 21
18.10000000000002
 31
0
  0
LINE
  8
1
 62
7
 10
19.19984553399664
 20
-18.09999999999999
 30
0
 11
4.571054728596167
 21
-18.09999999999999
 31
0
  0
LINE
  8
1
 62
7
 10
19.19984553399664
 20
33
 30
0
 11
19.19984553399664
 21
16
 31
0
  0
LINE
  8
1
 62
7
 10
7.400430019207605
 20
56.21300499833262
 30
0
 11
7.400430019207605
 21
54.7431068068623
 31
0
  0
LINE
  8
1
 62
7
 10
8.244812218710379
 20
56.18388837076353
 30
0
 11
8.244812218710379
 21
54.7431068068623
 31
0
  0
LINE
  8
1
 62
7
 10
7.982762570588832
 20
56.21300499833262
 30
0
 11
7.982762570588832
 21
54.7431068068623
 31
0
  0
LINE
  8
1
 62
7
 10
7.662479667329151
 20
56.24212162590172
 30
0
 11
7.662479667329151
 21
54.7431068068623
 31
0
  0
LINE
  8
1
 62
7
 10
8.599845533996657
 20
54.7431068068623
 30
0
 11
8.599845533996657
 21
33
 31
0
  0
LINE
  8
1
 62
7
 10
19.19984553399664
 20
33
 30
0
 11
8.298691067993289
 21
33
 31
0
  0
LINE
  8
1
 62
3
  6
DASHDOT
 10
-0.0001544660033658829
 20
0
 30
0
 11
-2.911438899145949
 21
0
 31
0
  0
LINE
  8
1
 62
7
 10
-0.0001544660033658829
 20
-39.75
 30
0
 11
1.799845533996702
 21
-39.75
 31
0
  0
LINE
  8
1
 62
7
 10
12.99984553399663
 20
-13.00000000000001
 30
0
 11
12.99984553399663
 21
13
 31
0
  0
LINE
  8
1
 62
7
 10
21.84425426934693
 20
-20
 30
0
 11
22.29984553399653
 21
-20
 31
0
  0
LINE
  8
1
 62
7
 10
21.84425426934693
 20
-20
 30
0
 11
21.54425426934704
 21
-20.30000000000001
 31
0
  0
LINE
  8
1
 62
7
 10
22.29984553399663
 20
-26
 30
0
 11
21.84425426934703
 21
-26
 31
0
  0
LINE
  8
1
 62
7
 10
21.84425426934703
 20
-26
 30
0
 11
21.54425426934704
 21
-25.70000000000002
 31
0
  0
LINE
  8
1
 62
7
 10
21.54425426934704
 20
-25.70000000000002
 30
0
 11
21.54425426934704
 21
-20.30000000000001
 31
0
  0
LINE
  8
1
 62
7
 10
22.29984553399653
 20
-20
 30
0
 11
22.29984553399663
 21
-26
 31
0
  0
LINE
  8
1
 62
7
 10
24.48007385897499
 20
13.80000000000001
 30
0
 11
27.99984553399662
 21
13.79999999999998
 31
0
  0
LINE
  8
1
 62
7
 10
27.99984553399662
 20
16.20000000000002
 30
0
 11
24.49984553399662
 21
16.20000000000002
 31
0
  0
LINE
  8
1
 62
3
  6
DASHDOT
 10
28.69984553399665
 20
15
 30
0
 11
23.79984553399663
 21
15
 31
0
  0
LINE
  8
1
 62
3
 10
24.36584231705449
 20
13.5
 30
0
 11
27.99984553399662
 21
13.5
 31
0
  0
LINE
  8
1
 62
3
 10
27.99984553399662
 20
16.5
 30
0
 11
24.49984553399662
 21
16.5
 31
0
  0
LINE
  8
1
 62
7
 10
24.49984553399663
 20
28
 30
0
 11
24.49984553399662
 21
14
 31
0
  0
LINE
  8
1
 62
7
 10
27.99984553399663
 20
28
 30
0
 11
27.99984553399663
 21
-28.00000000000001
 31
0
  0
LINE
  8
1
 62
7
 10
27.99984553399663
 20
-25.99999999999999
 30
0
 11
26.49984553399663
 21
-24.49999999999999
 31
0
  0
LINE
  8
1
 62
7
 10
26.49984553399663
 20
-21.5
 30
0
 11
26.49984553399663
 21
-24.49999999999999
 31
0
  0
LINE
  8
1
 62
7
 10
26.49984553399663
 20
-21.5
 30
0
 11
27.99984553399663
 21
-20
 31
0
  0
LINE
  8
1
 62
7
 10
12.99984553399663
 20
-6
 30
0
 11
27.99984553399663
 21
-6
 31
0
  0
LINE
  8
1
 62
7
 10
12.99984553399663
 20
7.5
 30
0
 11
27.99984553399663
 21
7.5
 31
0
  0
LINE
  8
1
 62
7
 10
27.99984553399663
 20
-28.00000000000001
 30
0
 11
24.49984553399663
 21
-28.00000000000001
 31
0
  0
LINE
  8
1
 62
7
 10
27.99984553399663
 20
-28.00000000000001
 30
0
 11
24.49984553399663
 21
-28.00000000000001
 31
0
  0
LINE
  8
1
 62
7
 10
27.99984553399663
 20
-28.00000000000001
 30
0
 11
24.49984553399663
 21
-28.00000000000001
 31
0
  0
LINE
  8
1
 62
7
 10
23.49984553399663
 20
-13
 30
0
 11
12.99984553399663
 21
-13.00000000000001
 31
0
  0
LINE
  8
1
 62
7
 10
23.49984553399663
 20
-13
 30
0
 11
12.99984553399663
 21
-13.00000000000001
 31
0
  0
LINE
  8
1
 62
7
 10
24.49984553399663
 20
-28.00000000000001
 30
0
 11
24.49984553399663
 21
-24.5
 31
0
  0
LINE
  8
1
 62
7
 10
96.04884553399663
 20
7.5
 30
0
 11
96.04884553399663
 21
5.656854249492369
 31
0
  0
LINE
  8
1
 62
7
 10
92.04884553399663
 20
7.5
 30
0
 11
96.04884553399663
 21
7.5
 31
0
  0
LINE
  8
1
 62
7
 10
92.04884553399663
 20
5.656854249492369
 30
0
 11
92.04884553399663
 21
7.5
 31
0
  0
LINE
  8
1
 62
7
 10
12.99984553399663
 20
13
 30
0
 11
23.49984553399663
 21
13
 31
0
  0
LINE
  8
1
 62
7
 10
23.19984553399664
 20
-26.5
 30
0
 11
24.49984553399663
 21
-26.5
 31
0
  0
LINE
  8
1
 62
3
  6
DASHDOT
 10
97.46077478423274
 20
0
 30
0
 11
90.63691628376043
 21
0
 31
0
  0
LINE
  8
1
 62
3
  6
DASHDOT
 10
94.04884553399663
 20
3.411929250236142
 30
0
 11
94.04884553399663
 21
-3.411929250236142
 31
0
  0
LINE
  8
1
 62
7
 10
-33.04899999999999
 20
-28.00000000000001
 30
0
 11
-36.54899999999999
 21
-28.00000000000001
 31
0
  0
LINE
  8
1
 62
7
 10
-33.04899999999999
 20
-28.00000000000001
 30
0
 11
-36.54899999999999
 21
-28.00000000000001
 31
0
  0
LINE
  8
1
 62
7
 10
-33.04899999999999
 20
-28.00000000000001
 30
0
 11
-36.54899999999999
 21
-28.00000000000001
 31
0
  0
LINE
  8
1
 62
7
 10
-36.54899999999999
 20
28
 30
0
 11
-33.04899999999999
 21
28
 31
0
  0
LINE
  8
1
 62
3
  6
DASHDOT
 10
-33.04899999999999
 20
0
 30
0
 11
-30.81093263330785
 21
0
 31
0
  0
LINE
  8
1
 62
7
 10
27.99984553399663
 20
6
 30
0
 11
12.99984553399663
 21
6
 31
0
  0
LINE
  8
1
 62
7
 10
26.49984553399663
 20
-21.5
 30
0
 11
22.79984553399653
 21
-21.5
 31
0
  0
LINE
  8
1
 62
7
 10
26.49984553399663
 20
-24.49999999999999
 30
0
 11
22.79984553399653
 21
-24.49999999999999
 31
0
  0
LINE
  8
1
 62
7
 10
22.79984553399653
 20
-20.25
 30
0
 11
22.29984553399653
 21
-20.25
 31
0
  0
LINE
  8
1
 62
7
 10
22.79984553399653
 20
-25.75
 30
0
 11
22.29984553399653
 21
-25.75
 31
0
  0
LINE
  8
1
 62
7
 10
24.49984553399663
 20
-19.5
 30
0
 11
23.19984553399664
 21
-19.5
 31
0
  0
LINE
  8
1
 62
7
 10
24.49984553399663
 20
28
 30
0
 11
27.99984553399663
 21
28
 31
0
  0
LINE
  8
1
 62
7
 10
-33.04899999999999
 20
-28.00000000000001
 30
0
 11
-33.04899999999999
 21
28
 31
0
  0
LINE
  8
1
 62
7
 10
-36.54899999999999
 20
28
 30
0
 11
-36.54899999999999
 21
-28.00000000000001
 31
0
  0
LINE
  8
1
 62
7
 10
-37.84899999999999
 20
-32.75
 30
0
 11
-37.84899999999998
 21
23.103527618041
 31
0
  0
LINE
  8
1
 62
7
 10
-52.44884553399663
 20
33
 30
0
 11
-41.84900000000002
 21
33
 31
0
  0
LINE
  8
1
 62
7
 10
22.79984553399665
 20
-16.00000000000001
 30
0
 11
22.79984553399665
 21
-32.75
 31
0
  0
LINE
  8
1
 62
7
 10
19.39984553399664
 20
-16.00000000000001
 30
0
 11
19.39984553399664
 21
-33.5
 31
0
  0
LINE
  8
1
 62
7
 10
19.19984553399664
 20
-16.00000000000001
 30
0
 11
19.19984553399664
 21
-33
 31
0
  0
LINE
  8
1
 62
7
 10
23.19984553399665
 20
16
 30
0
 11
23.19984553399665
 21
23.103527618041
 31
0
  0
LINE
  8
1
 62
7
 10
24.49984553399663
 20
-21.5
 30
0
 11
24.49984553399663
 21
-14
 31
0
  0
LINE
  8
1
 62
7
 10
-37.54900000000001
 20
13
 30
0
 11
-37.84899999999998
 21
13
 31
0
  0
LINE
  8
1
 62
7
 10
-37.54900000000001
 20
-13
 30
0
 11
-37.84899999999999
 21
-13.00000000000001
 31
0
  0
LINE
  8
1
 62
3
  6
DASHDOT
 10
27.99984553399663
 20
0
 30
0
 11
30.23791290068878
 21
0
 31
0
  0
ARC
  8
1
 62
7
 10
8.298691067993289
 20
25.5
 30
0
 40
7.5
 50
90
 51
150.055891598348
  0
ARC
  8
1
 62
7
 10
-52.74999999999999
 20
-25.50000000000009
 30
0
 40
7.499999999999953
 50
209.9441084016519
 51
270
  0
ARC
  8
1
 62
7
 10
-52.44884553399657
 20
26.20000000000002
 30
0
 40
6.799999999999979
 50
90
 51
180
  0
ARC
  8
1
 62
7
 10
7.298691067993289
 20
24
 30
0
 40
6.499999999999957
 50
212.2233171691943
 51
245.1883684974294
  0
ARC
  8
1
 62
7
 10
8.298691067993289
 20
-25.50000000000009
 30
0
 40
7.499999999999953
 50
209.9441084016519
 51
270
  0
ARC
  8
1
 62
7
 10
7.298691067993289
 20
-23.99999999999999
 30
0
 40
6.499999999999979
 50
114.8116315025706
 51
147.7766828308066
  0
ARC
  8
1
 62
3
  6
DASHDOT
 10
94.04884553399663
 20
0
 30
0
 40
37.49999999999995
 50
37.55627180849746
 51
52.73283636466111
  0
ARC
  8
1
 62
3
  6
DASHDOT
 10
94.04884553399663
 20
0
 30
0
 40
37.5
 50
307.1825371100608
 51
322.2032419599133
  0
ARC
  8
1
 62
3
  6
DASHDOT
 10
94.04884553399663
 20
0
 30
0
 40
37.50000000000006
 50
217.6284581497313
 51
232.2886149291685
  0
ARC
  8
1
 62
3
  6
DASHDOT
 10
94.04884553399663
 20
0
 30
0
 40
37.50000000000005
 50
126.2492675313012
 51
143.5837302353993
  0
ARC
  8
1
 62
7
 10
63.45464741532325
 20
17.66356851945676
 30
0
 40
6.858664189549486
 50
309.5480691665329
 51
350.4519308334677
  0
ARC
  8
1
 62
7
 10
124.6430436526699
 20
17.66356851945676
 30
0
 40
6.85866418954948
 50
189.548069166532
 51
230.4519308334678
  0
ARC
  8
1
 62
7
 10
94.04884553399663
 20
-35.32713703891358
 30
0
 40
6.858664189549454
 50
69.5480691665323
 51
110.4519308334684
  0
ARC
  8
1
 62
7
 10
94.04884553399663
 20
0
 30
0
 40
32.75000000000004
 50
299.9999999999999
 51
359.9999999999999
  0
ARC
  8
1
 62
7
 10
94.04884553399663
 20
0
 30
0
 40
32.75000000000003
 50
180
 51
239.9999999999999
  0
ARC
  8
1
 62
7
 10
94.04884553399663
 20
0
 30
0
 40
32.74999999999999
 50
60.00000000000005
 51
65.00000000000007
  0
ARC
  8
1
 62
7
 10
94.04884553399663
 20
0
 30
0
 40
32.74999999999999
 50
60.00000000000005
 51
120
  0
ARC
  8
1
 62
7
 10
102.9238455339966
 20
15.37195091717382
 30
0
 40
14.99999999999997
 50
4.412072413355371
 51
59.99999999999994
  0
ARC
  8
1
 62
7
 10
111.7988455339966
 20
0
 30
0
 40
15
 50
359.9999999999998
 51
55.58792758664443
  0
ARC
  8
1
 62
7
 10
85.17384553399663
 20
-15.37195091717378
 30
0
 40
15.00000000000001
 50
239.9999999999999
 51
295.5879275866442
  0
ARC
  8
1
 62
7
 10
102.9238455339966
 20
-15.37195091717381
 30
0
 40
14.99999999999999
 50
244.4120724133555
 51
299.9999999999999
  0
ARC
  8
1
 62
7
 10
76.29884553399663
 20
0
 30
0
 40
15
 50
124.4120724133555
 51
180.0000000000001
  0
ARC
  8
1
 62
7
 10
94.04884553399663
 20
0
 30
0
 40
42.5
 50
223.1628971402917
 51
226.8371028597084
  0
ARC
  8
1
 62
7
 10
94.04884553399663
 20
0
 30
0
 40
42.50000000000001
 50
133.1628971402917
 51
136.8371028597083
  0
ARC
  8
1
 62
7
 10
94.04884553399663
 20
0
 30
0
 40
42.49999999999998
 50
43.16289714029168
 51
46.83710285970842
  0
ARC
  8
1
 62
7
 10
94.04884553399663
 20
0
 30
0
 40
42.49999999999995
 50
313.1628971402916
 51
316.8371028597083
  0
ARC
  8
1
 62
7
 10
85.17384553399663
 20
15.37195091717379
 30
0
 40
15
 50
120
 51
175.5879275866446
  0
ARC
  8
1
 62
7
 10
23.49984553399663
 20
-14
 30
0
 40
1
 50
0
 51
90
  0
ARC
  8
1
 62
7
 10
23.49984553399663
 20
14
 30
0
 40
1
 50
270
 51
0
  0
ARC
  8
1
 62
7
 10
-37.54900000000001
 20
-14
 30
0
 40
1
 50
0
 51
90
  0
ARC
  8
1
 62
7
 10
-37.54900000000001
 20
14
 30
0
 40
1
 50
270
 51
0
  0
ARC
  8
1
 62
7
 10
94.04884553399663
 20
0
 30
0
 40
5.999999999999989
 50
109.4712206344907
 51
70.52877936550928
  0
ARC
  8
1
 62
7
 10
94.04884553399663
 20
29
 30
0
 40
3.000000000000058
 50
337.7090296252414
 51
202.2909703747594
  0
ARC
  8
1
 62
7
 10
68.93410882424792
 20
-14.49999999999999
 30
0
 40
2.999999999999998
 50
97.70902962524124
 51
322.2909703747586
  0
ARC
  8
1
 62
7
 10
119.1635822437453
 20
-14.50000000000001
 30
0
 40
2.999999999999998
 50
217.7090296252412
 51
82.29097037475795
  0
CIRCLE
  8
1
 62
7
 10
94.04884553399663
 20
0
 30
0
 40
33.49999999999997
  0
CIRCLE
  8
1
 62
7
 10
120.5653498284921
 20
26.51650429449552
 30
0
 40
2.25
  0
CIRCLE
  8
1
 62
7
 10
67.53234123950105
 20
26.51650429449552
 30
0
 40
2.25
  0
CIRCLE
  8
1
 62
7
 10
67.53234123950105
 20
-26.51650429449555
 30
0
 40
2.25
  0
CIRCLE
  8
1
 62
7
 10
120.5653498284921
 20
-26.51650429449555
 30
0
 40
2.25
  0
CIRCLE
  8
1
 62
3
 10
83.44224381619841
 20
-10.60660171779821
 30
0
 40
1.5
  0
CIRCLE
  8
1
 62
7
 10
83.44224381619841
 20
-10.60660171779821
 30
0
 40
1.199999999999989
  0
CIRCLE
  8
1
 62
3
 10
104.6554472517948
 20
10.60660171779821
 30
0
 40
1.5
  0
CIRCLE
  8
1
 62
7
 10
104.6554472517948
 20
10.60660171779821
 30
0
 40
1.199999999999903
  0
CIRCLE
  8
1
 62
7
 10
94.04884553399654
 20
-23
 30
0
 40
1.599999999999966
  0
CIRCLE
  8
1
 62
7
 10
94.04884553399654
 20
-23
 30
0
 40
3
  0
CIRCLE
  8
1
 62
7
 10
74.13026124695452
 20
11.5
 30
0
 40
1.599999999999994
  0
CIRCLE
  8
1
 62
7
 10
74.13026124695452
 20
11.5
 30
0
 40
3
  0
CIRCLE
  8
1
 62
7
 10
113.9674298210386
 20
11.5
 30
0
 40
3
  0
CIRCLE
  8
1
 62
7
 10
113.9674298210386
 20
11.5
 30
0
 40
1.599999999999994
  0
CIRCLE
  8
1
 62
7
 10
94.04884553399663
 20
0
 30
0
 40
27.99999999999997
  0
TEXT
  8
1
 62
7
 10
-60.40832292415809
 20
77.33784036927715
 30
0
 40
3
  1
TMB-0.6HI
 41
0.9
  7
SIMPLEX
  0
TEXT
  8
1
 62
7
 10
-60.40832292415809
 20
72.08784036927715
 30
0
 40
3
  1
DC1707
 41
0.9
  7
SIMPLEX
  0
ENDSEC
  0
EOF
