  0
SECTION
  2
HEADER
  9
$ACADVER
  1
AC1009
  9
$INSBASE
 10
0
 20
0
  9
$EXTMIN
 10
-79.55426315811575
 20
-55
  9
$EXTMAX
 10
160.5491156368265
 20
100.3814676058388
  9
$LIMMIN
 10
-79.55426315811575
 20
-55
  9
$LIMMAX
 10
160.5491156368265
 20
100.3814676058388
  9
$VIEWCTR
 10
10
 20
10
  9
$VIEWSIZE
 40
10
  9
$SNAPMODE
 70
0
  9
$SNAPUNIT
 10
1
 20
1
  9
$SNAPBASE
 10
0
 20
0
  9
$SNAPANG
 50
0
  9
$SNAPSTYLE
 70
0
  9
$SNAPISOPAIR
 70
0
  9
$GRIDMODE
 70
0
  9
$GRIDUNIT
 10
0
 20
0
  9
$ORTHOMODE
 70
0
  9
$REGENMODE
 70
1
  9
$FILLMODE
 70
1
  9
$QTEXTMODE
 70
0
  9
$DRAGMODE
 70
2
  9
$LTSCALE
 40
1
  9
$OSMODE
 70
0
  9
$ATTMODE
 70
1
  9
$TEXTSIZE
 40
3.5
  9
$TRACEWID
 40
0.5
  9
$TEXTSTYLE
  7
STANDARD
  9
$CLAYER
  8
0
  9
$CELTYPE
  6
BYLAYER
  9
$CECOLOR
 62
256
  9
$DIMSCALE
 40
1
  9
$DIMASZ
 40
0.18
  9
$DIMEXO
 40
0.0625
  9
$DIMDLI
 40
0.38
  9
$DIMRND
 40
0
  9
$DIMDLE
 40
0
  9
$DIMEXE
 40
0.18
  9
$DIMTP
 40
0
  9
$DIMTM
 40
0
  9
$DIMTXT
 40
0.18
  9
$DIMCEN
 40
0.09
  9
$DIMTSZ
 40
0
  9
$DIMTOL
 70
0
  9
$DIMLIM
 70
0
  9
$DIMTIH
 70
1
  9
$DIMTOH
 70
1
  9
$DIMSE1
 70
0
  9
$DIMSE2
 70
0
  9
$DIMTAD
 70
0
  9
$DIMZIN
 70
0
  9
$DIMBLK
  1

  9
$DIMASO
 70
1
  9
$DIMSHO
 70
1
  9
$DIMPOST
  1

  9
$DIMAPOST
  1

  9
$DIMALT
 70
0
  9
$DIMALTD
 70
2
  9
$DIMALTF
 40
25.4
  9
$DIMLFAC
 40
1
  9
$DIMTOFL
 70
0
  9
$DIMTVP
 40
0
  9
$DIMTIX
 70
0
  9
$DIMSOXD
 70
0
  9
$DIMSAH
 70
0
  9
$DIMBLK1
  1

  9
$DIMBLK2
  1

  9
$DIMSTYLE
  2
*UNNAMED
  9
$DIMCLRD
 70
0
  9
$DIMCLRE
 70
0
  9
$DIMCLRT
 70
0
  9
$DIMTFAC
 40
1
  9
$DIMGAP
 40
0.09
  9
$LUNITS
 70
2
  9
$LUPREC
 70
4
  9
$AXISMODE
 70
0
  9
$AXISUNIT
 10
0
 20
0
  9
$SKETCHINC
 40
0.1
  9
$FILLETRAD
 40
2
  9
$AUNITS
 70
0
  9
$AUPREC
 70
0
  9
$MENU
  1
ACAD
  9
$ELEVATION
 40
0
  9
$THICKNESS
 40
0
  9
$VIEWDIR
 10
0
 20
0
 30
1
  9
$LIMCHECK
 70
0
  9
$BLIPMODE
 70
1
  9
$CHAMFERA
 40
0
  9
$CHAMFERB
 40
0
  9
$FASTZOOM
 70
1
  9
$SKPOLY
 70
0
  9
$ANGBASE
 50
0
  9
$ANGDIR
 70
0
  9
$PDMODE
 70
0
  9
$PDSIZE
 40
0
  9
$PLINEWID
 40
0
  9
$COORDS
 70
2
  0
ENDSEC
  0
SECTION
  2
TABLES
  0
TABLE
  2
DIMSTYLE
 70
0
  0
ENDTAB
  0
TABLE
  2
LTYPE
 70
9
  0
LTYPE
  2
CONTINUOUS
 70
64
  3
Solid line
 72
65
 73
0
 40
0
  0
LTYPE
  2
BORDER
 70
64
  3
__ __ . __ __ .
 72
65
 73
6
 40
11.05739244450392
 49
3.159254984143977
 49
-1.579627492071989
 49
3.159254984143977
 49
-1.579627492071989
 49
0
 49
-1.579627492071989
  0
LTYPE
  2
CENTER
 70
64
  3
____ _ ____ _
 72
65
 73
4
 40
12.63701993657591
 49
7.898137460359943
 49
-1.579627492071989
 49
1.579627492071989
 49
-1.579627492071989
  0
LTYPE
  2
DASHDOT
 70
64
  3
__ . __ . __ .
 72
65
 73
4
 40
6.318509968287954
 49
3.159254984143977
 49
-1.579627492071989
 49
0
 49
-1.579627492071989
  0
LTYPE
  2
DASHED
 70
64
  3
__ __ __ __ __
 72
65
 73
2
 40
4.738882476215966
 49
3.159254984143977
 49
-1.579627492071989
  0
LTYPE
  2
DIVIDE
 70
64
  3
__ . . __ . . 
 72
65
 73
6
 40
7.898137460359943
 49
3.159254984143977
 49
-1.579627492071989
 49
0
 49
-1.579627492071989
 49
0
 49
-1.579627492071989
  0
LTYPE
  2
DOT
 70
64
  3
..............
 72
65
 73
4
 40
3.159254984143977
 49
0
 49
-1.579627492071989
 49
0
 49
-1.579627492071989
  0
LTYPE
  2
HIDDEN
 70
64
  3
_ _ _ _ _ _ _
 72
65
 73
2
 40
2.369441238107983
 49
1.579627492071989
 49
-0.7898137460359943
  0
LTYPE
  2
PHANTOM
 70
64
  3
_____ _ _ _____ _ _ 
 72
65
 73
6
 40
15.79627492071989
 49
7.898137460359943
 49
-1.579627492071989
 49
1.579627492071989
 49
-1.579627492071989
 49
1.579627492071989
 49
-1.579627492071989
  0
ENDTAB
  0
TABLE
  2
LAYER
 70
3
  0
LAYER
  2
1
 70
0
 62
7
  6
CONTINUOUS
  0
LAYER
  2
0
 70
0
 62
7
  6
CONTINUOUS
  0
ENDTAB
  0
TABLE
  2
STYLE
 70
4
  0
STYLE
  2
STANDARD
 70
0
 40
0
 41
1
 50
0
 71
0
 42
3.5
  3
txt
  4

  0
STYLE
  2
SIMPLEX
 70
0
 40
0
 41
1
 50
0
 71
0
 42
3.5
  3
simplex
  4

  0
STYLE
  2
COMPLEX
 70
0
 40
0
 41
1
 50
0
 71
0
 42
3.5
  3
complex
  4

  0
STYLE
  2
ITALIC
 70
0
 40
0
 41
1
 50
0
 71
0
 42
3.5
  3
italic
  4

  0
ENDTAB
  0
TABLE
  2
VIEW
 70
0
  0
ENDTAB
  0
ENDSEC
  0
SECTION
  2
BLOCKS
  0
ENDSEC
  0
SECTION
  2
ENTITIES
  0
LINE
  8
1
 62
7
 10
27.50000000000001
 20
-28
 30
0
 11
27.50000000000001
 21
-17
 31
0
  0
LINE
  8
1
 62
7
 10
21.10000000000004
 20
-19
 30
0
 11
21.10000000000004
 21
-42.49999999999992
 31
0
  0
LINE
  8
1
 62
7
 10
21.3
 20
-19
 30
0
 11
21.3
 21
-43.00000000000001
 31
0
  0
LINE
  8
1
 62
7
 10
25.00000000000001
 20
-19
 30
0
 11
25.00000000000001
 21
-41.99999999999992
 31
0
  0
LINE
  8
1
 62
7
 10
25.50000000000001
 20
-19
 30
0
 11
25.50000000000001
 21
-27.99999999999992
 31
0
  0
LINE
  8
1
 62
7
 10
-49
 20
36
 30
0
 11
-49
 21
-36
 31
0
  0
LINE
  8
1
 62
7
 10
-45
 20
36
 30
0
 11
-45
 21
-36
 31
0
  0
LINE
  8
1
 62
7
 10
31.50000000000001
 20
7.5
 30
0
 11
11.50000000000001
 21
7.5
 31
0
  0
LINE
  8
1
 62
7
 10
27.50000000000001
 20
-36
 30
0
 11
27.50000000000001
 21
-32
 31
0
  0
LINE
  8
1
 62
7
 10
29.50000000000001
 20
-32
 30
0
 11
25.00000000000001
 21
-32
 31
0
  0
LINE
  8
1
 62
7
 10
29.50000000000001
 20
-28
 30
0
 11
25.00000000000001
 21
-28
 31
0
  0
LINE
  8
1
 62
7
 10
-51.5
 20
30.00000000000009
 30
0
 11
-52
 21
30.00000000000009
 31
0
  0
LINE
  8
1
 62
7
 10
-52
 20
-34.25
 30
0
 11
-52
 21
43.00000000000009
 31
0
  0
LINE
  8
1
 62
7
 10
-74.40000000000002
 20
-55
 30
0
 11
-74.40000000000001
 21
41.00000000000009
 31
0
  0
LINE
  8
1
 62
7
 10
-76.5
 20
41.00000000000009
 30
0
 11
-76.50000000000001
 21
-55
 31
0
  0
LINE
  8
1
 62
7
 10
24.50000000000001
 20
43.00000000000009
 30
0
 11
24.50000000000001
 21
30.00000000000009
 31
0
  0
LINE
  8
1
 62
7
 10
2.1
 20
41.00000000000009
 30
0
 11
2.1
 21
-54.99999999999992
 31
0
  0
LINE
  8
1
 62
3
  6
DASHDOT
 10
-77.5076923712154
 20
-48.99999999999992
 30
0
 11
-73.20517098358261
 21
-48.99999999999992
 31
0
  0
LINE
  8
1
 62
7
 10
8.455104373335615
 20
70.92711124288158
 30
0
 11
8.455104373335615
 21
74.2773657788232
 31
0
  0
LINE
  8
1
 62
7
 10
8.709419488942686
 20
70.92711124288158
 30
0
 11
8.709419488942686
 21
74.2773657788232
 31
0
  0
LINE
  8
1
 62
7
 10
9.744895626664455
 20
74.2773657788232
 30
0
 11
9.744895626664455
 21
70.92711124288158
 31
0
  0
LINE
  8
1
 62
7
 10
9.490580511057384
 20
74.2773657788232
 30
0
 11
9.490580511057384
 21
70.92711124288158
 31
0
  0
LINE
  8
1
 62
7
 10
7.850000000000033
 20
70.92711124288158
 30
0
 11
10.35000000000004
 21
70.92711124288158
 31
0
  0
LINE
  8
1
 62
7
 10
10.35000000000004
 20
70.92711124288158
 30
0
 11
10.35000000000004
 21
42.50000000000009
 31
0
  0
LINE
  8
1
 62
7
 10
7.850000000000033
 20
70.92711124288158
 30
0
 11
7.850000000000033
 21
42.50000000000009
 31
0
  0
LINE
  8
1
 62
3
  6
DASHDOT
 10
-1.188878415873589
 20
-48.99999999999992
 30
0
 11
3.846905820675101
 21
-48.99999999999992
 31
0
  0
LINE
  8
1
 62
7
 10
1.06581410364015e-014
 20
-54.99999999999992
 30
0
 11
2.1
 21
-54.99999999999992
 31
0
  0
LINE
  8
1
 62
7
 10
0
 20
41.00000000000009
 30
0
 11
1.06581410364015e-014
 21
-54.99999999999992
 31
0
  0
LINE
  8
1
 62
7
 10
1.06581410364015e-014
 20
-51.74999999999992
 30
0
 11
2.1
 21
-51.74999999999992
 31
0
  0
LINE
  8
1
 62
7
 10
1.06581410364015e-014
 20
-46.24999999999992
 30
0
 11
2.10000000000001
 21
-46.24999999999992
 31
0
  0
LINE
  8
1
 62
7
 10
2.1
 20
-22.49999999999992
 30
0
 11
1.06581410364015e-014
 21
-22.49999999999992
 31
0
  0
LINE
  8
1
 62
7
 10
0
 20
22.50000000000009
 30
0
 11
2.1
 21
22.50000000000009
 31
0
  0
LINE
  8
1
 62
7
 10
0
 20
41.00000000000009
 30
0
 11
2.1
 21
41.00000000000009
 31
0
  0
LINE
  8
1
 62
7
 10
21.10000000000004
 20
42.50000000000009
 30
0
 11
21.10000000000004
 21
19.00000000000009
 31
0
  0
LINE
  8
1
 62
7
 10
21.10000000000004
 20
23.10000000000008
 30
0
 11
7.100000000000033
 21
23.10000000000008
 31
0
  0
LINE
  8
1
 62
7
 10
7.100000000000016
 20
-23.09999999999991
 30
0
 11
21.10000000000004
 21
-23.09999999999991
 31
0
  0
LINE
  8
1
 62
7
 10
21.10000000000004
 20
-42.49999999999992
 30
0
 11
8.100000000000033
 21
-42.49999999999992
 31
0
  0
LINE
  8
1
 62
7
 10
7.850000000000033
 20
42.50000000000009
 30
0
 11
21.10000000000004
 21
42.50000000000009
 31
0
  0
LINE
  8
1
 62
7
 10
116.9795615633696
 20
71.23073203382279
 30
0
 11
116.9795615633696
 21
74.80601760292598
 31
0
  0
LINE
  8
1
 62
7
 10
116.413148894688
 20
71.23073203382279
 30
0
 11
116.413148894688
 21
74.7430828619614
 31
0
  0
LINE
  8
1
 62
7
 10
115.8467362260064
 20
71.23073203382279
 30
0
 11
115.8467362260064
 21
74.68014812099679
 31
0
  0
LINE
  8
1
 62
7
 10
119.2514950476465
 20
74.68014812099679
 30
0
 11
119.2514950476465
 21
71.23073203382279
 31
0
  0
LINE
  8
1
 62
7
 10
118.6850823789649
 20
74.7430828619614
 30
0
 11
118.6850823789649
 21
71.23073203382279
 31
0
  0
LINE
  8
1
 62
7
 10
118.1186697102833
 20
74.80601760292598
 30
0
 11
118.1186697102833
 21
71.23073203382279
 31
0
  0
LINE
  8
1
 62
7
 10
25.00000000000001
 20
-23.74999999999992
 30
0
 11
25.50000000000001
 21
-23.74999999999992
 31
0
  0
LINE
  8
1
 62
7
 10
25.00000000000001
 20
-37
 30
0
 11
25.50000000000001
 21
-37
 31
0
  0
LINE
  8
1
 62
7
 10
24.50000000000001
 20
-43.00000000000001
 30
0
 11
24.50000000000001
 21
-34.25
 31
0
  0
LINE
  8
1
 62
7
 10
25.50000000000001
 20
-34.5
 30
0
 11
27.50000000000001
 21
-34.5
 31
0
  0
LINE
  8
1
 62
7
 10
25.50000000000001
 20
-25.5
 30
0
 11
27.50000000000001
 21
-25.5
 31
0
  0
LINE
  8
1
 62
7
 10
25.50000000000001
 20
-31.99999999999992
 30
0
 11
25.50000000000001
 21
-41.99999999999992
 31
0
  0
LINE
  8
1
 62
7
 10
21.3
 20
-34.25
 30
0
 11
24.50000000000001
 21
-34.25
 31
0
  0
LINE
  8
1
 62
7
 10
21.3
 20
-25.75
 30
0
 11
25.00000000000001
 21
-25.75
 31
0
  0
LINE
  8
1
 62
7
 10
25.00000000000001
 20
-41.99999999999992
 30
0
 11
25.50000000000001
 21
-41.99999999999992
 31
0
  0
LINE
  8
1
 62
7
 10
26.40000000000001
 20
33.90000000000009
 30
0
 11
26.90000000000001
 21
34.40000000000009
 31
0
  0
LINE
  8
1
 62
7
 10
26.90000000000001
 20
40.60000000000008
 30
0
 11
26.40000000000001
 21
41.10000000000008
 31
0
  0
LINE
  8
1
 62
7
 10
25.50000000000001
 20
41.10000000000008
 30
0
 11
25.50000000000001
 21
33.90000000000009
 31
0
  0
LINE
  8
1
 62
7
 10
25.00000000000001
 20
33.90000000000009
 30
0
 11
26.40000000000001
 21
33.90000000000009
 31
0
  0
LINE
  8
1
 62
7
 10
26.90000000000001
 20
40.60000000000008
 30
0
 11
26.90000000000001
 21
34.40000000000009
 31
0
  0
LINE
  8
1
 62
7
 10
25.00000000000001
 20
41.10000000000008
 30
0
 11
26.40000000000001
 21
41.10000000000008
 31
0
  0
LINE
  8
1
 62
7
 10
24.50000000000001
 20
33.00000000000009
 30
0
 11
25.00000000000001
 21
33.00000000000009
 31
0
  0
LINE
  8
1
 62
7
 10
24.50000000000001
 20
31.86602540378448
 30
0
 11
25.00000000000001
 21
30.00000000000009
 31
0
  0
LINE
  8
1
 62
7
 10
25.50000000000001
 20
30.0658262487938
 30
0
 11
25.50000000000001
 21
19.00000000000009
 31
0
  0
LINE
  8
1
 62
7
 10
25.00000000000001
 20
31.93185165257819
 30
0
 11
25.50000000000001
 21
30.0658262487938
 31
0
  0
LINE
  8
1
 62
7
 10
25.00000000000001
 20
42.00000000000009
 30
0
 11
25.00000000000001
 21
31.93185165257819
 31
0
  0
LINE
  8
1
 62
7
 10
24.50000000000001
 20
42.00000000000009
 30
0
 11
25.00000000000001
 21
42.00000000000009
 31
0
  0
LINE
  8
1
 62
7
 10
24.50000000000001
 20
-43.00000000000001
 30
0
 11
21.3
 21
-43.00000000000001
 31
0
  0
LINE
  8
1
 62
7
 10
25.00000000000001
 20
-22.5
 30
0
 11
21.3
 21
-22.5
 31
0
  0
LINE
  8
1
 62
7
 10
21.3
 20
22.50000000000009
 30
0
 11
25.00000000000001
 21
22.50000000000009
 31
0
  0
LINE
  8
1
 62
7
 10
25.00000000000001
 20
30.00000000000009
 30
0
 11
25.00000000000001
 21
19.00000000000009
 31
0
  0
LINE
  8
1
 62
7
 10
24.50000000000001
 20
30.00000000000009
 30
0
 11
25.00000000000001
 21
30.00000000000009
 31
0
  0
LINE
  8
1
 62
7
 10
21.3
 20
43.00000000000009
 30
0
 11
24.50000000000001
 21
43.00000000000009
 31
0
  0
LINE
  8
1
 62
7
 10
21.3
 20
43.00000000000009
 30
0
 11
21.3
 21
19.00000000000009
 31
0
  0
LINE
  8
1
 62
7
 10
120.0491156368265
 20
71.23073203382279
 30
0
 11
120.0491156368265
 21
42.98190602703716
 31
0
  0
LINE
  8
1
 62
7
 10
115.0491156368265
 20
71.23073203382279
 30
0
 11
115.0491156368265
 21
42.91515279986669
 31
0
  0
LINE
  8
1
 62
7
 10
115.0491156368265
 20
71.23073203382279
 30
0
 11
120.0491156368265
 21
71.23073203382279
 31
0
  0
LINE
  8
1
 62
3
  6
DASHDOT
 10
155.6158747266296
 20
38.06675908980319
 30
0
 11
148.9705982377615
 21
31.42148260093509
 31
0
  0
LINE
  8
1
 62
3
  6
DASHDOT
 10
155.6158747266296
 20
-38.0667590898031
 30
0
 11
148.9705982377615
 21
-31.42148260093501
 31
0
  0
LINE
  8
1
 62
3
  6
DASHDOT
 10
79.48235654702327
 20
-38.0667590898031
 30
0
 11
86.12763303589141
 21
-31.42148260093501
 31
0
  0
LINE
  8
1
 62
3
  6
DASHDOT
 10
79.48235654702327
 20
38.06675908980319
 30
0
 11
86.12763303589131
 21
31.42148260093509
 31
0
  0
LINE
  8
1
 62
7
 10
130.5105970336422
 20
41.00000000000009
 30
0
 11
154.2097211964732
 21
41
 31
0
  0
LINE
  8
1
 62
7
 10
80.88851007717967
 20
41.00000000000009
 30
0
 11
104.5876342400107
 21
41.00000000000009
 31
0
  0
LINE
  8
1
 62
7
 10
76.5491156368264
 20
36.6606055596468
 30
0
 11
76.5491156368264
 21
12.9614813968158
 31
0
  0
LINE
  8
1
 62
7
 10
76.5491156368264
 20
-12.9614813968156
 30
0
 11
76.5491156368264
 21
-36.6606055596466
 31
0
  0
LINE
  8
1
 62
7
 10
80.88851007717972
 20
-40.99999999999992
 30
0
 11
104.5876342400107
 21
-40.99999999999992
 31
0
  0
LINE
  8
1
 62
7
 10
130.5105970336422
 20
-40.99999999999992
 30
0
 11
154.2097211964731
 21
-40.99999999999992
 31
0
  0
LINE
  8
1
 62
7
 10
158.5491156368265
 20
-12.9614813968156
 30
0
 11
158.5491156368265
 21
-36.6606055596466
 31
0
  0
LINE
  8
1
 62
7
 10
158.5491156368265
 20
36.6606055596468
 30
0
 11
158.5491156368265
 21
12.9614813968158
 31
0
  0
LINE
  8
1
 62
7
 10
117.4789622966195
 20
71.23073203382279
 30
0
 11
117.4789622966195
 21
42.99994277332078
 31
0
  0
LINE
  8
1
 62
3
  6
DASHDOT
 10
0
 20
8.526512829121202e-014
 30
0
 11
-3.05426315811572
 21
8.526512829121202e-014
 31
0
  0
LINE
  8
1
 62
7
 10
-68.04489562666441
 20
70.92711124288152
 30
0
 11
-68.04489562666439
 21
74.2773657788232
 31
0
  0
LINE
  8
1
 62
7
 10
-67.79058051105729
 20
70.92711124288158
 30
0
 11
-67.79058051105729
 21
74.2773657788232
 31
0
  0
LINE
  8
1
 62
7
 10
-66.75510437333557
 20
74.27736577882311
 30
0
 11
-66.75510437333557
 21
70.92711124288152
 31
0
  0
LINE
  8
1
 62
7
 10
-67.00941948894258
 20
74.2773657788232
 30
0
 11
-67.00941948894258
 21
70.92711124288158
 31
0
  0
LINE
  8
1
 62
7
 10
-68.64999999999999
 20
70.92711124288152
 30
0
 11
-66.14999999999999
 21
70.92711124288152
 31
0
  0
LINE
  8
1
 62
7
 10
-66.14999999999999
 20
70.92711124288152
 30
0
 11
-66.14999999999999
 21
42.5
 31
0
  0
LINE
  8
1
 62
7
 10
-68.64999999999999
 20
70.92711124288152
 30
0
 11
-68.64999999999999
 21
42.5
 31
0
  0
LINE
  8
1
 62
7
 10
-76.50000000000001
 20
-55
 30
0
 11
-74.40000000000002
 21
-55
 31
0
  0
LINE
  8
1
 62
7
 10
-76.5
 20
41.00000000000009
 30
0
 11
-74.40000000000001
 21
41.00000000000009
 31
0
  0
LINE
  8
1
 62
7
 10
-55.39999999999999
 20
42.5
 30
0
 11
-55.39999999999999
 21
-42.5
 31
0
  0
LINE
  8
1
 62
7
 10
-55.39999999999999
 20
-42.5
 30
0
 11
-68.40000000000001
 21
-42.49999999999992
 31
0
  0
LINE
  8
1
 62
7
 10
-68.64999999999999
 20
42.5
 30
0
 11
-55.39999999999999
 21
42.5
 31
0
  0
LINE
  8
1
 62
7
 10
-52
 20
-43.00000000000001
 30
0
 11
-52
 21
-34.25
 31
0
  0
LINE
  8
1
 62
7
 10
-51
 20
-34.5
 30
0
 11
-49
 21
-34.5
 31
0
  0
LINE
  8
1
 62
7
 10
-51
 20
30.0658262487938
 30
0
 11
-51
 21
-42
 31
0
  0
LINE
  8
1
 62
7
 10
-51
 20
-25.5
 30
0
 11
-49
 21
-25.5
 31
0
  0
LINE
  8
1
 62
7
 10
-51.5
 20
-42
 30
0
 11
-51
 21
-42
 31
0
  0
LINE
  8
1
 62
7
 10
-50.09999999999999
 20
33.90000000000009
 30
0
 11
-49.59999999999999
 21
34.40000000000009
 31
0
  0
LINE
  8
1
 62
7
 10
-49.59999999999999
 20
40.60000000000008
 30
0
 11
-50.09999999999999
 21
41.10000000000008
 31
0
  0
LINE
  8
1
 62
7
 10
-51
 20
41.10000000000008
 30
0
 11
-51
 21
33.90000000000009
 31
0
  0
LINE
  8
1
 62
7
 10
-51.5
 20
33.90000000000009
 30
0
 11
-50.09999999999999
 21
33.90000000000009
 31
0
  0
LINE
  8
1
 62
7
 10
-49.59999999999999
 20
40.60000000000008
 30
0
 11
-49.59999999999999
 21
34.40000000000009
 31
0
  0
LINE
  8
1
 62
7
 10
-51.5
 20
41.10000000000008
 30
0
 11
-50.09999999999999
 21
41.10000000000008
 31
0
  0
LINE
  8
1
 62
7
 10
-52
 20
31.86602540378448
 30
0
 11
-51.5
 21
30.00000000000009
 31
0
  0
LINE
  8
1
 62
7
 10
-51.5
 20
31.93185165257819
 30
0
 11
-51
 21
30.0658262487938
 31
0
  0
LINE
  8
1
 62
7
 10
-51.5
 20
42
 30
0
 11
-51.5
 21
31.93185165257819
 31
0
  0
LINE
  8
1
 62
7
 10
-52
 20
42.00000000000009
 30
0
 11
-51.5
 21
42
 31
0
  0
LINE
  8
1
 62
7
 10
-52
 20
-43.00000000000001
 30
0
 11
-55.20000000000002
 21
-43.00000000000001
 31
0
  0
LINE
  8
1
 62
7
 10
-51.5
 20
30.00000000000009
 30
0
 11
-51.5
 21
-42
 31
0
  0
LINE
  8
1
 62
7
 10
-55.20000000000002
 20
43.00000000000009
 30
0
 11
-52
 21
43.00000000000009
 31
0
  0
LINE
  8
1
 62
7
 10
-55.20000000000002
 20
43.00000000000009
 30
0
 11
-55.20000000000002
 21
-43.00000000000001
 31
0
  0
LINE
  8
1
 62
3
  6
DASHDOT
 10
-76.50000000000001
 20
0
 30
0
 11
-79.55426315811575
 21
0
 31
0
  0
LINE
  8
1
 62
7
 10
-67.40828617179298
 20
70.92711124288158
 30
0
 11
-67.40828617179298
 21
74.24813990699587
 31
0
  0
LINE
  8
1
 62
7
 10
9.083529879503484
 20
70.92711124288158
 30
0
 11
9.083529879503484
 21
74.2567302194299
 31
0
  0
LINE
  8
1
 62
3
  6
DASHDOT
 10
-45
 20
0
 30
0
 11
-43.23241078475773
 21
0
 31
0
  0
LINE
  8
1
 62
7
 10
-45
 20
-36
 30
0
 11
-49
 21
-36
 31
0
  0
LINE
  8
1
 62
7
 10
-45
 20
-36
 30
0
 11
-49
 21
-36
 31
0
  0
LINE
  8
1
 62
7
 10
-45
 20
-36
 30
0
 11
-49
 21
-36
 31
0
  0
LINE
  8
1
 62
7
 10
-49
 20
36
 30
0
 11
-45
 21
36
 31
0
  0
LINE
  8
1
 62
3
  6
DASHDOT
 10
31.50000000000001
 20
0
 30
0
 11
33.26758921524227
 21
0
 31
0
  0
LINE
  8
1
 62
3
  6
DASHDOT
 10
117.5491156368265
 20
3.959215260092094
 30
0
 11
117.5491156368265
 21
-3.959215260092009
 31
0
  0
LINE
  8
1
 62
3
  6
DASHDOT
 10
121.5083308969185
 20
8.526512829121202e-014
 30
0
 11
113.5899003767344
 21
8.526512829121202e-014
 31
0
  0
LINE
  8
1
 62
7
 10
31.50000000000001
 20
17.25000000000009
 30
0
 11
27.50000000000001
 21
17.25000000000009
 31
0
  0
LINE
  8
1
 62
7
 10
31.50000000000001
 20
21.25000000000009
 30
0
 11
27.50000000000001
 21
21.25000000000009
 31
0
  0
LINE
  8
1
 62
3
  6
DASHDOT
 10
32.3
 20
19.25000000000009
 30
0
 11
26.70000000000002
 21
19.25000000000009
 31
0
  0
LINE
  8
1
 62
3
 10
31.50000000000001
 20
16.75000000000009
 30
0
 11
27.46824583655187
 21
16.75000000000009
 31
0
  0
LINE
  8
1
 62
3
 10
31.50000000000001
 20
21.75000000000009
 30
0
 11
27.50000000000001
 21
21.75000000000009
 31
0
  0
LINE
  8
1
 62
7
 10
11.50000000000001
 20
-7.499999999999915
 30
0
 11
31.50000000000001
 21
-7.499999999999915
 31
0
  0
LINE
  8
1
 62
7
 10
11.50000000000001
 20
9.500000000000085
 30
0
 11
31.50000000000001
 21
9.500000000000085
 31
0
  0
LINE
  8
1
 62
7
 10
120.0491156368265
 20
9.500000000000085
 30
0
 11
115.0491156368265
 21
9.500000000000085
 31
0
  0
LINE
  8
1
 62
7
 10
120.0491156368265
 20
9.500000000000085
 30
0
 11
120.0491156368265
 21
7.071067811865476
 31
0
  0
LINE
  8
1
 62
7
 10
115.0491156368265
 20
7.071067811865476
 30
0
 11
115.0491156368265
 21
9.500000000000085
 31
0
  0
LINE
  8
1
 62
7
 10
23.40000000000001
 20
-33.75
 30
0
 11
23.09999999999999
 21
-33.4499999999999
 31
0
  0
LINE
  8
1
 62
7
 10
23.09999999999999
 20
-26.54999999999993
 30
0
 11
23.40000000000001
 21
-26.25
 31
0
  0
LINE
  8
1
 62
7
 10
23.09999999999999
 20
-26.54999999999993
 30
0
 11
23.09999999999999
 21
-33.4499999999999
 31
0
  0
LINE
  8
1
 62
7
 10
29.50000000000001
 20
-32
 30
0
 11
31.50000000000001
 21
-34
 31
0
  0
LINE
  8
1
 62
7
 10
29.50000000000001
 20
-28
 30
0
 11
29.50000000000001
 21
-32
 31
0
  0
LINE
  8
1
 62
7
 10
31.50000000000001
 20
-26
 30
0
 11
29.50000000000001
 21
-28
 31
0
  0
LINE
  8
1
 62
7
 10
11.50000000000001
 20
-16
 30
0
 11
26.50000000000001
 21
-16
 31
0
  0
LINE
  8
1
 62
7
 10
31.50000000000001
 20
-36
 30
0
 11
27.50000000000001
 21
-36
 31
0
  0
LINE
  8
1
 62
7
 10
31.50000000000001
 20
-36
 30
0
 11
27.50000000000001
 21
-36
 31
0
  0
LINE
  8
1
 62
7
 10
31.50000000000001
 20
-36
 30
0
 11
27.50000000000001
 21
-36
 31
0
  0
LINE
  8
1
 62
7
 10
11.50000000000001
 20
16.00000000000009
 30
0
 11
11.50000000000001
 21
-16
 31
0
  0
LINE
  8
1
 62
7
 10
26.50000000000001
 20
16.00000000000009
 30
0
 11
11.50000000000001
 21
16.00000000000009
 31
0
  0
LINE
  8
1
 62
7
 10
27.50000000000001
 20
17.00000000000009
 30
0
 11
27.50000000000001
 21
36
 31
0
  0
LINE
  8
1
 62
7
 10
27.50000000000001
 20
36
 30
0
 11
31.50000000000001
 21
36
 31
0
  0
LINE
  8
1
 62
7
 10
31.50000000000001
 20
36
 30
0
 11
31.50000000000001
 21
-36
 31
0
  0
LINE
  8
1
 62
7
 10
25.00000000000001
 20
-33.75
 30
0
 11
23.40000000000001
 21
-33.75
 31
0
  0
LINE
  8
1
 62
7
 10
24.50000000000001
 20
-26.25
 30
0
 11
24.50000000000001
 21
-33.75
 31
0
  0
LINE
  8
1
 62
7
 10
23.40000000000001
 20
-26.25
 30
0
 11
25.00000000000001
 21
-26.25
 31
0
  0
LINE
  8
1
 62
7
 10
-49.99999999999999
 20
16
 30
0
 11
-51
 21
16.00000000000009
 31
0
  0
LINE
  8
1
 62
7
 10
-49.99999999999999
 20
-16
 30
0
 11
-51
 21
-16
 31
0
  0
ARC
  8
1
 62
7
 10
150.0250682787429
 20
-18.74999999999992
 30
0
 40
3.599999999999866
 50
212.8492438943206
 51
87.15075610567895
  0
ARC
  8
1
 62
7
 10
85.07316299491011
 20
-18.74999999999992
 30
0
 40
3.599999999999928
 50
92.84924389432122
 51
327.1507561056793
  0
ARC
  8
1
 62
7
 10
117.5491156368265
 20
37.50000000000009
 30
0
 40
3.599999999999922
 50
332.8492438943198
 51
207.1507561056801
  0
ARC
  8
1
 62
7
 10
106.5491156368265
 20
-19.0525588832576
 30
0
 40
20.00000000000009
 50
239.9999999999998
 51
291.1403903382368
  0
ARC
  8
1
 62
7
 10
106.5491156368265
 20
19.05255888325769
 30
0
 40
20.00000000000002
 50
120
 51
171.1403903382369
  0
ARC
  8
1
 62
7
 10
117.5491156368265
 20
-47.49999999999992
 30
0
 40
10.50011321438854
 50
68.85960966176488
 51
111.1403903382372
  0
ARC
  8
1
 62
7
 10
76.41290895706571
 20
23.75
 30
0
 40
10.50011321438851
 50
308.8596096617649
 51
351.1403903382372
  0
ARC
  8
1
 62
7
 10
128.5491156368265
 20
-19.0525588832576
 30
0
 40
20.00000000000006
 50
248.859609661762
 51
299.9999999999999
  0
ARC
  8
1
 62
7
 10
95.5491156368265
 20
8.526512829121202e-014
 30
0
 40
20.00000000000001
 50
128.8596096617621
 51
180
  0
ARC
  8
1
 62
7
 10
139.5491156368265
 20
8.526512829121202e-014
 30
0
 40
20
 50
359.9999999999997
 51
51.14039033823709
  0
ARC
  8
1
 62
7
 10
158.6853223165873
 20
23.75000000000009
 30
0
 40
10.50011321438855
 50
188.859609661765
 51
231.1403903382369
  0
ARC
  8
1
 62
7
 10
8.100000000000033
 20
36.50521059585918
 30
0
 40
6.000000000000011
 50
92.38801546326877
 51
180
  0
ARC
  8
1
 62
7
 10
8.100000000000033
 20
-36.49999999999992
 30
0
 40
6.000000000000004
 50
180
 51
270
  0
ARC
  8
1
 62
7
 10
-68.40000000000001
 20
36.50521059585918
 30
0
 40
5.999999999999917
 50
92.38801546326867
 51
180
  0
ARC
  8
1
 62
7
 10
-68.40000000000001
 20
-36.49999999999992
 30
0
 40
6
 50
180
 51
270
  0
ARC
  8
1
 62
7
 10
7.809791017545155
 20
28.77202871994919
 30
0
 40
5.716267408765631
 50
182.727651688738
 51
262.8671519877295
  0
ARC
  8
1
 62
7
 10
7.809791017545155
 20
-28.77202871994911
 30
0
 40
5.716267408765646
 50
97.13284801227059
 51
177.2723483112611
  0
ARC
  8
1
 62
3
  6
DASHDOT
 10
117.5491156368265
 20
8.526512829121202e-014
 30
0
 40
48.99999999999999
 50
38.38412170900124
 51
51.81112932888615
  0
ARC
  8
1
 62
3
  6
DASHDOT
 10
117.5491156368265
 20
8.526512829121202e-014
 30
0
 40
48.99999999999992
 50
308.384121709001
 51
321.811129328886
  0
ARC
  8
1
 62
3
  6
DASHDOT
 10
117.5491156368265
 20
8.526512829121202e-014
 30
0
 40
49.00000000000011
 50
218.3841217090012
 51
231.8111293288859
  0
ARC
  8
1
 62
3
  6
DASHDOT
 10
117.5491156368265
 20
8.526512829121202e-014
 30
0
 40
49.00000000000004
 50
128.3841217090013
 51
141.8111293288861
  0
ARC
  8
1
 62
7
 10
117.5491156368265
 20
8.526512829121202e-014
 30
0
 40
55.00000000000004
 50
221.801844193141
 51
228.1981558068589
  0
ARC
  8
1
 62
7
 10
117.5491156368265
 20
8.526512829121202e-014
 30
0
 40
54.99999999999993
 50
311.801844193141
 51
318.198155806859
  0
ARC
  8
1
 62
7
 10
117.5491156368265
 20
8.526512829121202e-014
 30
0
 40
55.00000000000001
 50
41.80184419314106
 51
48.19815580685889
  0
ARC
  8
1
 62
7
 10
117.5491156368265
 20
8.526512829121202e-014
 30
0
 40
55.00000000000008
 50
131.8018441931412
 51
138.198155806859
  0
ARC
  8
1
 62
7
 10
128.5491156368265
 20
19.05255888325769
 30
0
 40
20.00000000000004
 50
8.859609661762205
 51
60.00000000000003
  0
ARC
  8
1
 62
7
 10
117.5491156368265
 20
8.526512829121202e-014
 30
0
 40
42.00000000000007
 50
299.9999999999999
 51
359.9999999999999
  0
ARC
  8
1
 62
7
 10
117.5491156368265
 20
8.526512829121202e-014
 30
0
 40
42.00000000000004
 50
180
 51
239.9999999999999
  0
ARC
  8
1
 62
7
 10
117.5491156368265
 20
8.526512829121202e-014
 30
0
 40
41.99999999999998
 50
59.99999999999997
 51
120
  0
ARC
  8
1
 62
7
 10
-49.99999999999999
 20
-17
 30
0
 40
1
 50
0
 51
90
  0
ARC
  8
1
 62
7
 10
-49.99999999999999
 20
17
 30
0
 40
1
 50
270
 51
0
  0
ARC
  8
1
 62
7
 10
26.50000000000001
 20
-17
 30
0
 40
1
 50
0
 51
90
  0
ARC
  8
1
 62
7
 10
26.50000000000001
 20
17.00000000000009
 30
0
 40
1
 50
270
 51
0
  0
ARC
  8
1
 62
7
 10
117.5491156368265
 20
8.526512829121202e-014
 30
0
 40
7.499999999999921
 50
109.4712206344909
 51
70.5287793655091
  0
CIRCLE
  8
1
 62
7
 10
152.1973479149673
 20
34.64823227814088
 30
0
 40
2.75
  0
CIRCLE
  8
1
 62
7
 10
152.1973479149673
 20
-34.64823227814082
 30
0
 40
2.75
  0
CIRCLE
  8
1
 62
7
 10
82.9008833586856
 20
-34.64823227814082
 30
0
 40
2.75
  0
CIRCLE
  8
1
 62
7
 10
82.9008833586856
 20
34.64823227814088
 30
0
 40
2.75
  0
CIRCLE
  8
1
 62
3
 10
131.1609211746676
 20
13.61180553784109
 30
0
 40
2.5
  0
CIRCLE
  8
1
 62
7
 10
131.1609211746676
 20
13.61180553784109
 30
0
 40
2
  0
CIRCLE
  8
1
 62
3
 10
103.9373100989855
 20
-13.61180553784101
 30
0
 40
2.5
  0
CIRCLE
  8
1
 62
7
 10
103.9373100989855
 20
-13.61180553784101
 30
0
 40
2
  0
CIRCLE
  8
1
 62
7
 10
117.5491156368265
 20
8.526512829121202e-014
 30
0
 40
36.00000000000001
  0
CIRCLE
  8
1
 62
7
 10
117.5491156368264
 20
-29.99999999999992
 30
0
 40
2.099999999999994
  0
CIRCLE
  8
1
 62
7
 10
91.5683535232933
 20
15.00000000000009
 30
0
 40
2.100000000000009
  0
CIRCLE
  8
1
 62
7
 10
117.5491156368264
 20
-29.99999999999992
 30
0
 40
4
  0
CIRCLE
  8
1
 62
7
 10
91.5683535232933
 20
15.00000000000009
 30
0
 40
4
  0
CIRCLE
  8
1
 62
7
 10
143.5298777503596
 20
15.00000000000009
 30
0
 40
4
  0
CIRCLE
  8
1
 62
7
 10
143.5298777503596
 20
15.00000000000009
 30
0
 40
2.100000000000023
  0
CIRCLE
  8
1
 62
7
 10
117.5491156368265
 20
8.526512829121202e-014
 30
0
 40
43.00000000000001
  0
TEXT
  8
1
 62
7
 10
-78.19042132752423
 20
90.56541829534663
 30
0
 40
3.5
  1
DC1708
 41
0.9
  7
SIMPLEX
  0
TEXT
  8
1
 62
7
 10
-77.92390899990114
 20
96.88146760583882
 30
0
 40
3.5
  1
TMB 1.2HI
 41
0.9
  7
SIMPLEX
  0
ENDSEC
  0
EOF
