  0
SECTION
  2
HEADER
  9
$ACADVER
  1
AC1009
  9
$INSBASE
 10
0
 20
0
  9
$EXTMIN
 10
-111.5551670235829
 20
-82.50000000000009
  9
$EXTMAX
 10
243.2000000000001
 20
134.0148541717429
  9
$LIMMIN
 10
-111.5551670235829
 20
-82.50000000000009
  9
$LIMMAX
 10
243.2000000000001
 20
134.0148541717429
  9
$VIEWCTR
 10
10
 20
10
  9
$VIEWSIZE
 40
10
  9
$SNAPMODE
 70
0
  9
$SNAPUNIT
 10
1
 20
1
  9
$SNAPBASE
 10
0
 20
0
  9
$SNAPANG
 50
0
  9
$SNAPSTYLE
 70
0
  9
$SNAPISOPAIR
 70
0
  9
$GRIDMODE
 70
0
  9
$GRIDUNIT
 10
0
 20
0
  9
$ORTHOMODE
 70
0
  9
$REGENMODE
 70
1
  9
$FILLMODE
 70
1
  9
$QTEXTMODE
 70
0
  9
$DRAGMODE
 70
2
  9
$LTSCALE
 40
1
  9
$OSMODE
 70
0
  9
$ATTMODE
 70
1
  9
$TEXTSIZE
 40
3.5
  9
$TRACEWID
 40
0.5
  9
$TEXTSTYLE
  7
STANDARD
  9
$CLAYER
  8
0
  9
$CELTYPE
  6
BYLAYER
  9
$CECOLOR
 62
256
  9
$DIMSCALE
 40
1
  9
$DIMASZ
 40
0.18
  9
$DIMEXO
 40
0.0625
  9
$DIMDLI
 40
0.38
  9
$DIMRND
 40
0
  9
$DIMDLE
 40
0
  9
$DIMEXE
 40
0.18
  9
$DIMTP
 40
0
  9
$DIMTM
 40
0
  9
$DIMTXT
 40
0.18
  9
$DIMCEN
 40
0.09
  9
$DIMTSZ
 40
0
  9
$DIMTOL
 70
0
  9
$DIMLIM
 70
0
  9
$DIMTIH
 70
1
  9
$DIMTOH
 70
1
  9
$DIMSE1
 70
0
  9
$DIMSE2
 70
0
  9
$DIMTAD
 70
0
  9
$DIMZIN
 70
0
  9
$DIMBLK
  1

  9
$DIMASO
 70
1
  9
$DIMSHO
 70
1
  9
$DIMPOST
  1

  9
$DIMAPOST
  1

  9
$DIMALT
 70
0
  9
$DIMALTD
 70
2
  9
$DIMALTF
 40
25.4
  9
$DIMLFAC
 40
1
  9
$DIMTOFL
 70
0
  9
$DIMTVP
 40
0
  9
$DIMTIX
 70
0
  9
$DIMSOXD
 70
0
  9
$DIMSAH
 70
0
  9
$DIMBLK1
  1

  9
$DIMBLK2
  1

  9
$DIMSTYLE
  2
*UNNAMED
  9
$DIMCLRD
 70
0
  9
$DIMCLRE
 70
0
  9
$DIMCLRT
 70
0
  9
$DIMTFAC
 40
1
  9
$DIMGAP
 40
0.09
  9
$LUNITS
 70
2
  9
$LUPREC
 70
4
  9
$AXISMODE
 70
0
  9
$AXISUNIT
 10
0
 20
0
  9
$SKETCHINC
 40
0.1
  9
$FILLETRAD
 40
2
  9
$AUNITS
 70
0
  9
$AUPREC
 70
0
  9
$MENU
  1
ACAD
  9
$ELEVATION
 40
0
  9
$THICKNESS
 40
0
  9
$VIEWDIR
 10
0
 20
0
 30
1
  9
$LIMCHECK
 70
0
  9
$BLIPMODE
 70
1
  9
$CHAMFERA
 40
0
  9
$CHAMFERB
 40
0
  9
$FASTZOOM
 70
1
  9
$SKPOLY
 70
0
  9
$ANGBASE
 50
0
  9
$ANGDIR
 70
0
  9
$PDMODE
 70
0
  9
$PDSIZE
 40
0
  9
$PLINEWID
 40
0
  9
$COORDS
 70
2
  0
ENDSEC
  0
SECTION
  2
TABLES
  0
TABLE
  2
DIMSTYLE
 70
0
  0
ENDTAB
  0
TABLE
  2
LTYPE
 70
9
  0
LTYPE
  2
CONTINUOUS
 70
64
  3
Solid line
 72
65
 73
0
 40
0
  0
LTYPE
  2
BORDER
 70
64
  3
__ __ . __ __ .
 72
65
 73
6
 40
16.33740900766501
 49
4.667831145047145
 49
-2.333915572523572
 49
4.667831145047145
 49
-2.333915572523572
 49
0
 49
-2.333915572523572
  0
LTYPE
  2
CENTER
 70
64
  3
____ _ ____ _
 72
65
 73
4
 40
18.67132458018858
 49
11.66957786261786
 49
-2.333915572523572
 49
2.333915572523572
 49
-2.333915572523572
  0
LTYPE
  2
DASHDOT
 70
64
  3
__ . __ . __ .
 72
65
 73
4
 40
9.335662290094289
 49
4.667831145047145
 49
-2.333915572523572
 49
0
 49
-2.333915572523572
  0
LTYPE
  2
DASHED
 70
64
  3
__ __ __ __ __
 72
65
 73
2
 40
7.001746717570716
 49
4.667831145047145
 49
-2.333915572523572
  0
LTYPE
  2
DIVIDE
 70
64
  3
__ . . __ . . 
 72
65
 73
6
 40
11.66957786261786
 49
4.667831145047145
 49
-2.333915572523572
 49
0
 49
-2.333915572523572
 49
0
 49
-2.333915572523572
  0
LTYPE
  2
DOT
 70
64
  3
..............
 72
65
 73
4
 40
4.667831145047145
 49
0
 49
-2.333915572523572
 49
0
 49
-2.333915572523572
  0
LTYPE
  2
HIDDEN
 70
64
  3
_ _ _ _ _ _ _
 72
65
 73
2
 40
3.500873358785358
 49
2.333915572523572
 49
-1.166957786261786
  0
LTYPE
  2
PHANTOM
 70
64
  3
_____ _ _ _____ _ _ 
 72
65
 73
6
 40
23.33915572523572
 49
11.66957786261786
 49
-2.333915572523572
 49
2.333915572523572
 49
-2.333915572523572
 49
2.333915572523572
 49
-2.333915572523572
  0
ENDTAB
  0
TABLE
  2
LAYER
 70
3
  0
LAYER
  2
1
 70
0
 62
7
  6
CONTINUOUS
  0
LAYER
  2
0
 70
0
 62
7
  6
CONTINUOUS
  0
ENDTAB
  0
TABLE
  2
STYLE
 70
4
  0
STYLE
  2
STANDARD
 70
0
 40
0
 41
1
 50
0
 71
0
 42
3.5
  3
txt
  4

  0
STYLE
  2
SIMPLEX
 70
0
 40
0
 41
1
 50
0
 71
0
 42
3.5
  3
simplex
  4

  0
STYLE
  2
COMPLEX
 70
0
 40
0
 41
1
 50
0
 71
0
 42
3.5
  3
complex
  4

  0
STYLE
  2
ITALIC
 70
0
 40
0
 41
1
 50
0
 71
0
 42
3.5
  3
italic
  4

  0
ENDTAB
  0
TABLE
  2
VIEW
 70
0
  0
ENDTAB
  0
ENDSEC
  0
SECTION
  2
BLOCKS
  0
ENDSEC
  0
SECTION
  2
ENTITIES
  0
LINE
  8
1
 62
3
  6
DASHDOT
 10
-67.19999999999999
 20
-1.13686837721616e-013
 30
0
 11
-64.95364886828261
 21
-1.13686837721616e-013
 31
0
  0
LINE
  8
1
 62
7
 10
-67.19999999999999
 20
55.99999999999992
 30
0
 11
-67.19999999999999
 21
-56.00000000000009
 31
0
  0
LINE
  8
1
 62
7
 10
-67.19999999999999
 20
-56.00000000000009
 30
0
 11
-73.19999999999999
 21
-56.00000000000009
 31
0
  0
LINE
  8
1
 62
7
 10
-73.19999999999999
 20
55.99999999999992
 30
0
 11
-67.19999999999999
 21
55.99999999999992
 31
0
  0
LINE
  8
1
 62
3
  6
DASHDOT
 10
41.00000000000009
 20
-1.13686837721616e-013
 30
0
 11
43.24635113171748
 21
-1.13686837721616e-013
 31
0
  0
LINE
  8
1
 62
7
 10
39.00000000000009
 20
-50.50000000000011
 30
0
 11
31.10000000000011
 21
-50.50000000000009
 31
0
  0
LINE
  8
1
 62
7
 10
30.40000000000009
 20
-52.50000000000011
 30
0
 11
30.40000000000009
 21
-42.50000000000011
 31
0
  0
LINE
  8
1
 62
7
 10
35.00000000000009
 20
30.39999999999998
 30
0
 11
41.00000000000009
 21
30.39999999999989
 31
0
  0
LINE
  8
1
 62
7
 10
34.91651513899124
 20
25.59999999999988
 30
0
 11
41.00000000000008
 21
25.59999999999988
 31
0
  0
LINE
  8
1
 62
3
  6
DASHDOT
 10
33.80000000000008
 20
27.99999999999989
 30
0
 11
42.2000000000001
 21
27.99999999999989
 31
0
  0
LINE
  8
1
 62
3
 10
35.00000000000009
 20
30.99999999999989
 30
0
 11
41.00000000000009
 21
30.99999999999992
 31
0
  0
LINE
  8
1
 62
3
 10
34.00000000000009
 20
24.99999999999989
 30
0
 11
41.00000000000008
 21
24.99999999999989
 31
0
  0
LINE
  8
1
 62
7
 10
11.00000000000013
 20
15.49999999999989
 30
0
 11
41.00000000000008
 21
15.49999999999989
 31
0
  0
LINE
  8
1
 62
7
 10
34.00000000000009
 20
24.99999999999989
 30
0
 11
11.00000000000014
 21
24.99999999999989
 31
0
  0
LINE
  8
1
 62
7
 10
28.20000000000011
 20
-42.8000000000001
 30
0
 11
28.50000000000012
 21
-42.50000000000009
 31
0
  0
LINE
  8
1
 62
7
 10
28.50000000000012
 20
-52.50000000000009
 30
0
 11
28.20000000000011
 21
-52.2000000000001
 31
0
  0
LINE
  8
1
 62
7
 10
28.20000000000011
 20
-52.2000000000001
 30
0
 11
28.20000000000011
 21
-42.8000000000001
 31
0
  0
LINE
  8
1
 62
7
 10
41.00000000000009
 20
-52.50000000000011
 30
0
 11
39.00000000000009
 21
-50.50000000000011
 31
0
  0
LINE
  8
1
 62
7
 10
39.00000000000009
 20
-44.50000000000009
 30
0
 11
39.00000000000009
 21
-50.50000000000011
 31
0
  0
LINE
  8
1
 62
7
 10
39.00000000000009
 20
-44.50000000000009
 30
0
 11
41.00000000000009
 21
-42.50000000000009
 31
0
  0
LINE
  8
1
 62
7
 10
31.10000000000011
 20
-44.50000000000009
 30
0
 11
39.00000000000009
 21
-44.50000000000009
 31
0
  0
LINE
  8
1
 62
7
 10
11.00000000000007
 20
-12.50000000000011
 30
0
 11
41.00000000000008
 21
-12.50000000000011
 31
0
  0
LINE
  8
1
 62
7
 10
11.00000000000014
 20
24.99999999999989
 30
0
 11
11.00000000000013
 21
-25.00000000000009
 31
0
  0
LINE
  8
1
 62
7
 10
41.00000000000009
 20
-56.00000000000009
 30
0
 11
35.00000000000009
 21
-56.00000000000009
 31
0
  0
LINE
  8
1
 62
7
 10
11.00000000000013
 20
-25.00000000000009
 30
0
 11
34.00000000000008
 21
-25.00000000000009
 31
0
  0
LINE
  8
1
 62
7
 10
35.00000000000009
 20
-56.00000000000009
 30
0
 11
35.00000000000009
 21
-50.50000000000009
 31
0
  0
LINE
  8
1
 62
7
 10
35.00000000000009
 20
55.99999999999992
 30
0
 11
35.00000000000008
 21
25.99999999999989
 31
0
  0
LINE
  8
1
 62
7
 10
41.00000000000009
 20
55.99999999999992
 30
0
 11
41.00000000000009
 21
-56.00000000000009
 31
0
  0
LINE
  8
1
 62
7
 10
35.00000000000009
 20
55.99999999999992
 30
0
 11
41.00000000000009
 21
55.99999999999992
 31
0
  0
LINE
  8
1
 62
7
 10
171.7000000000001
 20
15.49999999999989
 30
0
 11
178.7000000000001
 21
15.49999999999989
 31
0
  0
LINE
  8
1
 62
7
 10
178.7000000000001
 20
15.49999999999989
 30
0
 11
178.7000000000001
 21
11.99999999999989
 31
0
  0
LINE
  8
1
 62
7
 10
171.7000000000001
 20
11.99999999999989
 30
0
 11
171.7000000000001
 21
15.49999999999989
 31
0
  0
LINE
  8
1
 62
3
  6
DASHDOT
 10
181.556310758465
 20
-1.13686837721616e-013
 30
0
 11
168.8436892415352
 21
-1.13686837721616e-013
 31
0
  0
LINE
  8
1
 62
3
  6
DASHDOT
 10
175.2000000000001
 20
6.356310758464758
 30
0
 11
175.2000000000001
 21
-6.356310758464986
 31
0
  0
LINE
  8
1
 62
7
 10
28.50000000000012
 20
-42.50000000000009
 30
0
 11
31.10000000000011
 21
-42.50000000000009
 31
0
  0
LINE
  8
1
 62
7
 10
28.50000000000012
 20
-52.50000000000009
 30
0
 11
31.10000000000011
 21
-52.50000000000009
 31
0
  0
LINE
  8
1
 62
7
 10
41.00000000000006
 20
12.49999999999989
 30
0
 11
11.00000000000007
 21
12.49999999999989
 31
0
  0
LINE
  8
1
 62
7
 10
-73.19999999999999
 20
55.99999999999992
 30
0
 11
-73.19999999999999
 21
-56.00000000000009
 31
0
  0
LINE
  8
1
 62
7
 10
-77.09999999999999
 20
47.49999999999992
 30
0
 11
-77.89999999999999
 21
47.49999999999992
 31
0
  0
LINE
  8
1
 62
7
 10
-77.89999999999999
 20
-68.00000000000009
 30
0
 11
-77.89999999999999
 21
67.99999999999992
 31
0
  0
LINE
  8
1
 62
7
 10
-76.09999999999999
 20
-65.77328821041914
 30
0
 11
-76.09999999999999
 21
47.63165249758728
 31
0
  0
LINE
  8
1
 62
7
 10
-108.2000000000001
 20
-82.5
 30
0
 11
-108.2000000000001
 21
62.49999999999992
 31
0
  0
LINE
  8
1
 62
7
 10
-105.8000000000001
 20
64.26696164036744
 30
0
 11
-105.8000000000001
 21
-82.50000000000009
 31
0
  0
LINE
  8
1
 62
7
 10
10.23046916720631
 20
94.03376807458517
 30
0
 11
10.23046916720631
 21
67.5
 31
0
  0
LINE
  8
1
 62
7
 10
31.30000000000012
 20
66.49999999999992
 30
0
 11
31.30000000000012
 21
50.6172931436424
 31
0
  0
LINE
  8
1
 62
7
 10
30.3000000000001
 20
47.49999999999992
 30
0
 11
30.3000000000001
 21
67.99999999999992
 31
0
  0
LINE
  8
1
 62
7
 10
2.400000000000027
 20
64.26696164036744
 30
0
 11
2.400000000000027
 21
-82.50000000000009
 31
0
  0
LINE
  8
1
 62
7
 10
177.7000000000001
 20
94.03376807458497
 30
0
 11
172.7000000000001
 21
94.03376807458497
 31
0
  0
LINE
  8
1
 62
7
 10
0
 20
-82.5
 30
0
 11
2.400000000000027
 21
-82.50000000000009
 31
0
  0
LINE
  8
1
 62
7
 10
0
 20
-71.75
 30
0
 11
2.400000000000027
 21
-71.75000000000009
 31
0
  0
LINE
  8
1
 62
3
  6
DASHDOT
 10
-1.263097449525588
 20
-75
 30
0
 11
4.125746379388403
 21
-75
 31
0
  0
LINE
  8
1
 62
7
 10
0
 20
-78.25
 30
0
 11
2.400000000000142
 21
-78.25000000000009
 31
0
  0
LINE
  8
1
 62
7
 10
2.400000000000006
 20
-32.5
 30
0
 11
0
 21
-32.5
 31
0
  0
LINE
  8
1
 62
7
 10
5.018208071305708e-014
 20
32.49999999999992
 30
0
 11
2.400000000000027
 21
32.49999999999992
 31
0
  0
LINE
  8
1
 62
7
 10
5.018208071305708e-014
 20
62.49999999999992
 30
0
 11
0
 21
-82.5
 31
0
  0
LINE
  8
1
 62
7
 10
5.018208071305708e-014
 20
62.49999999999992
 30
0
 11
2.400000000000006
 21
62.50000000000011
 31
0
  0
LINE
  8
1
 62
7
 10
25.2000000000001
 20
67.5
 30
0
 11
8.300000000000011
 21
67.5
 31
0
  0
LINE
  8
1
 62
7
 10
25.20000000000011
 20
33.49999999999992
 30
0
 11
8.300000000000004
 21
33.49999999999992
 31
0
  0
LINE
  8
1
 62
7
 10
25.2000000000001
 20
67.5
 30
0
 11
25.20000000000011
 21
29.99999999999992
 31
0
  0
LINE
  8
1
 62
7
 10
8.300000000000004
 20
-33.50000000000009
 30
0
 11
25.2000000000001
 21
-33.5
 31
0
  0
LINE
  8
1
 62
7
 10
8.300000000000004
 20
-67.50000000000009
 30
0
 11
25.20000000000011
 21
-67.50000000000009
 31
0
  0
LINE
  8
1
 62
7
 10
12.8304691672063
 20
94.03376807458517
 30
0
 11
12.8304691672063
 21
67.5
 31
0
  0
LINE
  8
1
 62
7
 10
10.23046916720631
 20
94.03376807458517
 30
0
 11
12.8304691672063
 21
94.03376807458517
 31
0
  0
LINE
  8
1
 62
7
 10
11.77007471604605
 20
99.03376807458497
 30
0
 11
11.77007471604605
 21
94.03376807458497
 31
0
  0
LINE
  8
1
 62
7
 10
12.1777831731959
 20
99.03376807458497
 30
0
 11
12.1777831731959
 21
94.03376807458497
 31
0
  0
LINE
  8
1
 62
7
 10
11.29086361836668
 20
94.03376807458497
 30
0
 11
11.29086361836668
 21
99.03376807458497
 31
0
  0
LINE
  8
1
 62
7
 10
10.88315516121685
 20
94.03376807458497
 30
0
 11
10.88315516121685
 21
99.03376807458497
 31
0
  0
LINE
  8
1
 62
7
 10
174.498521135754
 20
94.03376807458497
 30
0
 11
174.498521135754
 21
99.03376807458497
 31
0
  0
LINE
  8
1
 62
7
 10
173.9714426801753
 20
94.03376807458497
 30
0
 11
173.9714426801753
 21
99.03376807458497
 31
0
  0
LINE
  8
1
 62
7
 10
173.3389485334808
 20
94.03376807458497
 30
0
 11
173.3389485334808
 21
99.03376807458497
 31
0
  0
LINE
  8
1
 62
7
 10
177.0610514665195
 20
99.03376807458497
 30
0
 11
177.0610514665195
 21
94.03376807458497
 31
0
  0
LINE
  8
1
 62
7
 10
176.428557319825
 20
99.03376807458497
 30
0
 11
176.428557319825
 21
94.03376807458497
 31
0
  0
LINE
  8
1
 62
7
 10
175.9014788642463
 20
99.03376807458497
 30
0
 11
175.9014788642463
 21
94.03376807458497
 31
0
  0
LINE
  8
1
 62
7
 10
121.3483519286551
 20
62.49999999999992
 30
0
 11
147.7000288605151
 21
62.49999999999992
 31
0
  0
LINE
  8
1
 62
7
 10
201.9908566492378
 20
62.49999999999992
 30
0
 11
229.0516480713452
 21
62.49999999999989
 31
0
  0
LINE
  8
1
 62
7
 10
121.3483519286551
 20
-62.50000000000011
 30
0
 11
148.4091433507625
 21
-62.50000000000011
 31
0
  0
LINE
  8
1
 62
7
 10
203.4971453001744
 20
-62.50000000000011
 30
0
 11
229.0516480713451
 21
-62.50000000000011
 31
0
  0
LINE
  8
1
 62
7
 10
237.7000000000001
 20
53.85164807134495
 30
0
 11
237.7000000000001
 21
26.79085664923753
 31
0
  0
LINE
  8
1
 62
7
 10
237.7000000000001
 20
-26.79085664923775
 30
0
 11
237.7000000000001
 21
-53.85164807134515
 31
0
  0
LINE
  8
1
 62
7
 10
112.7000000000001
 20
-26.79085664923773
 30
0
 11
112.7000000000001
 21
-53.85164807134515
 31
0
  0
LINE
  8
1
 62
7
 10
112.7000000000001
 20
53.8516480713449
 30
0
 11
112.7000000000001
 21
26.7908566492375
 31
0
  0
LINE
  8
1
 62
7
 10
172.7000000000001
 20
94.03376807458497
 30
0
 11
172.7000000000001
 21
67.95402857814966
 31
0
  0
LINE
  8
1
 62
7
 10
177.7000000000001
 20
94.03376807458497
 30
0
 11
177.7000000000001
 21
67.95402857814966
 31
0
  0
LINE
  8
1
 62
7
 10
25.4000000000001
 20
67.99999999999992
 30
0
 11
30.3000000000001
 21
67.99999999999992
 31
0
  0
LINE
  8
1
 62
7
 10
30.3000000000001
 20
47.49999999999992
 30
0
 11
31.10000000000011
 21
47.49999999999992
 31
0
  0
LINE
  8
1
 62
7
 10
31.10000000000011
 20
47.49999999999992
 30
0
 11
31.10000000000011
 21
29.99999999999992
 31
0
  0
LINE
  8
1
 62
7
 10
25.4000000000001
 20
32.99999999999992
 30
0
 11
31.10000000000011
 21
32.99999999999992
 31
0
  0
LINE
  8
1
 62
7
 10
31.10000000000011
 20
-33.00000000000009
 30
0
 11
25.4000000000001
 21
-33.00000000000009
 31
0
  0
LINE
  8
1
 62
7
 10
30.3000000000001
 20
-68.00000000000009
 30
0
 11
25.40000000000012
 21
-68.00000000000009
 31
0
  0
LINE
  8
1
 62
7
 10
25.4000000000001
 20
67.99999999999992
 30
0
 11
25.40000000000011
 21
29.99999999999992
 31
0
  0
LINE
  8
1
 62
7
 10
34.10000000000012
 20
64.99999999999992
 30
0
 11
34.10000000000012
 21
55.99999999999992
 31
0
  0
LINE
  8
1
 62
7
 10
31.30000000000012
 20
55.49999999999992
 30
0
 11
33.60000000000012
 21
55.49999999999992
 31
0
  0
LINE
  8
1
 62
7
 10
31.30000000000012
 20
65.49999999999992
 30
0
 11
33.60000000000012
 21
65.49999999999992
 31
0
  0
LINE
  8
1
 62
7
 10
30.3000000000001
 20
66.49999999999992
 30
0
 11
31.30000000000012
 21
66.49999999999992
 31
0
  0
LINE
  8
1
 62
7
 10
32.00000000000011
 20
65.49999999999992
 30
0
 11
32.00000000000011
 21
55.49999999999992
 31
0
  0
LINE
  8
1
 62
7
 10
33.60000000000012
 20
65.49999999999992
 30
0
 11
34.10000000000012
 21
64.99999999999992
 31
0
  0
LINE
  8
1
 62
7
 10
33.60000000000012
 20
55.49999999999992
 30
0
 11
34.10000000000012
 21
55.99999999999992
 31
0
  0
LINE
  8
1
 62
7
 10
30.3000000000001
 20
54.49999999999992
 30
0
 11
31.30000000000012
 21
54.49999999999992
 31
0
  0
LINE
  8
1
 62
7
 10
30.3000000000001
 20
50.48564064605503
 30
0
 11
31.10000000000011
 21
47.49999999999992
 31
0
  0
LINE
  8
1
 62
7
 10
31.30000000000012
 20
50.6172931436424
 30
0
 11
32.1000000000001
 21
47.63165249758728
 31
0
  0
LINE
  8
1
 62
7
 10
32.1000000000001
 20
47.63165249758728
 30
0
 11
32.1000000000001
 21
29.99999999999992
 31
0
  0
LINE
  8
1
 62
7
 10
31.10000000000011
 20
-66.53672573724268
 30
0
 11
32.1000000000001
 21
-66.53672573724268
 31
0
  0
LINE
  8
1
 62
7
 10
31.10000000000006
 20
-38.50000000000009
 30
0
 11
32.10000000000005
 21
-38.50000000000009
 31
0
  0
LINE
  8
1
 62
7
 10
25.4000000000001
 20
-41.50000000000009
 30
0
 11
31.10000000000011
 21
-41.50000000000009
 31
0
  0
LINE
  8
1
 62
7
 10
25.4000000000001
 20
-53.50000000000009
 30
0
 11
30.3000000000001
 21
-53.50000000000009
 31
0
  0
LINE
  8
1
 62
7
 10
30.3000000000001
 20
-53.50000000000009
 30
0
 11
30.3000000000001
 21
-68.00000000000009
 31
0
  0
LINE
  8
1
 62
7
 10
32.1000000000001
 20
-41.00000000000009
 30
0
 11
35.00000000000009
 21
-41.00000000000009
 31
0
  0
LINE
  8
1
 62
7
 10
32.1000000000001
 20
-54.00000000000009
 30
0
 11
35.00000000000009
 21
-54.00000000000009
 31
0
  0
LINE
  8
1
 62
7
 10
32.1000000000001
 20
-50.50000000000009
 30
0
 11
32.1000000000001
 21
-66.53672573724268
 31
0
  0
LINE
  8
1
 62
7
 10
31.10000000000006
 20
-58.28122618943684
 30
0
 11
32.10000000000005
 21
-58.28122618943684
 31
0
  0
LINE
  8
1
 62
3
  6
DASHDOT
 10
118.2183393990672
 20
56.98166060093277
 30
0
 11
126.1542085275846
 21
49.0457914724154
 31
0
  0
LINE
  8
1
 62
3
  6
DASHDOT
 10
118.2183393990673
 20
-56.98166060093297
 30
0
 11
126.1542085275846
 21
-49.04579147241563
 31
0
  0
LINE
  8
1
 62
3
  6
DASHDOT
 10
224.531671980656
 20
49.33167198065578
 30
0
 11
231.8022731554815
 21
56.60227315548119
 31
0
  0
LINE
  8
1
 62
3
  6
DASHDOT
 10
224.686522984103
 20
-49.486522984103
 30
0
 11
231.8398506312496
 21
-56.6398506312496
 31
0
  0
LINE
  8
1
 62
7
 10
175.1855719724428
 20
94.03376807458497
 30
0
 11
175.1855719724428
 21
67.99999846935296
 31
0
  0
LINE
  8
1
 62
3
  6
DASHDOT
 10
0
 20
0
 30
0
 11
-3.355167023582794
 21
0
 31
0
  0
LINE
  8
1
 62
7
 10
-108.2000000000001
 20
-82.5
 30
0
 11
-105.8000000000001
 21
-82.50000000000009
 31
0
  0
LINE
  8
1
 62
7
 10
-108.2000000000001
 20
62.49999999999992
 30
0
 11
-105.8000000000001
 21
62.50000000000011
 31
0
  0
LINE
  8
1
 62
7
 10
-83.00000000000003
 20
67.5
 30
0
 11
-99.90000000000009
 21
67.49999999999992
 31
0
  0
LINE
  8
1
 62
7
 10
-83.00000000000003
 20
67.5
 30
0
 11
-82.99999999999999
 21
-67.50000000000009
 31
0
  0
LINE
  8
1
 62
7
 10
-99.90000000000009
 20
-67.50000000000009
 30
0
 11
-82.99999999999999
 21
-67.50000000000009
 31
0
  0
LINE
  8
1
 62
7
 10
-97.96953083279382
 20
94.03376807458517
 30
0
 11
-97.96953083279382
 21
67.5
 31
0
  0
LINE
  8
1
 62
7
 10
-95.3695308327938
 20
94.03376807458517
 30
0
 11
-95.3695308327938
 21
67.5
 31
0
  0
LINE
  8
1
 62
7
 10
-97.96953083279382
 20
94.03376807458517
 30
0
 11
-95.3695308327938
 21
94.03376807458517
 31
0
  0
LINE
  8
1
 62
7
 10
-96.42992528395408
 20
99.03376807458497
 30
0
 11
-96.42992528395408
 21
94.03376807458497
 31
0
  0
LINE
  8
1
 62
7
 10
-96.02221682680418
 20
99.03376807458497
 30
0
 11
-96.02221682680418
 21
94.03376807458497
 31
0
  0
LINE
  8
1
 62
7
 10
-96.90913638163337
 20
94.03376807458497
 30
0
 11
-96.90913638163337
 21
99.03376807458497
 31
0
  0
LINE
  8
1
 62
7
 10
-97.31684483878328
 20
94.03376807458497
 30
0
 11
-97.31684483878328
 21
99.03376807458497
 31
0
  0
LINE
  8
1
 62
7
 10
-82.79999999999998
 20
67.99999999999992
 30
0
 11
-82.79999999999998
 21
-68.00000000000009
 31
0
  0
LINE
  8
1
 62
7
 10
-82.79999999999998
 20
67.99999999999992
 30
0
 11
-77.89999999999999
 21
67.99999999999992
 31
0
  0
LINE
  8
1
 62
7
 10
-77.09999999999999
 20
47.49999999999992
 30
0
 11
-77.09999999999999
 21
-66.53672573724268
 31
0
  0
LINE
  8
1
 62
7
 10
-77.89999999999999
 20
-68.00000000000009
 30
0
 11
-82.79999999999998
 21
-68.00000000000009
 31
0
  0
LINE
  8
1
 62
7
 10
-74.09999999999999
 20
64.99999999999992
 30
0
 11
-74.09999999999999
 21
55.99999999999992
 31
0
  0
LINE
  8
1
 62
7
 10
-76.89999999999999
 20
55.49999999999992
 30
0
 11
-74.59999999999999
 21
55.49999999999992
 31
0
  0
LINE
  8
1
 62
7
 10
-76.89999999999999
 20
65.49999999999992
 30
0
 11
-74.59999999999999
 21
65.49999999999992
 31
0
  0
LINE
  8
1
 62
7
 10
-77.89999999999999
 20
66.49999999999992
 30
0
 11
-76.89999999999999
 21
66.49999999999992
 31
0
  0
LINE
  8
1
 62
7
 10
-76.19999999999999
 20
65.49999999999992
 30
0
 11
-76.19999999999999
 21
55.49999999999992
 31
0
  0
LINE
  8
1
 62
7
 10
-74.59999999999999
 20
65.49999999999992
 30
0
 11
-74.09999999999999
 21
64.99999999999992
 31
0
  0
LINE
  8
1
 62
7
 10
-74.59999999999999
 20
55.49999999999992
 30
0
 11
-74.09999999999999
 21
55.99999999999992
 31
0
  0
LINE
  8
1
 62
7
 10
-76.89999999999999
 20
66.49999999999992
 30
0
 11
-76.89999999999999
 21
50.6172931436424
 31
0
  0
LINE
  8
1
 62
7
 10
-77.89999999999999
 20
50.48564064605503
 30
0
 11
-77.09999999999999
 21
47.49999999999992
 31
0
  0
LINE
  8
1
 62
7
 10
-76.89999999999999
 20
50.6172931436424
 30
0
 11
-76.09999999999999
 21
47.63165249758728
 31
0
  0
LINE
  8
1
 62
7
 10
-76.09999999999999
 20
-65.77328821041914
 30
0
 11
-76.09999999999999
 21
-66.53672573724268
 31
0
  0
LINE
  8
1
 62
7
 10
-77.09999999999999
 20
-66.53672573724268
 30
0
 11
-76.09999999999999
 21
-66.53672573724268
 31
0
  0
LINE
  8
1
 62
7
 10
-76.09999999999999
 20
-41.00000000000009
 30
0
 11
-73.19999999999999
 21
-41.00000000000009
 31
0
  0
LINE
  8
1
 62
7
 10
-76.09999999999999
 20
-54.00000000000009
 30
0
 11
-73.19999999999999
 21
-54.00000000000009
 31
0
  0
LINE
  8
1
 62
3
  6
DASHDOT
 10
-108.2000000000001
 20
0
 30
0
 11
-111.5551670235829
 21
0
 31
0
  0
LINE
  8
1
 62
3
  6
DASHDOT
 10
-109.1008029479291
 20
-75.00000000000009
 30
0
 11
-104.6943867484771
 21
-75.00000000000009
 31
0
  0
LINE
  8
1
 62
7
 10
35.00000000000009
 20
-44.50000000000011
 30
0
 11
35.00000000000008
 21
-26.00000000000009
 31
0
  0
LINE
  8
1
 62
7
 10
32.1000000000001
 20
-30.00000000000009
 30
0
 11
32.1000000000001
 21
-44.50000000000009
 31
0
  0
LINE
  8
1
 62
7
 10
31.10000000000011
 20
-30.00000000000009
 30
0
 11
31.10000000000011
 21
-66.53672573724268
 31
0
  0
LINE
  8
1
 62
7
 10
25.40000000000012
 20
-30.00000000000009
 30
0
 11
25.40000000000012
 21
-68.00000000000009
 31
0
  0
LINE
  8
1
 62
7
 10
25.20000000000011
 20
-30.00000000000009
 30
0
 11
25.20000000000011
 21
-67.50000000000009
 31
0
  0
LINE
  8
1
 62
7
 10
-74.20000000000002
 20
24.99999999999989
 30
0
 11
-76.09999999999999
 21
24.99999999999989
 31
0
  0
LINE
  8
1
 62
7
 10
-74.20000000000002
 20
-25.00000000000011
 30
0
 11
-76.09999999999999
 21
-25.00000000000009
 31
0
  0
ARC
  8
1
 62
7
 10
175.2000000000001
 20
-1.13686837721616e-013
 30
0
 40
12.50000000000001
 50
106.260204708312
 51
73.73979529168805
  0
ARC
  8
1
 62
7
 10
-74.20000000000002
 20
-26.00000000000011
 30
0
 40
1
 50
0
 51
90
  0
ARC
  8
1
 62
7
 10
-74.20000000000002
 20
25.99999999999989
 30
0
 40
1
 50
270
 51
0
  0
ARC
  8
1
 62
7
 10
34.00000000000009
 20
-26.00000000000011
 30
0
 40
0.9999999999999858
 50
0
 51
90
  0
ARC
  8
1
 62
7
 10
34.00000000000009
 20
25.99999999999989
 30
0
 40
1
 50
270
 51
0
  0
ARC
  8
1
 62
7
 10
8.300000000000004
 20
40.49999999999992
 30
0
 40
7.000000000000013
 50
212.5569318374548
 51
270
  0
ARC
  8
1
 62
7
 10
8.300000000000004
 20
60.49999999999992
 30
0
 40
7.000000000000078
 50
90
 51
147.4430681625453
  0
ARC
  8
1
 62
7
 10
8.300000000000004
 20
-60.50000000000009
 30
0
 40
6.999999999999945
 50
212.556931837454
 51
270
  0
ARC
  8
1
 62
7
 10
8.300000000000004
 20
-40.50000000000009
 30
0
 40
7
 50
90
 51
147.4430681625459
  0
ARC
  8
1
 62
7
 10
-99.90000000000009
 20
60.49999999999992
 30
0
 40
6.999999999999993
 50
90
 51
147.4430681625454
  0
ARC
  8
1
 62
7
 10
-99.90000000000009
 20
-60.50000000000009
 30
0
 40
6.999999999999968
 50
212.5569318374539
 51
270
  0
ARC
  8
1
 62
7
 10
156.7000000000001
 20
32.04293994002413
 30
0
 40
30
 50
119.9999999999998
 51
175.6197874655645
  0
ARC
  8
1
 62
7
 10
108.0830312067061
 20
38.74999999999992
 30
0
 40
19.2187738105633
 50
313.2832916861446
 51
346.7167083138552
  0
ARC
  8
1
 62
7
 10
138.2000000000001
 20
-1.4210854715202e-013
 30
0
 40
30
 50
124.3802125344356
 51
180.0000000000001
  0
ARC
  8
1
 62
7
 10
193.7000000000001
 20
-32.04293994002435
 30
0
 40
29.99999999999998
 50
244.3802125344357
 51
300.0000000000002
  0
ARC
  8
1
 62
7
 10
175.2000000000001
 20
-1.13686837721616e-013
 30
0
 40
67
 50
180.0000000000001
 51
240
  0
ARC
  8
1
 62
7
 10
175.2000000000001
 20
-77.50000000000014
 30
0
 40
19.21877381056329
 50
73.28329168614472
 51
106.7167083138553
  0
ARC
  8
1
 62
7
 10
156.7000000000001
 20
-32.04293994002435
 30
0
 40
29.99999999999999
 50
240
 51
295.6197874655643
  0
ARC
  8
1
 62
7
 10
193.7000000000001
 20
32.04293994002413
 30
0
 40
29.99999999999999
 50
4.380212534435557
 51
59.99999999999994
  0
ARC
  8
1
 62
7
 10
175.2000000000001
 20
-1.13686837721616e-013
 30
0
 40
66.99999999999996
 50
59.99999999999999
 51
119.9999999999999
  0
ARC
  8
1
 62
7
 10
175.2000000000001
 20
-1.13686837721616e-013
 30
0
 40
67.00000000000004
 50
300.0000000000001
 51
359.9999999999999
  0
ARC
  8
1
 62
7
 10
242.3169687932941
 20
38.74999999999986
 30
0
 40
19.21877381056326
 50
193.2832916861447
 51
226.7167083138557
  0
ARC
  8
1
 62
7
 10
212.2000000000001
 20
-1.70530256582424e-013
 30
0
 40
30
 50
359.9999999999999
 51
55.61978746556412
  0
ARC
  8
1
 62
7
 10
175.2000000000001
 20
-1.13686837721616e-013
 30
0
 40
82.5
 50
130.7490543774703
 51
139.2509456225296
  0
ARC
  8
1
 62
7
 10
175.2000000000001
 20
-1.13686837721616e-013
 30
0
 40
82.50000000000001
 50
40.7490543774704
 51
49.25094562252959
  0
ARC
  8
1
 62
7
 10
175.2000000000001
 20
-1.13686837721616e-013
 30
0
 40
82.49999999999997
 50
310.7490543774704
 51
319.2509456225296
  0
ARC
  8
1
 62
7
 10
175.2000000000001
 20
-1.13686837721616e-013
 30
0
 40
82.5
 50
220.7490543774704
 51
229.2509456225297
  0
ARC
  8
1
 62
3
  6
DASHDOT
 10
175.2000000000001
 20
-1.13686837721616e-013
 30
0
 40
74.99999999999992
 50
129.6332135999826
 51
140.1306447068699
  0
ARC
  8
1
 62
3
  6
DASHDOT
 10
175.2000000000001
 20
-1.13686837721616e-013
 30
0
 40
74.99999999999997
 50
219.6332135999826
 51
230.1306447068699
  0
ARC
  8
1
 62
3
  6
DASHDOT
 10
175.2000000000001
 20
-1.13686837721616e-013
 30
0
 40
75.00000000000007
 50
39.43134464471156
 51
50.13788976541066
  0
ARC
  8
1
 62
3
  6
DASHDOT
 10
175.2000000000001
 20
-1.13686837721616e-013
 30
0
 40
75.00000000000003
 50
310.2802165747631
 51
319.3131317486746
  0
ARC
  8
1
 62
7
 10
175.2000000000001
 20
60.49999999999992
 30
0
 40
5.000000000000019
 50
294.7899225525004
 51
245.2100774474996
  0
ARC
  8
1
 62
7
 10
122.8054630710416
 20
-30.25000000000009
 30
0
 40
4.999999999999954
 50
54.78992255250117
 51
5.21007744749918
  0
ARC
  8
1
 62
7
 10
227.5945369289586
 20
-30.25000000000011
 30
0
 40
4.99999999999994
 50
174.7899225525006
 51
125.2100774474988
  0
CIRCLE
  8
1
 62
3
 10
155.4010101267768
 20
-19.79898987322343
 30
0
 40
3
  0
CIRCLE
  8
1
 62
7
 10
155.4010101267768
 20
-19.79898987322343
 30
0
 40
2.400000000000119
  0
CIRCLE
  8
1
 62
3
 10
194.9989898732234
 20
19.79898987322324
 30
0
 40
3
  0
CIRCLE
  8
1
 62
7
 10
194.9989898732234
 20
19.79898987322324
 30
0
 40
2.400000000000006
  0
CIRCLE
  8
1
 62
7
 10
175.2
 20
-47.50000000000011
 30
0
 40
3
  0
CIRCLE
  8
1
 62
7
 10
134.0637933202393
 20
23.74999999999994
 30
0
 40
3
  0
CIRCLE
  8
1
 62
7
 10
175.2
 20
-47.50000000000011
 30
0
 40
6
  0
CIRCLE
  8
1
 62
7
 10
134.0637933202393
 20
23.74999999999994
 30
0
 40
6
  0
CIRCLE
  8
1
 62
7
 10
216.336206679761
 20
23.74999999999989
 30
0
 40
6
  0
CIRCLE
  8
1
 62
7
 10
216.336206679761
 20
23.74999999999989
 30
0
 40
3
  0
CIRCLE
  8
1
 62
7
 10
175.2000000000001
 20
-1.13686837721616e-013
 30
0
 40
56
  0
CIRCLE
  8
1
 62
7
 10
175.2000000000001
 20
-1.13686837721616e-013
 30
0
 40
68
  0
CIRCLE
  8
1
 62
7
 10
122.1669914110091
 20
53.03300858899095
 30
0
 40
3.25
  0
CIRCLE
  8
1
 62
7
 10
122.1669914110091
 20
-53.03300858899118
 30
0
 40
3.25
  0
CIRCLE
  8
1
 62
7
 10
228.2330085889912
 20
53.03300858899095
 30
0
 40
3.249999999999915
  0
CIRCLE
  8
1
 62
7
 10
228.2330085889912
 20
-53.03300858899118
 30
0
 40
3.249999999999915
  0
TEXT
  8
1
 62
7
 10
-108.0519858253461
 20
129.0148541717429
 30
0
 40
5
  1
TMB 5HI
 41
0.9
  7
SIMPLEX
  0
TEXT
  8
1
 62
7
 10
-108.0519858253461
 20
121.0084315823569
 30
0
 40
5
  1
DC1710
 41
0.9
  7
SIMPLEX
  0
ENDSEC
  0
EOF
