  0
SECTION
  2
HEADER
  9
$ACADVER
  1
AC1009
  9
$INSBASE
 10
0
 20
0
  9
$EXTMIN
 10
-141.9123782761773
 20
-104.9915102890799
  9
$EXTMAX
 10
301.0000000000001
 20
197.5004718891745
  9
$LIMMIN
 10
-141.9123782761773
 20
-104.9915102890799
  9
$LIMMAX
 10
301.0000000000001
 20
197.5004718891745
  9
$VIEWCTR
 10
10
 20
10
  9
$VIEWSIZE
 40
10
  9
$SNAPMODE
 70
0
  9
$SNAPUNIT
 10
1
 20
1
  9
$SNAPBASE
 10
0
 20
0
  9
$SNAPANG
 50
0
  9
$SNAPSTYLE
 70
0
  9
$SNAPISOPAIR
 70
0
  9
$GRIDMODE
 70
0
  9
$GRIDUNIT
 10
0
 20
0
  9
$ORTHOMODE
 70
0
  9
$REGENMODE
 70
1
  9
$FILLMODE
 70
1
  9
$QTEXTMODE
 70
0
  9
$DRAGMODE
 70
2
  9
$LTSCALE
 40
1
  9
$OSMODE
 70
0
  9
$ATTMODE
 70
1
  9
$TEXTSIZE
 40
3.5
  9
$TRACEWID
 40
0.5
  9
$TEXTSTYLE
  7
STANDARD
  9
$CLAYER
  8
0
  9
$CELTYPE
  6
BYLAYER
  9
$CECOLOR
 62
256
  9
$DIMSCALE
 40
1
  9
$DIMASZ
 40
0.18
  9
$DIMEXO
 40
0.0625
  9
$DIMDLI
 40
0.38
  9
$DIMRND
 40
0
  9
$DIMDLE
 40
0
  9
$DIMEXE
 40
0.18
  9
$DIMTP
 40
0
  9
$DIMTM
 40
0
  9
$DIMTXT
 40
0.18
  9
$DIMCEN
 40
0.09
  9
$DIMTSZ
 40
0
  9
$DIMTOL
 70
0
  9
$DIMLIM
 70
0
  9
$DIMTIH
 70
1
  9
$DIMTOH
 70
1
  9
$DIMSE1
 70
0
  9
$DIMSE2
 70
0
  9
$DIMTAD
 70
0
  9
$DIMZIN
 70
0
  9
$DIMBLK
  1

  9
$DIMASO
 70
1
  9
$DIMSHO
 70
1
  9
$DIMPOST
  1

  9
$DIMAPOST
  1

  9
$DIMALT
 70
0
  9
$DIMALTD
 70
2
  9
$DIMALTF
 40
25.4
  9
$DIMLFAC
 40
1
  9
$DIMTOFL
 70
0
  9
$DIMTVP
 40
0
  9
$DIMTIX
 70
0
  9
$DIMSOXD
 70
0
  9
$DIMSAH
 70
0
  9
$DIMBLK1
  1

  9
$DIMBLK2
  1

  9
$DIMSTYLE
  2
*UNNAMED
  9
$DIMCLRD
 70
0
  9
$DIMCLRE
 70
0
  9
$DIMCLRT
 70
0
  9
$DIMTFAC
 40
1
  9
$DIMGAP
 40
0.09
  9
$LUNITS
 70
2
  9
$LUPREC
 70
4
  9
$AXISMODE
 70
0
  9
$AXISUNIT
 10
0
 20
0
  9
$SKETCHINC
 40
0.1
  9
$FILLETRAD
 40
2
  9
$AUNITS
 70
0
  9
$AUPREC
 70
0
  9
$MENU
  1
ACAD
  9
$ELEVATION
 40
0
  9
$THICKNESS
 40
0
  9
$VIEWDIR
 10
0
 20
0
 30
1
  9
$LIMCHECK
 70
0
  9
$BLIPMODE
 70
1
  9
$CHAMFERA
 40
0
  9
$CHAMFERB
 40
0
  9
$FASTZOOM
 70
1
  9
$SKPOLY
 70
0
  9
$ANGBASE
 50
0
  9
$ANGDIR
 70
0
  9
$PDMODE
 70
0
  9
$PDSIZE
 40
0
  9
$PLINEWID
 40
0
  9
$COORDS
 70
2
  0
ENDSEC
  0
SECTION
  2
TABLES
  0
TABLE
  2
DIMSTYLE
 70
0
  0
ENDTAB
  0
TABLE
  2
LTYPE
 70
9
  0
LTYPE
  2
CONTINUOUS
 70
64
  3
Solid line
 72
65
 73
0
 40
0
  0
LTYPE
  2
BORDER
 70
64
  3
__ __ . __ __ .
 72
65
 73
6
 40
20.39728057850817
 49
5.827794451002334
 49
-2.913897225501167
 49
5.827794451002334
 49
-2.913897225501167
 49
0
 49
-2.913897225501167
  0
LTYPE
  2
CENTER
 70
64
  3
____ _ ____ _
 72
65
 73
4
 40
23.31117780400934
 49
14.56948612750584
 49
-2.913897225501167
 49
2.913897225501167
 49
-2.913897225501167
  0
LTYPE
  2
DASHDOT
 70
64
  3
__ . __ . __ .
 72
65
 73
4
 40
11.65558890200467
 49
5.827794451002334
 49
-2.913897225501167
 49
0
 49
-2.913897225501167
  0
LTYPE
  2
DASHED
 70
64
  3
__ __ __ __ __
 72
65
 73
2
 40
8.741691676503502
 49
5.827794451002334
 49
-2.913897225501167
  0
LTYPE
  2
DIVIDE
 70
64
  3
__ . . __ . . 
 72
65
 73
6
 40
14.56948612750584
 49
5.827794451002334
 49
-2.913897225501167
 49
0
 49
-2.913897225501167
 49
0
 49
-2.913897225501167
  0
LTYPE
  2
DOT
 70
64
  3
..............
 72
65
 73
4
 40
5.827794451002334
 49
0
 49
-2.913897225501167
 49
0
 49
-2.913897225501167
  0
LTYPE
  2
HIDDEN
 70
64
  3
_ _ _ _ _ _ _
 72
65
 73
2
 40
4.370845838251751
 49
2.913897225501167
 49
-1.456948612750584
  0
LTYPE
  2
PHANTOM
 70
64
  3
_____ _ _ _____ _ _ 
 72
65
 73
6
 40
29.13897225501167
 49
14.56948612750584
 49
-2.913897225501167
 49
2.913897225501167
 49
-2.913897225501167
 49
2.913897225501167
 49
-2.913897225501167
  0
ENDTAB
  0
TABLE
  2
LAYER
 70
3
  0
LAYER
  2
1
 70
0
 62
7
  6
CONTINUOUS
  0
LAYER
  2
0
 70
0
 62
7
  6
CONTINUOUS
  0
ENDTAB
  0
TABLE
  2
STYLE
 70
4
  0
STYLE
  2
STANDARD
 70
0
 40
0
 41
1
 50
0
 71
0
 42
3.5
  3
txt
  4

  0
STYLE
  2
SIMPLEX
 70
0
 40
0
 41
1
 50
0
 71
0
 42
3.5
  3
simplex
  4

  0
STYLE
  2
COMPLEX
 70
0
 40
0
 41
1
 50
0
 71
0
 42
3.5
  3
complex
  4

  0
STYLE
  2
ITALIC
 70
0
 40
0
 41
1
 50
0
 71
0
 42
3.5
  3
italic
  4

  0
ENDTAB
  0
TABLE
  2
VIEW
 70
0
  0
ENDTAB
  0
ENDSEC
  0
SECTION
  2
BLOCKS
  0
ENDSEC
  0
SECTION
  2
ENTITIES
  0
LINE
  8
1
 62
7
 10
33.7230847510822
 20
-53.40726482752714
 30
0
 11
33.7230847510822
 21
-66.57575575063244
 31
0
  0
LINE
  8
1
 62
7
 10
42.92308475108221
 20
-55.99151028907977
 30
0
 11
34.72308475108223
 21
-55.99151028907977
 31
0
  0
LINE
  8
1
 62
7
 10
42.92308475108221
 20
-63.99151028907977
 30
0
 11
34.72308475108223
 21
-63.99151028907977
 31
0
  0
LINE
  8
1
 62
7
 10
31.22308475108222
 20
-53.40726482752717
 30
0
 11
34.7230847510822
 21
-53.40726482752714
 31
0
  0
LINE
  8
1
 62
7
 10
46.92308475108221
 20
71.00848971092023
 30
0
 11
46.92308475108219
 21
-70.99151028907977
 31
0
  0
LINE
  8
1
 62
7
 10
39.92308475108221
 20
71.00848971092023
 30
0
 11
46.92308475108221
 21
71.00848971092023
 31
0
  0
LINE
  8
1
 62
7
 10
39.9230847510822
 20
33.50848971092023
 30
0
 11
39.92308475108221
 21
71.00848971092023
 31
0
  0
LINE
  8
1
 62
7
 10
38.9230847510822
 20
32.50848971092023
 30
0
 11
6.923084751082214
 21
32.50848971092023
 31
0
  0
LINE
  8
1
 62
7
 10
6.923084751082214
 20
32.50848971092023
 30
0
 11
6.923084751082214
 21
-32.49151028907977
 31
0
  0
LINE
  8
1
 62
7
 10
39.9230847510822
 20
-33.49151028907977
 30
0
 11
39.9230847510822
 21
-55.99151028907976
 31
0
  0
LINE
  8
1
 62
7
 10
6.923084751082214
 20
-32.49151028907977
 30
0
 11
38.9230847510822
 21
-32.49151028907977
 31
0
  0
LINE
  8
1
 62
7
 10
46.92308475108219
 20
-70.99151028907977
 30
0
 11
39.92308475108223
 21
-70.99151028907977
 31
0
  0
LINE
  8
1
 62
7
 10
42.92308475108221
 20
-55.99151028907977
 30
0
 11
46.92308475108221
 21
-51.99151028907977
 31
0
  0
LINE
  8
1
 62
7
 10
42.92308475108221
 20
-55.99151028907977
 30
0
 11
42.92308475108221
 21
-63.99151028907977
 31
0
  0
LINE
  8
1
 62
7
 10
46.92308475108221
 20
-67.99151028907977
 30
0
 11
42.92308475108221
 21
-63.99151028907977
 31
0
  0
LINE
  8
1
 62
7
 10
31.2230847510822
 20
-66.57575575063244
 30
0
 11
34.7230847510822
 21
-66.57575575063244
 31
0
  0
LINE
  8
1
 62
7
 10
30.92308475108222
 20
-53.70726482752718
 30
0
 11
30.92308475108222
 21
-66.27575575063247
 31
0
  0
LINE
  8
1
 62
7
 10
30.92308475108222
 20
-53.70726482752718
 30
0
 11
31.22308475108222
 21
-53.40726482752717
 31
0
  0
LINE
  8
1
 62
7
 10
31.2230847510822
 20
-66.57575575063244
 30
0
 11
30.92308475108222
 21
-66.27575575063247
 31
0
  0
LINE
  8
1
 62
7
 10
212.5000000000001
 20
14.5944418567351
 30
0
 11
212.5000000000001
 21
18.0084897109203
 31
0
  0
LINE
  8
1
 62
7
 10
212.5000000000001
 20
18.0084897109203
 30
0
 11
219.5000000000001
 21
18.0084897109203
 31
0
  0
LINE
  8
1
 62
7
 10
219.5000000000001
 20
18.0084897109203
 30
0
 11
219.5000000000001
 21
14.59444185673513
 31
0
  0
LINE
  8
1
 62
7
 10
6.923084751082214
 20
18.00848971092029
 30
0
 11
46.92308475108221
 21
18.00848971092029
 31
0
  0
LINE
  8
1
 62
7
 10
6.923084751082214
 20
-14.99151028907971
 30
0
 11
46.92308475108221
 21
-14.99151028907971
 31
0
  0
LINE
  8
1
 62
3
 10
39.92308475108221
 20
34.00848971092023
 30
0
 11
46.92308475108221
 21
34.00848971092023
 31
0
  0
LINE
  8
1
 62
3
 10
39.92308475108221
 20
40.00848971092023
 30
0
 11
46.92308475108221
 21
40.00848971092023
 31
0
  0
LINE
  8
1
 62
3
  6
DASHDOT
 10
38.52308475108222
 20
37.00848971092023
 30
0
 11
48.32308475108221
 21
37.00848971092023
 31
0
  0
LINE
  8
1
 62
7
 10
39.92308475108221
 20
34.6084897109202
 30
0
 11
46.92308475108221
 21
34.6084897109202
 31
0
  0
LINE
  8
1
 62
7
 10
39.92308475108221
 20
39.40848971092021
 30
0
 11
46.92308475108221
 21
39.40848971092021
 31
0
  0
LINE
  8
1
 62
3
  6
DASHDOT
 10
222.2373187232207
 20
0.008489710920287052
 30
0
 11
209.7626812767795
 21
0.008489710920287052
 31
0
  0
LINE
  8
1
 62
3
  6
DASHDOT
 10
216.0000000000001
 20
6.245808434140884
 30
0
 11
216.0000000000001
 21
-6.228829012300309
 31
0
  0
LINE
  8
1
 62
3
  6
DASHDOT
 10
46.92308475108221
 20
0.008489710920230209
 30
0
 11
50.99371321619
 21
0.008489710920230209
 31
0
  0
LINE
  8
1
 62
7
 10
-92.0769152489179
 20
-70.99151028907977
 30
0
 11
-92.0769152489179
 21
71.00848971092023
 31
0
  0
LINE
  8
1
 62
7
 10
-92.0769152489179
 20
71.00848971092023
 30
0
 11
-85.0769152489179
 21
71.00848971092023
 31
0
  0
LINE
  8
1
 62
7
 10
-85.0769152489179
 20
71.00848971092023
 30
0
 11
-85.0769152489179
 21
-70.99151028907977
 31
0
  0
LINE
  8
1
 62
7
 10
-85.0769152489179
 20
-70.99151028907977
 30
0
 11
-92.0769152489179
 21
-70.99151028907977
 31
0
  0
LINE
  8
1
 62
3
  6
DASHDOT
 10
-85.0769152489179
 20
0.008489710920230209
 30
0
 11
-81.0062867838101
 21
0.008489710920230209
 31
0
  0
LINE
  8
1
 62
7
 10
46.92308475108221
 20
15.00848971092012
 30
0
 11
6.923084751082214
 21
15.00848971092012
 31
0
  0
LINE
  8
1
 62
7
 10
-119.7526170579201
 20
144.3859838456142
 30
0
 11
-119.7526170579201
 21
140.5084897109201
 31
0
  0
LINE
  8
1
 62
7
 10
-97.0769152489179
 20
84.00848971092023
 30
0
 11
-97.0769152489179
 21
63.89852351559409
 31
0
  0
LINE
  8
1
 62
7
 10
-97.27691524891789
 20
60.00848971092023
 30
0
 11
-98.27691524891789
 21
60.00848971092023
 31
0
  0
LINE
  8
1
 62
7
 10
-98.27691524891789
 20
-84.99151028907969
 30
0
 11
-98.27691524891789
 21
85.00848971092023
 31
0
  0
LINE
  8
1
 62
7
 10
-132.076915248918
 20
78.0084897109202
 30
0
 11
-132.0769152489179
 21
-104.9915102890799
 31
0
  0
LINE
  8
1
 62
7
 10
-129.376915248918
 20
-104.9915102890799
 30
0
 11
-129.3769152489181
 21
81.43900692516863
 31
0
  0
LINE
  8
1
 62
7
 10
12.24738294208
 20
144.3859838456142
 30
0
 11
12.24738294208
 21
140.5084897109201
 31
0
  0
LINE
  8
1
 62
7
 10
11.04738294208
 20
140.5084897109201
 30
0
 11
11.04738294208001
 21
84.5084897109202
 31
0
  0
LINE
  8
1
 62
7
 10
13.44738294208
 20
140.5084897109201
 30
0
 11
13.44738294208
 21
84.50848971092023
 31
0
  0
LINE
  8
1
 62
7
 10
33.7230847510822
 20
85.00848971092023
 30
0
 11
33.72308475108223
 21
60.00848971092023
 31
0
  0
LINE
  8
1
 62
7
 10
34.9230847510822
 20
84.00848971092023
 30
0
 11
34.9230847510822
 21
63.89852351559408
 31
0
  0
LINE
  8
1
 62
7
 10
33.7230847510822
 20
-84.99151028907974
 30
0
 11
33.7230847510822
 21
-67.49151028907974
 31
0
  0
LINE
  8
1
 62
7
 10
218.5000000000001
 20
137.4550117936284
 30
0
 11
213.5000000000001
 21
137.4550117936284
 31
0
  0
LINE
  8
1
 62
7
 10
-0.07691524891789925
 20
-39.9915102890798
 30
0
 11
2.623084751082104
 21
-39.9915102890798
 31
0
  0
LINE
  8
1
 62
7
 10
-0.07691524891779622
 20
40.00848971092023
 30
0
 11
2.623084751082107
 21
40.00848971092023
 31
0
  0
LINE
  8
1
 62
7
 10
2.623084751082104
 20
-104.9915102890799
 30
0
 11
2.623084751082104
 21
81.43900692516863
 31
0
  0
LINE
  8
1
 62
7
 10
11.04738294208
 20
140.5084897109201
 30
0
 11
13.44738294208
 21
140.5084897109201
 31
0
  0
LINE
  8
1
 62
7
 10
12.8186597234751
 20
144.3859838456142
 30
0
 11
12.8186597234751
 21
140.5084897109201
 31
0
  0
LINE
  8
1
 62
7
 10
11.68212168916282
 20
144.3431520003248
 30
0
 11
11.68212168916282
 21
140.5084897109201
 31
0
  0
LINE
  8
1
 62
7
 10
-0.07691524891789925
 20
78.0084897109202
 30
0
 11
-0.07691524891789925
 21
-104.9915102890799
 31
0
  0
LINE
  8
1
 62
7
 10
-0.07691524891779622
 20
-90.74151028907977
 30
0
 11
2.623084751082104
 21
-90.74151028907984
 31
0
  0
LINE
  8
1
 62
3
  6
DASHDOT
 10
-1.387274657309689
 20
-94.99151028907986
 30
0
 11
4.726271417383401
 21
-94.99151028907986
 31
0
  0
LINE
  8
1
 62
7
 10
-0.07691524891779622
 20
-99.2415102890798
 30
0
 11
2.623084751082107
 21
-99.2415102890798
 31
0
  0
LINE
  8
1
 62
7
 10
-0.07691524891789925
 20
-104.9915102890799
 30
0
 11
2.623084751082104
 21
-104.9915102890799
 31
0
  0
LINE
  8
1
 62
7
 10
-0.07691524891789925
 20
78.0084897109202
 30
0
 11
2.623084751082104
 21
78.0084897109202
 31
0
  0
LINE
  8
1
 62
7
 10
27.0230847510822
 20
42.00848971092023
 30
0
 11
8.9230847510822
 21
42.00848971092023
 31
0
  0
LINE
  8
1
 62
7
 10
27.02308475108219
 20
84.5084897109202
 30
0
 11
13.44738294208
 21
84.50848971092023
 31
0
  0
LINE
  8
1
 62
7
 10
8.9230847510822
 20
-84.49151028907977
 30
0
 11
27.02308475108219
 21
-84.49151028907984
 31
0
  0
LINE
  8
1
 62
7
 10
8.923084751082101
 20
-41.9915102890798
 30
0
 11
27.02308475108219
 21
-41.9915102890798
 31
0
  0
LINE
  8
1
 62
7
 10
27.02308475108219
 20
84.5084897109202
 30
0
 11
27.0230847510822
 21
37.50848971092023
 31
0
  0
LINE
  8
1
 62
7
 10
11.04738294208001
 20
84.5084897109202
 30
0
 11
8.9230847510822
 21
84.50848971092023
 31
0
  0
LINE
  8
1
 62
3
  6
DASHDOT
 10
289.1063452094557
 20
73.11483492037593
 30
0
 11
277.5368939802233
 21
61.54538369114346
 31
0
  0
LINE
  8
1
 62
3
  6
DASHDOT
 10
289.1063452094557
 20
-73.09785549853534
 30
0
 11
277.5368939802233
 21
-61.5284042693029
 31
0
  0
LINE
  8
1
 62
3
  6
DASHDOT
 10
142.8936547905444
 20
-73.09785549853541
 30
0
 11
154.4631060197769
 21
-61.52840426930288
 31
0
  0
LINE
  8
1
 62
3
  6
DASHDOT
 10
142.8936547905445
 20
73.11483492037593
 30
0
 11
154.4631060197769
 21
61.54538369114348
 31
0
  0
LINE
  8
1
 62
7
 10
145.7077529168402
 20
78.00848971092023
 30
0
 11
182.2213084918911
 21
78.00848971092023
 31
0
  0
LINE
  8
1
 62
7
 10
249.7786915081091
 20
78.00848971092023
 30
0
 11
286.29224708316
 21
78.00848971092029
 31
0
  0
LINE
  8
1
 62
7
 10
294.0000000000001
 20
70.30073679408019
 30
0
 11
294.0000000000001
 21
35.03972109645933
 31
0
  0
LINE
  8
1
 62
7
 10
294.0000000000001
 20
-33.7702017971888
 30
0
 11
294.0000000000001
 21
-70.28375737223955
 31
0
  0
LINE
  8
1
 62
7
 10
249.7786915081091
 20
-77.99151028907977
 30
0
 11
286.29224708316
 21
-77.99151028907974
 31
0
  0
LINE
  8
1
 62
7
 10
145.7077529168402
 20
-77.99151028907977
 30
0
 11
182.2213084918911
 21
-77.99151028907977
 31
0
  0
LINE
  8
1
 62
7
 10
138.0000000000001
 20
-33.7702017971888
 30
0
 11
138.0000000000001
 21
-70.28375737223959
 31
0
  0
LINE
  8
1
 62
7
 10
138.0000000000001
 20
70.30073679408019
 30
0
 11
138.0000000000001
 21
33.78718121902932
 31
0
  0
LINE
  8
1
 62
7
 10
218.5000000000001
 20
137.4550117936284
 30
0
 11
218.5000000000001
 21
84.97171705075243
 31
0
  0
LINE
  8
1
 62
7
 10
213.5000000000001
 20
137.4550117936284
 30
0
 11
213.5000000000001
 21
84.97171705075243
 31
0
  0
LINE
  8
1
 62
3
  6
DASHDOT
 10
-6.491682860419783
 20
0.008489710920230209
 30
0
 11
-0.07691524891789925
 21
0.008489710920208893
 31
0
  0
LINE
  8
1
 62
7
 10
27.32308475108221
 20
41.50848971092023
 30
0
 11
34.7230847510822
 21
41.50848971092023
 31
0
  0
LINE
  8
1
 62
7
 10
27.32308475108219
 20
85.00848971092023
 30
0
 11
33.7230847510822
 21
85.00848971092023
 31
0
  0
LINE
  8
1
 62
7
 10
33.72308475108223
 20
60.00848971092023
 30
0
 11
34.7230847510822
 21
60.00848971092023
 31
0
  0
LINE
  8
1
 62
7
 10
33.7230847510822
 20
84.00848971092023
 30
0
 11
34.9230847510822
 21
84.00848971092023
 31
0
  0
LINE
  8
1
 62
7
 10
34.9230847510822
 20
63.89852351559408
 30
0
 11
35.9230847510822
 21
60.1664727080252
 31
0
  0
LINE
  8
1
 62
7
 10
35.9230847510822
 20
60.1664727080252
 30
0
 11
35.9230847510822
 21
37.50848971092023
 31
0
  0
LINE
  8
1
 62
7
 10
33.72308475108223
 20
63.74054051848913
 30
0
 11
34.7230847510822
 21
60.00848971092023
 31
0
  0
LINE
  8
1
 62
7
 10
34.9230847510822
 20
82.50848971092023
 30
0
 11
38.2230847510822
 21
82.50848971092023
 31
0
  0
LINE
  8
1
 62
7
 10
38.7230847510822
 20
69.00848971092023
 30
0
 11
38.7230847510822
 21
82.00848971092023
 31
0
  0
LINE
  8
1
 62
7
 10
34.9230847510822
 20
68.50848971092023
 30
0
 11
38.2230847510822
 21
68.50848971092023
 31
0
  0
LINE
  8
1
 62
7
 10
35.9230847510822
 20
82.50848971092023
 30
0
 11
35.9230847510822
 21
68.50848971092023
 31
0
  0
LINE
  8
1
 62
7
 10
38.2230847510822
 20
68.50848971092023
 30
0
 11
38.7230847510822
 21
69.00848971092023
 31
0
  0
LINE
  8
1
 62
7
 10
38.7230847510822
 20
82.00848971092023
 30
0
 11
38.2230847510822
 21
82.50848971092023
 31
0
  0
LINE
  8
1
 62
7
 10
33.7230847510822
 20
67.00848971092023
 30
0
 11
34.9230847510822
 21
67.00848971092023
 31
0
  0
LINE
  8
1
 62
7
 10
33.7230847510822
 20
-84.99151028907974
 30
0
 11
27.32308475108219
 21
-84.99151028907974
 31
0
  0
LINE
  8
1
 62
7
 10
34.72308475108223
 20
-41.49151028907977
 30
0
 11
27.32308475108219
 21
-41.49151028907977
 31
0
  0
LINE
  8
1
 62
7
 10
34.7230847510822
 20
-83.99151028907974
 30
0
 11
35.92308475108221
 21
-83.99151028907969
 31
0
  0
LINE
  8
1
 62
7
 10
35.9230847510822
 20
-51.99151028907977
 30
0
 11
39.9230847510822
 21
-51.99151028907977
 31
0
  0
LINE
  8
1
 62
7
 10
35.9230847510822
 20
-67.99151028907974
 30
0
 11
39.9230847510822
 21
-67.99151028907974
 31
0
  0
LINE
  8
1
 62
7
 10
27.32308475108219
 20
-84.99151028907974
 30
0
 11
27.32308475108219
 21
-37.49151028907977
 31
0
  0
LINE
  8
1
 62
7
 10
27.32308475108219
 20
-67.49151028907974
 30
0
 11
33.7230847510822
 21
-67.49151028907974
 31
0
  0
LINE
  8
1
 62
7
 10
27.32308475108221
 20
-52.49151028907977
 30
0
 11
34.7230847510822
 21
-52.49151028907977
 31
0
  0
LINE
  8
1
 62
7
 10
34.7230847510822
 20
60.00848971092023
 30
0
 11
34.72308475108223
 21
37.50848971092023
 31
0
  0
LINE
  8
1
 62
7
 10
34.72308475108223
 20
-73.32132685848029
 30
0
 11
35.92308475108221
 21
-73.32132685848029
 31
0
  0
LINE
  8
1
 62
7
 10
35.92308475108221
 20
-63.99151028907971
 30
0
 11
35.92308475108221
 21
-83.99151028907969
 31
0
  0
LINE
  8
1
 62
7
 10
34.7230847510822
 20
-49.49151028907977
 30
0
 11
35.9230847510822
 21
-49.49151028907977
 31
0
  0
LINE
  8
1
 62
7
 10
217.7458623811876
 20
141.5237208819017
 30
0
 11
217.7458623811876
 21
137.4550117936284
 31
0
  0
LINE
  8
1
 62
7
 10
216.9330534101107
 20
141.4729203212094
 30
0
 11
216.9330534101107
 21
137.4550117936284
 31
0
  0
LINE
  8
1
 62
7
 10
215.2058343465722
 20
141.3205186391324
 30
0
 11
215.2058343465722
 21
137.4550117936284
 31
0
  0
LINE
  8
1
 62
7
 10
214.2914242541106
 20
141.3205186391324
 30
0
 11
214.2914242541106
 21
137.4550117936284
 31
0
  0
LINE
  8
1
 62
7
 10
216.0000000000001
 20
137.4550117936284
 30
0
 11
216.0000000000001
 21
85.00076609348378
 31
0
  0
LINE
  8
1
 62
7
 10
11.04738294208001
 20
84.5084897109202
 30
0
 11
13.91548172637321
 21
84.50848971092023
 31
0
  0
LINE
  8
1
 62
7
 10
-120.9526170579201
 20
140.5084897109201
 30
0
 11
-120.9526170579202
 21
84.5084897109202
 31
0
  0
LINE
  8
1
 62
7
 10
-118.5526170579201
 20
140.5084897109201
 30
0
 11
-118.5526170579201
 21
84.50848971092023
 31
0
  0
LINE
  8
1
 62
7
 10
-120.9526170579201
 20
140.5084897109201
 30
0
 11
-118.5526170579201
 21
140.5084897109201
 31
0
  0
LINE
  8
1
 62
7
 10
-119.181340276525
 20
144.3859838456142
 30
0
 11
-119.181340276525
 21
140.5084897109201
 31
0
  0
LINE
  8
1
 62
7
 10
-120.3178783108373
 20
144.3431520003248
 30
0
 11
-120.3178783108373
 21
140.5084897109201
 31
0
  0
LINE
  8
1
 62
3
  6
DASHDOT
 10
-133.3872746573098
 20
-94.99151028907986
 30
0
 11
-127.2737285826166
 21
-94.99151028907977
 31
0
  0
LINE
  8
1
 62
7
 10
-132.0769152489179
 20
-104.9915102890799
 30
0
 11
-129.376915248918
 21
-104.9915102890799
 31
0
  0
LINE
  8
1
 62
7
 10
-132.076915248918
 20
78.0084897109202
 30
0
 11
-129.3769152489181
 21
78.0084897109202
 31
0
  0
LINE
  8
1
 62
7
 10
-104.9769152489179
 20
84.50848971092023
 30
0
 11
-123.076915248918
 21
84.5084897109202
 31
0
  0
LINE
  8
1
 62
7
 10
-123.0769152489179
 20
-84.49151028907977
 30
0
 11
-104.9769152489179
 21
-84.49151028907977
 31
0
  0
LINE
  8
1
 62
7
 10
-104.9769152489179
 20
84.50848971092023
 30
0
 11
-104.9769152489179
 21
-84.49151028907977
 31
0
  0
LINE
  8
1
 62
3
  6
DASHDOT
 10
-138.4916828604199
 20
0.008489710920230209
 30
0
 11
-132.0769152489179
 21
0.008489710920230209
 31
0
  0
LINE
  8
1
 62
7
 10
-104.6769152489179
 20
85.00848971092023
 30
0
 11
-104.6769152489179
 21
-84.99151028907969
 31
0
  0
LINE
  8
1
 62
7
 10
-104.6769152489179
 20
85.00848971092023
 30
0
 11
-98.27691524891789
 21
85.00848971092023
 31
0
  0
LINE
  8
1
 62
7
 10
-97.27691524891789
 20
60.00848971092023
 30
0
 11
-97.27691524891789
 21
-83.99151028907969
 31
0
  0
LINE
  8
1
 62
7
 10
-98.27691524891789
 20
84.00848971092023
 30
0
 11
-97.0769152489179
 21
84.00848971092023
 31
0
  0
LINE
  8
1
 62
7
 10
-97.0769152489179
 20
63.89852351559409
 30
0
 11
-96.0769152489179
 21
60.1664727080252
 31
0
  0
LINE
  8
1
 62
7
 10
-98.27691524891789
 20
63.74054051848913
 30
0
 11
-97.27691524891789
 21
60.00848971092023
 31
0
  0
LINE
  8
1
 62
7
 10
-97.0769152489179
 20
82.50848971092023
 30
0
 11
-93.77691524891789
 21
82.50848971092023
 31
0
  0
LINE
  8
1
 62
7
 10
-93.27691524891789
 20
69.00848971092023
 30
0
 11
-93.27691524891789
 21
82.00848971092023
 31
0
  0
LINE
  8
1
 62
7
 10
-97.0769152489179
 20
68.50848971092023
 30
0
 11
-93.77691524891789
 21
68.50848971092023
 31
0
  0
LINE
  8
1
 62
7
 10
-96.0769152489179
 20
82.50848971092023
 30
0
 11
-96.0769152489179
 21
68.50848971092023
 31
0
  0
LINE
  8
1
 62
7
 10
-93.77691524891789
 20
68.50848971092023
 30
0
 11
-93.27691524891789
 21
69.00848971092023
 31
0
  0
LINE
  8
1
 62
7
 10
-93.27691524891789
 20
82.00848971092023
 30
0
 11
-93.77691524891789
 21
82.50848971092023
 31
0
  0
LINE
  8
1
 62
7
 10
-98.27691524891789
 20
-84.99151028907969
 30
0
 11
-104.6769152489179
 21
-84.99151028907969
 31
0
  0
LINE
  8
1
 62
7
 10
-97.27691524891789
 20
-83.99151028907969
 30
0
 11
-96.0769152489179
 21
-83.99151028907969
 31
0
  0
LINE
  8
1
 62
7
 10
-96.0769152489179
 20
-51.99151028907977
 30
0
 11
-92.0769152489179
 21
-51.99151028907977
 31
0
  0
LINE
  8
1
 62
7
 10
-96.0769152489179
 20
-67.99151028907974
 30
0
 11
-92.0769152489179
 21
-67.99151028907974
 31
0
  0
LINE
  8
1
 62
7
 10
-96.0769152489179
 20
60.1664727080252
 30
0
 11
-96.0769152489179
 21
-83.99151028907969
 31
0
  0
LINE
  8
1
 62
7
 10
27.02308475108219
 20
-37.49151028907977
 30
0
 11
27.02308475108219
 21
-84.49151028907984
 31
0
  0
LINE
  8
1
 62
7
 10
34.7230847510822
 20
-37.49151028907977
 30
0
 11
34.7230847510822
 21
-83.99151028907974
 31
0
  0
LINE
  8
1
 62
7
 10
35.9230847510822
 20
-37.49151028907977
 30
0
 11
35.92308475108221
 21
-55.99151028907971
 31
0
  0
LINE
  8
1
 62
7
 10
27.32308475108221
 20
37.50848971092023
 30
0
 11
27.32308475108219
 21
85.00848971092023
 31
0
  0
LINE
  8
1
 62
7
 10
39.92308475108223
 20
-63.99151028907977
 30
0
 11
39.92308475108223
 21
-70.99151028907977
 31
0
  0
LINE
  8
1
 62
7
 10
-93.0769152489179
 20
32.50848971092023
 30
0
 11
-96.0769152489179
 21
32.50848971092023
 31
0
  0
LINE
  8
1
 62
7
 10
-93.0769152489179
 20
-32.49151028907977
 30
0
 11
-96.0769152489179
 21
-32.49151028907977
 31
0
  0
ARC
  8
1
 62
7
 10
216.0000000000001
 20
0.008489710920287052
 30
0
 40
14.99999999999999
 50
103.4933988215517
 51
76.50660117844834
  0
ARC
  8
1
 62
7
 10
38.9230847510822
 20
33.50848971092023
 30
0
 40
1
 50
270
 51
0
  0
ARC
  8
1
 62
7
 10
38.9230847510822
 20
-33.49151028907977
 30
0
 40
1
 50
0
 51
90
  0
ARC
  8
1
 62
7
 10
-93.0769152489179
 20
33.50848971092023
 30
0
 40
1
 50
270
 51
0
  0
ARC
  8
1
 62
7
 10
-93.0769152489179
 20
-33.49151028907977
 30
0
 40
1
 50
0
 51
90
  0
ARC
  8
1
 62
7
 10
8.923084751082101
 20
50.00848971092021
 30
0
 40
7.999999999999981
 50
218.0475074536198
 51
270.0000000000007
  0
ARC
  8
1
 62
7
 10
8.923084751082101
 20
76.5084897109202
 30
0
 40
8.000000000000028
 50
89.9999999999993
 51
141.9524925463801
  0
ARC
  8
1
 62
7
 10
8.923084751082101
 20
-76.49151028907984
 30
0
 40
7.999999999999954
 50
218.0475074536195
 51
270.0000000000007
  0
ARC
  8
1
 62
7
 10
8.923084751082101
 20
-49.9915102890798
 30
0
 40
8
 50
90
 51
141.9524925463801
  0
ARC
  8
1
 62
7
 10
-123.076915248918
 20
76.5084897109202
 30
0
 40
8
 50
90
 51
141.9524925463805
  0
ARC
  8
1
 62
7
 10
-123.0769152489179
 20
-76.49151028907977
 30
0
 40
8.000000000000091
 50
218.0475074536194
 51
270
  0
ARC
  8
1
 62
3
  6
DASHDOT
 10
216.0000000000001
 20
0.008489710920287052
 30
0
 40
95.00000000000003
 50
218.6609463271926
 51
231.514938519335
  0
ARC
  8
1
 62
3
  6
DASHDOT
 10
216.0000000000001
 20
0.008489710920287052
 30
0
 40
95.00000000000006
 50
309.5384280769269
 51
321.6737501779941
  0
ARC
  8
1
 62
3
  6
DASHDOT
 10
216.0000000000001
 20
0.008489710920287052
 30
0
 40
94.99999999999997
 50
39.60205267537873
 51
51.08523433625139
  0
ARC
  8
1
 62
3
  6
DASHDOT
 10
216.0000000000001
 20
0.008489710920287052
 30
0
 40
95
 50
129.2356257536401
 51
141.1695612802237
  0
ARC
  8
1
 62
7
 10
216.0000000000001
 20
0.008489710920287052
 30
0
 40
105
 50
312.0246275793772
 51
317.9753724206228
  0
ARC
  8
1
 62
7
 10
216.0000000000001
 20
0.008489710920287052
 30
0
 40
105
 50
222.0246275793772
 51
227.9753724206228
  0
ARC
  8
1
 62
7
 10
216.0000000000001
 20
0.008489710920287052
 30
0
 40
105
 50
132.0246275793773
 51
137.9753724206228
  0
ARC
  8
1
 62
7
 10
216.0000000000001
 20
0.008489710920287052
 30
0
 40
105
 50
42.02462757937724
 51
47.97537242062276
  0
ARC
  8
1
 62
7
 10
304.3345911860129
 20
51.00848971092023
 30
0
 40
28.67018343059944
 50
187.3001618313573
 51
232.6998381686422
  0
ARC
  8
1
 62
7
 10
263.0000000000001
 20
0.008489710920230209
 30
0
 40
37
 50
359.9999999999997
 51
49.64006324378071
  0
ARC
  8
1
 62
7
 10
216.0000000000001
 20
0.008489710920287052
 30
0
 40
84.00000000000004
 50
60.00000000000002
 51
120
  0
ARC
  8
1
 62
7
 10
239.5000000000001
 20
40.71168368878887
 30
0
 40
37
 50
10.3599367562195
 51
60.00000000000007
  0
ARC
  8
1
 62
7
 10
216
 20
-101.9915102890797
 30
0
 40
28.67018343059942
 50
67.30016183135713
 51
112.6998381686424
  0
ARC
  8
1
 62
7
 10
192.5
 20
-40.69470426694835
 30
0
 40
36.99999999999999
 50
239.9999999999998
 51
289.6400632437806
  0
ARC
  8
1
 62
7
 10
216.0000000000001
 20
0.008489710920287052
 30
0
 40
84.00000000000003
 50
299.9999999999999
 51
359.9999999999998
  0
ARC
  8
1
 62
7
 10
239.5000000000001
 20
-40.69470426694835
 30
0
 40
36.99999999999998
 50
250.3599367562195
 51
299.9999999999999
  0
ARC
  8
1
 62
7
 10
169.0000000000001
 20
0.008489710920230209
 30
0
 40
37.00000000000001
 50
130.3599367562194
 51
180
  0
ARC
  8
1
 62
7
 10
216.0000000000001
 20
0.008489710920287052
 30
0
 40
84
 50
180
 51
239.9999999999998
  0
ARC
  8
1
 62
7
 10
192.5000000000001
 20
40.71168368878887
 30
0
 40
37.00000000000004
 50
120
 51
169.6400632437805
  0
ARC
  8
1
 62
7
 10
127.6654088139873
 20
51.00848971092029
 30
0
 40
28.67018343059947
 50
307.3001618313576
 51
352.6998381686425
  0
ARC
  8
1
 62
7
 10
216.0000000000001
 20
75.50848971092023
 30
0
 40
6.650000000000024
 50
315.5276359619236
 51
224.4723640380762
  0
ARC
  8
1
 62
7
 10
150.615082014275
 20
-37.74151028907966
 30
0
 40
6.650000000000055
 50
75.52763596192337
 51
344.4723640380768
  0
ARC
  8
1
 62
7
 10
281.3849179857252
 20
-37.74151028907974
 30
0
 40
6.650000000000085
 50
195.5276359619234
 51
104.4723640380777
  0
CIRCLE
  8
1
 62
7
 10
216.0000000000001
 20
0.008489710920287052
 30
0
 40
71
  0
CIRCLE
  8
1
 62
7
 10
267.9615242270664
 20
30.00848971092029
 30
0
 40
4
  0
CIRCLE
  8
1
 62
7
 10
267.9615242270664
 20
30.00848971092029
 30
0
 40
8
  0
CIRCLE
  8
1
 62
7
 10
164.0384757729337
 20
30.00848971092017
 30
0
 40
8
  0
CIRCLE
  8
1
 62
7
 10
216.0000000000001
 20
-59.99151028907983
 30
0
 40
8.000000000000085
  0
CIRCLE
  8
1
 62
7
 10
164.0384757729337
 20
30.00848971092017
 30
0
 40
4
  0
CIRCLE
  8
1
 62
7
 10
216.0000000000001
 20
-59.99151028907983
 30
0
 40
4
  0
CIRCLE
  8
1
 62
7
 10
242.1629509039023
 20
26.17144061482253
 30
0
 40
2.399999999999892
  0
CIRCLE
  8
1
 62
3
 10
242.1629509039023
 20
26.17144061482253
 30
0
 40
3
  0
CIRCLE
  8
1
 62
7
 10
189.8370490960978
 20
-26.15446119298196
 30
0
 40
2.399999999999977
  0
CIRCLE
  8
1
 62
3
 10
189.8370490960978
 20
-26.15446119298196
 30
0
 40
3
  0
CIRCLE
  8
1
 62
7
 10
283.1751442127221
 20
67.1836339236423
 30
0
 40
4.25
  0
CIRCLE
  8
1
 62
7
 10
283.1751442127221
 20
-67.16665450180174
 30
0
 40
4.25
  0
CIRCLE
  8
1
 62
7
 10
148.8248557872781
 20
-67.16665450180174
 30
0
 40
4.25
  0
CIRCLE
  8
1
 62
7
 10
148.8248557872781
 20
67.1836339236423
 30
0
 40
4.25
  0
CIRCLE
  8
1
 62
7
 10
216.0000000000001
 20
0.008489710920287052
 30
0
 40
85
  0
TEXT
  8
1
 62
7
 10
-141.9123782761773
 20
190.5004718891745
 30
0
 40
7
  1
TMB 10HI
 41
0.9
  7
SIMPLEX
  0
TEXT
  8
1
 62
7
 10
-141.9123782761773
 20
178.5255870775585
 30
0
 40
7
  1
DC1711
 41
0.9
  7
SIMPLEX
  0
ENDSEC
  0
EOF
