  0
SECTION
  2
HEADER
  9
$ACADVER
  1
AC1009
  9
$INSBASE
 10
0
 20
0
  9
$EXTMIN
 10
-391.3886496956208
 20
-70.1645877542571
  9
$EXTMAX
 10
0
 20
208.0682446313295
  9
$LIMMIN
 10
-391.3886496956208
 20
-70.1645877542571
  9
$LIMMAX
 10
0
 20
208.0682446313295
  9
$VIEWCTR
 10
10
 20
10
  9
$VIEWSIZE
 40
10
  9
$SNAPMODE
 70
0
  9
$SNAPUNIT
 10
1
 20
1
  9
$SNAPBASE
 10
0
 20
0
  9
$SNAPANG
 50
0
  9
$SNAPSTYLE
 70
0
  9
$SNAPISOPAIR
 70
0
  9
$GRIDMODE
 70
0
  9
$GRIDUNIT
 10
0
 20
0
  9
$ORTHOMODE
 70
0
  9
$REGENMODE
 70
1
  9
$FILLMODE
 70
1
  9
$QTEXTMODE
 70
0
  9
$DRAGMODE
 70
2
  9
$LTSCALE
 40
1
  9
$OSMODE
 70
0
  9
$ATTMODE
 70
1
  9
$TEXTSIZE
 40
3.5
  9
$TRACEWID
 40
0.5
  9
$TEXTSTYLE
  7
STANDARD
  9
$CLAYER
  8
0
  9
$CELTYPE
  6
BYLAYER
  9
$CECOLOR
 62
256
  9
$DIMSCALE
 40
1
  9
$DIMASZ
 40
0.18
  9
$DIMEXO
 40
0.0625
  9
$DIMDLI
 40
0.38
  9
$DIMRND
 40
0
  9
$DIMDLE
 40
0
  9
$DIMEXE
 40
0.18
  9
$DIMTP
 40
0
  9
$DIMTM
 40
0
  9
$DIMTXT
 40
0.18
  9
$DIMCEN
 40
0.09
  9
$DIMTSZ
 40
0
  9
$DIMTOL
 70
0
  9
$DIMLIM
 70
0
  9
$DIMTIH
 70
1
  9
$DIMTOH
 70
1
  9
$DIMSE1
 70
0
  9
$DIMSE2
 70
0
  9
$DIMTAD
 70
0
  9
$DIMZIN
 70
0
  9
$DIMBLK
  1

  9
$DIMASO
 70
1
  9
$DIMSHO
 70
1
  9
$DIMPOST
  1

  9
$DIMAPOST
  1

  9
$DIMALT
 70
0
  9
$DIMALTD
 70
2
  9
$DIMALTF
 40
25.4
  9
$DIMLFAC
 40
1
  9
$DIMTOFL
 70
0
  9
$DIMTVP
 40
0
  9
$DIMTIX
 70
0
  9
$DIMSOXD
 70
0
  9
$DIMSAH
 70
0
  9
$DIMBLK1
  1

  9
$DIMBLK2
  1

  9
$DIMSTYLE
  2
*UNNAMED
  9
$DIMCLRD
 70
0
  9
$DIMCLRE
 70
0
  9
$DIMCLRT
 70
0
  9
$DIMTFAC
 40
1
  9
$DIMGAP
 40
0.09
  9
$LUNITS
 70
2
  9
$LUPREC
 70
4
  9
$AXISMODE
 70
0
  9
$AXISUNIT
 10
0
 20
0
  9
$SKETCHINC
 40
0.1
  9
$FILLETRAD
 40
2
  9
$AUNITS
 70
0
  9
$AUPREC
 70
0
  9
$MENU
  1
ACAD
  9
$ELEVATION
 40
0
  9
$THICKNESS
 40
0
  9
$VIEWDIR
 10
0
 20
0
 30
1
  9
$LIMCHECK
 70
0
  9
$BLIPMODE
 70
1
  9
$CHAMFERA
 40
0
  9
$CHAMFERB
 40
0
  9
$FASTZOOM
 70
1
  9
$SKPOLY
 70
0
  9
$ANGBASE
 50
0
  9
$ANGDIR
 70
0
  9
$PDMODE
 70
0
  9
$PDSIZE
 40
0
  9
$PLINEWID
 40
0
  9
$COORDS
 70
2
  0
ENDSEC
  0
SECTION
  2
TABLES
  0
TABLE
  2
DIMSTYLE
 70
0
  0
ENDTAB
  0
TABLE
  2
LTYPE
 70
9
  0
LTYPE
  2
CONTINUOUS
 70
64
  3
Solid line
 72
65
 73
0
 40
0
  0
LTYPE
  2
BORDER
 70
64
  3
__ __ . __ __ .
 72
65
 73
6
 40
18.02447728861412
 49
5.149850653889748
 49
-2.574925326944874
 49
5.149850653889748
 49
-2.574925326944874
 49
0
 49
-2.574925326944874
  0
LTYPE
  2
CENTER
 70
64
  3
____ _ ____ _
 72
65
 73
4
 40
20.59940261555899
 49
12.87462663472437
 49
-2.574925326944874
 49
2.574925326944874
 49
-2.574925326944874
  0
LTYPE
  2
DASHDOT
 70
64
  3
__ . __ . __ .
 72
65
 73
4
 40
10.2997013077795
 49
5.149850653889748
 49
-2.574925326944874
 49
0
 49
-2.574925326944874
  0
LTYPE
  2
DASHED
 70
64
  3
__ __ __ __ __
 72
65
 73
2
 40
7.724775980834622
 49
5.149850653889748
 49
-2.574925326944874
  0
LTYPE
  2
DIVIDE
 70
64
  3
__ . . __ . . 
 72
65
 73
6
 40
12.87462663472437
 49
5.149850653889748
 49
-2.574925326944874
 49
0
 49
-2.574925326944874
 49
0
 49
-2.574925326944874
  0
LTYPE
  2
DOT
 70
64
  3
..............
 72
65
 73
4
 40
5.149850653889748
 49
0
 49
-2.574925326944874
 49
0
 49
-2.574925326944874
  0
LTYPE
  2
HIDDEN
 70
64
  3
_ _ _ _ _ _ _
 72
65
 73
2
 40
3.862387990417311
 49
2.574925326944874
 49
-1.287462663472437
  0
LTYPE
  2
PHANTOM
 70
64
  3
_____ _ _ _____ _ _ 
 72
65
 73
6
 40
25.74925326944874
 49
12.87462663472437
 49
-2.574925326944874
 49
2.574925326944874
 49
-2.574925326944874
 49
2.574925326944874
 49
-2.574925326944874
  0
ENDTAB
  0
TABLE
  2
LAYER
 70
3
  0
LAYER
  2
1
 70
0
 62
7
  6
CONTINUOUS
  0
LAYER
  2
0
 70
0
 62
7
  6
CONTINUOUS
  0
ENDTAB
  0
TABLE
  2
STYLE
 70
4
  0
STYLE
  2
STANDARD
 70
0
 40
0
 41
1
 50
0
 71
0
 42
3.5
  3
txt
  4

  0
STYLE
  2
SIMPLEX
 70
0
 40
0
 41
1
 50
0
 71
0
 42
3.5
  3
simplex
  4

  0
STYLE
  2
COMPLEX
 70
0
 40
0
 41
1
 50
0
 71
0
 42
3.5
  3
complex
  4

  0
STYLE
  2
ITALIC
 70
0
 40
0
 41
1
 50
0
 71
0
 42
3.5
  3
italic
  4

  0
ENDTAB
  0
TABLE
  2
VIEW
 70
0
  0
ENDTAB
  0
ENDSEC
  0
SECTION
  2
BLOCKS
  0
ENDSEC
  0
SECTION
  2
ENTITIES
  0
LINE
  8
1
 62
7
 10
-139.0400170712609
 20
192.0682446313296
 30
0
 11
-142.6400170712609
 21
192.0682446313296
 31
0
  0
LINE
  8
1
 62
7
 10
-43.49001707126081
 20
181.0682446313296
 30
0
 11
-43.99001707126081
 21
181.0682446313296
 31
0
  0
LINE
  8
1
 62
7
 10
-170.8400170712609
 20
171.0682446313296
 30
0
 11
-172.8400170712609
 21
171.0682446313296
 31
0
  0
LINE
  8
1
 62
7
 10
-170.8400170712609
 20
109.0682446313295
 30
0
 11
-170.8400170712609
 21
181.1340708801231
 31
0
  0
LINE
  8
1
 62
7
 10
-172.8400170712609
 20
187.0682446313296
 30
0
 11
-172.8400170712609
 21
115.0682446313296
 31
0
  0
LINE
  8
1
 62
3
  6
DASHDOT
 10
-154.3400170712609
 20
106.0682446313295
 30
0
 11
-146.9726419711359
 21
106.0682446313295
 31
0
  0
LINE
  8
1
 62
7
 10
-142.6400170712609
 20
192.0682446313296
 30
0
 11
-142.6400170712609
 21
110.0682446313296
 31
0
  0
LINE
  8
1
 62
7
 10
-66.4400170712608
 20
110.0682446313296
 30
0
 11
-70.04001707126093
 21
110.0682446313296
 31
0
  0
LINE
  8
1
 62
7
 10
-68.54001707126093
 20
110.0682446313296
 30
0
 11
-68.54001707126093
 21
192.0682446313296
 31
0
  0
LINE
  8
1
 62
7
 10
-66.44001707126091
 20
192.0682446313296
 30
0
 11
-66.4400170712608
 21
110.0682446313296
 31
0
  0
LINE
  8
1
 62
7
 10
-41.04001707126089
 20
115.0682446313295
 30
0
 11
-37.04001707126089
 21
115.0682446313295
 31
0
  0
LINE
  8
1
 62
7
 10
-33.34001707126089
 20
7.5
 30
0
 11
-3.340017071260888
 21
7.5
 31
0
  0
LINE
  8
1
 62
7
 10
-3.340017071260888
 20
-7.5
 30
0
 11
-33.34001707126089
 21
-7.5
 31
0
  0
LINE
  8
1
 62
7
 10
-3.340017071260888
 20
143.5682446313295
 30
0
 11
-33.34001707126089
 21
143.5682446313295
 31
0
  0
LINE
  8
1
 62
7
 10
-3.340017071260888
 20
158.5682446313295
 30
0
 11
-3.340017071260888
 21
143.5682446313295
 31
0
  0
LINE
  8
1
 62
7
 10
-33.34001707126089
 20
158.5682446313295
 30
0
 11
-3.340017071260888
 21
158.5682446313295
 31
0
  0
LINE
  8
1
 62
7
 10
-132.5400170712609
 20
94.06824463132952
 30
0
 11
-160.5400170712609
 21
94.06824463132952
 31
0
  0
LINE
  8
1
 62
7
 10
-76.54001707126093
 20
91.06824463132952
 30
0
 11
-76.54001707126093
 21
108.0682446313296
 31
0
  0
LINE
  8
1
 62
7
 10
-132.5400170712609
 20
91.06824463132952
 30
0
 11
-76.54001707126093
 21
91.06824463132952
 31
0
  0
LINE
  8
1
 62
7
 10
-132.5400170712609
 20
108.0682446313296
 30
0
 11
-132.5400170712609
 21
91.06824463132952
 31
0
  0
LINE
  8
1
 62
7
 10
-160.5400170712609
 20
208.0682446313295
 30
0
 11
-48.54001707126094
 21
208.0682446313295
 31
0
  0
LINE
  8
1
 62
7
 10
-164.5400170712609
 20
98.06824463132952
 30
0
 11
-164.5400170712609
 21
107.1826039852745
 31
0
  0
LINE
  8
1
 62
7
 10
-48.54001707126094
 20
94.06824463132952
 30
0
 11
-76.54001707126093
 21
94.06824463132952
 31
0
  0
LINE
  8
1
 62
7
 10
-44.54001707126094
 20
204.0682446313295
 30
0
 11
-44.54001707126094
 21
194.0682446313296
 31
0
  0
LINE
  8
1
 62
7
 10
-164.5400170712609
 20
194.9538852773846
 30
0
 11
-164.5400170712609
 21
204.0682446313295
 31
0
  0
LINE
  8
1
 62
7
 10
-44.54001707126094
 20
98.06824463132952
 30
0
 11
-44.54001707126094
 21
108.0682446313295
 31
0
  0
LINE
  8
1
 62
7
 10
-72.04001707126093
 20
108.0682446313296
 30
0
 11
-137.0400170712609
 21
108.0682446313296
 31
0
  0
LINE
  8
1
 62
7
 10
-72.04001707126093
 20
108.0682446313296
 30
0
 11
-137.0400170712609
 21
108.0682446313296
 31
0
  0
LINE
  8
1
 62
7
 10
-72.04001707126093
 20
108.0682446313296
 30
0
 11
-137.0400170712609
 21
108.0682446313296
 31
0
  0
LINE
  8
1
 62
7
 10
-137.0400170712609
 20
194.0682446313296
 30
0
 11
-72.04001707126093
 21
194.0682446313296
 31
0
  0
LINE
  8
1
 62
3
  6
DASHDOT
 10
-152.0400170712609
 20
101.0008695312045
 30
0
 11
-152.0400170712609
 21
111.1356197314545
 31
0
  0
LINE
  8
1
 62
7
 10
-166.6400170712609
 20
108.0682446313295
 30
0
 11
-169.8400170712609
 21
108.0682446313295
 31
0
  0
LINE
  8
1
 62
7
 10
-166.3400170712609
 20
108.5682446313295
 30
0
 11
-165.3400170712609
 21
108.5682446313295
 31
0
  0
LINE
  8
1
 62
7
 10
-165.3400170712609
 20
108.5682446313295
 30
0
 11
-163.8966413982868
 21
106.0682446313295
 31
0
  0
LINE
  8
1
 62
3
  6
DASHDOT
 10
-152.0400170712609
 20
191.0008695312046
 30
0
 11
-152.0400170712609
 21
201.1356197314546
 31
0
  0
LINE
  8
1
 62
3
  6
DASHDOT
 10
-146.9726419711359
 20
196.0682446313296
 30
0
 11
-154.3400170712609
 21
196.0682446313296
 31
0
  0
LINE
  8
1
 62
3
  6
DASHDOT
 10
-57.04001707126094
 20
111.1356197314545
 30
0
 11
-57.04001707126094
 21
101.0008695312045
 31
0
  0
LINE
  8
1
 62
3
  6
DASHDOT
 10
-62.10739217138592
 20
106.0682446313295
 30
0
 11
-51.97264197113594
 21
106.0682446313295
 31
0
  0
LINE
  8
1
 62
3
  6
DASHDOT
 10
-57.04001707126094
 20
201.1356197314546
 30
0
 11
-57.04001707126094
 21
191.0008695312046
 31
0
  0
LINE
  8
1
 62
3
  6
DASHDOT
 10
-51.97264197113594
 20
196.0682446313296
 30
0
 11
-62.10739217138592
 21
196.0682446313296
 31
0
  0
LINE
  8
1
 62
7
 10
-25.84001707126089
 20
148.5682446313295
 30
0
 11
-3.340017071260888
 21
148.5682446313295
 31
0
  0
LINE
  8
1
 62
7
 10
-3.340017071260888
 20
153.5682446313295
 30
0
 11
-25.84001707126089
 21
153.5682446313295
 31
0
  0
LINE
  8
1
 62
7
 10
-35.54001707126089
 20
138.5833482651203
 30
0
 11
-37.04001707126088
 21
138.5833482651203
 31
0
  0
LINE
  8
1
 62
7
 10
-33.34001707126089
 20
141.8164785537457
 30
0
 11
-35.54001707126089
 21
141.8164785537457
 31
0
  0
LINE
  8
1
 62
7
 10
-33.34001707126089
 20
141.8164785537457
 30
0
 11
-33.34001707126089
 21
160.3200107089134
 31
0
  0
LINE
  8
1
 62
7
 10
-35.54001707126089
 20
160.3200107089134
 30
0
 11
-33.34001707126089
 21
160.3200107089134
 31
0
  0
LINE
  8
1
 62
7
 10
-35.54001707126089
 20
163.5531409975387
 30
0
 11
-35.54001707126089
 21
138.5833482651203
 31
0
  0
LINE
  8
1
 62
7
 10
-37.04001707126089
 20
163.5531409975387
 30
0
 11
-35.54001707126089
 21
163.5531409975387
 31
0
  0
LINE
  8
1
 62
7
 10
-42.99001707126081
 20
181.1340708801232
 30
0
 11
-42.99001707126081
 21
109.0682446313295
 31
0
  0
LINE
  8
1
 62
7
 10
-47.1900170712608
 20
194.0682446313296
 30
0
 11
-47.1900170712608
 21
108.0682446313295
 31
0
  0
LINE
  8
1
 62
7
 10
-41.04001707126089
 20
187.0682446313296
 30
0
 11
-41.04001707126089
 21
115.0682446313295
 31
0
  0
LINE
  8
1
 62
7
 10
-60.6900170712608
 20
193.5682446313296
 30
0
 11
-47.4400170712608
 21
193.5682446313296
 31
0
  0
LINE
  8
1
 62
7
 10
-47.1900170712608
 20
194.0682446313296
 30
0
 11
-43.99001707126081
 21
194.0682446313296
 31
0
  0
LINE
  8
1
 62
7
 10
-43.99001707126081
 20
193.0682446313296
 30
0
 11
-43.49001707126081
 21
193.0682446313296
 31
0
  0
LINE
  8
1
 62
7
 10
-43.49001707126081
 20
193.0682446313296
 30
0
 11
-43.49001707126081
 21
183.0000962839076
 31
0
  0
LINE
  8
1
 62
7
 10
-43.49001707126081
 20
183.0000962839076
 30
0
 11
-42.99001707126081
 21
181.1340708801232
 31
0
  0
LINE
  8
1
 62
7
 10
-43.99001707126081
 20
182.934270035114
 30
0
 11
-43.49001707126081
 21
181.0682446313296
 31
0
  0
LINE
  8
1
 62
7
 10
-43.49001707126081
 20
192.1682446313295
 30
0
 11
-42.09001707126089
 21
192.1682446313295
 31
0
  0
LINE
  8
1
 62
7
 10
-41.59001707126089
 20
191.6682446313295
 30
0
 11
-41.59001707126089
 21
185.4682446313295
 31
0
  0
LINE
  8
1
 62
7
 10
-43.49001707126081
 20
184.9682446313295
 30
0
 11
-42.09001707126089
 21
184.9682446313295
 31
0
  0
LINE
  8
1
 62
7
 10
-42.99001707126081
 20
192.1682446313295
 30
0
 11
-42.99001707126081
 21
184.9682446313295
 31
0
  0
LINE
  8
1
 62
7
 10
-41.59001707126089
 20
191.6682446313295
 30
0
 11
-42.09001707126089
 21
192.1682446313295
 31
0
  0
LINE
  8
1
 62
7
 10
-42.09001707126089
 20
184.9682446313295
 30
0
 11
-41.59001707126089
 21
185.4682446313295
 31
0
  0
LINE
  8
1
 62
7
 10
-41.04001707126089
 20
187.0682446313296
 30
0
 11
-37.04001707126089
 21
187.0682446313296
 31
0
  0
LINE
  8
1
 62
7
 10
-43.99001707126081
 20
194.0682446313296
 30
0
 11
-43.99001707126081
 21
108.0682446313295
 31
0
  0
LINE
  8
1
 62
3
  6
DASHDOT
 10
-3.340017071260888
 20
151.0682446313295
 30
0
 11
0
 21
151.0682446313295
 31
0
  0
LINE
  8
1
 62
7
 10
-41.99001707126081
 20
167.0682446313295
 30
0
 11
-42.99001707126081
 21
167.0682446313295
 31
0
  0
LINE
  8
1
 62
7
 10
-47.4400170712608
 20
108.5682446313295
 30
0
 11
-60.4400170712608
 21
108.5682446313295
 31
0
  0
LINE
  8
1
 62
7
 10
-43.99001707126081
 20
108.0682446313295
 30
0
 11
-47.1900170712608
 21
108.0682446313295
 31
0
  0
LINE
  8
1
 62
7
 10
-43.49001707126081
 20
109.0682446313295
 30
0
 11
-42.99001707126081
 21
109.0682446313295
 31
0
  0
LINE
  8
1
 62
7
 10
-42.99001707126081
 20
125.5682446313295
 30
0
 11
-41.04001707126089
 21
125.5682446313295
 31
0
  0
LINE
  8
1
 62
7
 10
-42.99001707126081
 20
116.5682446313295
 30
0
 11
-41.04001707126089
 21
116.5682446313295
 31
0
  0
LINE
  8
1
 62
7
 10
-43.49001707126081
 20
181.0682446313296
 30
0
 11
-43.49001707126081
 21
109.0682446313295
 31
0
  0
LINE
  8
1
 62
7
 10
-37.04001707126089
 20
187.0682446313296
 30
0
 11
-37.04001707126089
 21
115.0682446313295
 31
0
  0
LINE
  8
1
 62
7
 10
-41.99001707126081
 20
135.0682446313295
 30
0
 11
-42.99001707126081
 21
135.0682446313295
 31
0
  0
LINE
  8
1
 62
7
 10
-47.4400170712608
 20
193.5682446313296
 30
0
 11
-47.4400170712608
 21
108.5682446313295
 31
0
  0
LINE
  8
1
 62
7
 10
-66.44001707126091
 20
192.0682446313296
 30
0
 11
-70.04001707126093
 21
192.0682446313296
 31
0
  0
LINE
  8
1
 62
7
 10
-71.04001707126093
 20
206.0682446313295
 30
0
 11
-71.04001707126093
 21
96.06824463132961
 31
0
  0
LINE
  8
1
 62
7
 10
-165.3400170712609
 20
193.5682446313296
 30
0
 11
-165.3400170712609
 21
108.5682446313295
 31
0
  0
LINE
  8
1
 62
7
 10
-163.8966413982868
 20
106.0682446313295
 30
0
 11
-163.8966413982868
 21
196.0682446313296
 31
0
  0
LINE
  8
1
 62
7
 10
-147.3400170712609
 20
108.5682446313295
 30
0
 11
-154.3400170712609
 21
108.5682446313296
 31
0
  0
LINE
  8
1
 62
3
  6
DASHDOT
 10
-206.3480373889051
 20
151.0682446313295
 30
0
 11
-203.3400170712609
 21
151.0682446313296
 31
0
  0
LINE
  8
1
 62
7
 10
-169.8400170712609
 20
194.0682446313296
 30
0
 11
-169.8400170712609
 21
108.0682446313295
 31
0
  0
LINE
  8
1
 62
7
 10
-154.3400170712609
 20
196.0682446313296
 30
0
 11
-154.3400170712609
 21
106.0682446313295
 31
0
  0
LINE
  8
1
 62
7
 10
-147.3400170712609
 20
193.5682446313295
 30
0
 11
-154.3400170712609
 21
193.5682446313296
 31
0
  0
LINE
  8
1
 62
7
 10
-169.8400170712609
 20
194.0682446313296
 30
0
 11
-166.6400170712609
 21
194.0682446313296
 31
0
  0
LINE
  8
1
 62
7
 10
-166.6400170712609
 20
108.0682446313295
 30
0
 11
-169.8400170712609
 21
108.0682446313295
 31
0
  0
LINE
  8
1
 62
7
 10
-166.6400170712609
 20
108.0682446313295
 30
0
 11
-166.6400170712609
 21
194.0682446313296
 31
0
  0
LINE
  8
1
 62
7
 10
-170.3400170712609
 20
193.0682446313296
 30
0
 11
-169.8400170712609
 21
193.0682446313296
 31
0
  0
LINE
  8
1
 62
7
 10
-170.3400170712609
 20
183.0000962839076
 30
0
 11
-170.3400170712609
 21
193.0682446313296
 31
0
  0
LINE
  8
1
 62
7
 10
-170.8400170712609
 20
181.1340708801231
 30
0
 11
-170.3400170712609
 21
183.0000962839076
 31
0
  0
LINE
  8
1
 62
7
 10
-170.3400170712609
 20
181.0682446313296
 30
0
 11
-169.8400170712609
 21
182.934270035114
 31
0
  0
LINE
  8
1
 62
7
 10
-171.7400170712609
 20
192.1682446313295
 30
0
 11
-170.3400170712609
 21
192.1682446313295
 31
0
  0
LINE
  8
1
 62
7
 10
-172.2400170712609
 20
185.4682446313295
 30
0
 11
-172.2400170712609
 21
191.6682446313295
 31
0
  0
LINE
  8
1
 62
7
 10
-171.7400170712609
 20
184.9682446313295
 30
0
 11
-170.3400170712609
 21
184.9682446313295
 31
0
  0
LINE
  8
1
 62
7
 10
-170.8400170712609
 20
184.9682446313295
 30
0
 11
-170.8400170712609
 21
192.1682446313295
 31
0
  0
LINE
  8
1
 62
7
 10
-171.7400170712609
 20
192.1682446313295
 30
0
 11
-172.2400170712609
 21
191.6682446313295
 31
0
  0
LINE
  8
1
 62
7
 10
-172.2400170712609
 20
185.4682446313295
 30
0
 11
-171.7400170712609
 21
184.9682446313295
 31
0
  0
LINE
  8
1
 62
7
 10
-170.8400170712609
 20
109.0682446313295
 30
0
 11
-170.3400170712609
 21
109.0682446313295
 31
0
  0
LINE
  8
1
 62
7
 10
-172.7400170712609
 20
125.5682446313295
 30
0
 11
-170.8400170712609
 21
125.5682446313295
 31
0
  0
LINE
  8
1
 62
7
 10
-172.7400170712609
 20
116.5682446313295
 30
0
 11
-170.8400170712609
 21
116.5682446313295
 31
0
  0
LINE
  8
1
 62
7
 10
-170.3400170712609
 20
181.0682446313296
 30
0
 11
-170.3400170712609
 21
109.0682446313295
 31
0
  0
LINE
  8
1
 62
7
 10
-165.3400170712609
 20
193.5682446313296
 30
0
 11
-166.3400170712609
 21
193.5682446313296
 31
0
  0
LINE
  8
1
 62
7
 10
-163.8966413982868
 20
196.0682446313296
 30
0
 11
-165.3400170712609
 21
193.5682446313296
 31
0
  0
LINE
  8
1
 62
7
 10
-154.3400170712609
 20
196.0682446313296
 30
0
 11
-163.8966413982868
 21
196.0682446313296
 31
0
  0
LINE
  8
1
 62
7
 10
-166.3400170712609
 20
108.5682446313295
 30
0
 11
-166.3400170712609
 21
193.5682446313296
 31
0
  0
LINE
  8
1
 62
7
 10
-163.8966413982868
 20
106.0682446313295
 30
0
 11
-154.3400170712609
 21
106.0682446313295
 31
0
  0
LINE
  8
1
 62
7
 10
-165.3400170712609
 20
108.5682446313295
 30
0
 11
-163.8966413982868
 21
106.0682446313295
 31
0
  0
LINE
  8
1
 62
7
 10
-166.3400170712609
 20
108.5682446313295
 30
0
 11
-165.3400170712609
 21
108.5682446313295
 31
0
  0
LINE
  8
1
 62
7
 10
-140.5400170712609
 20
192.0682446313296
 30
0
 11
-140.5400170712609
 21
110.0682446313296
 31
0
  0
LINE
  8
1
 62
7
 10
-203.3400170712609
 20
143.5682446313295
 30
0
 11
-201.8400170712609
 21
143.5682446313295
 31
0
  0
LINE
  8
1
 62
3
 10
-203.3400170712609
 20
144.3182446313295
 30
0
 11
-201.8400170712609
 21
144.3182446313295
 31
0
  0
LINE
  8
1
 62
3
 10
-201.8400170712609
 20
157.8182446313296
 30
0
 11
-203.3400170712609
 21
157.8182446313296
 31
0
  0
LINE
  8
1
 62
7
 10
-203.3400170712609
 20
158.5682446313296
 30
0
 11
-203.3400170712609
 21
143.5682446313295
 31
0
  0
LINE
  8
1
 62
7
 10
-201.8400170712609
 20
158.5682446313296
 30
0
 11
-203.3400170712609
 21
158.5682446313296
 31
0
  0
LINE
  8
1
 62
7
 10
-201.8400170712609
 20
138.5682446313296
 30
0
 11
-199.8400170712609
 21
138.5682446313296
 31
0
  0
LINE
  8
1
 62
7
 10
-201.8400170712609
 20
163.5682446313296
 30
0
 11
-201.8400170712609
 21
138.5682446313296
 31
0
  0
LINE
  8
1
 62
7
 10
-199.8400170712609
 20
163.5682446313296
 30
0
 11
-201.8400170712609
 21
163.5682446313296
 31
0
  0
LINE
  8
1
 62
7
 10
-195.8400170712609
 20
141.0682446313296
 30
0
 11
-199.8400170712609
 21
137.0682446313296
 31
0
  0
LINE
  8
1
 62
7
 10
-199.8400170712609
 20
165.0682446313296
 30
0
 11
-199.8400170712609
 21
137.0682446313296
 31
0
  0
LINE
  8
1
 62
7
 10
-199.8400170712609
 20
165.0682446313296
 30
0
 11
-195.8400170712609
 21
161.0682446313296
 31
0
  0
LINE
  8
1
 62
7
 10
-195.8400170712609
 20
131.0682446313296
 30
0
 11
-180.8400170712609
 21
131.0682446313296
 31
0
  0
LINE
  8
1
 62
7
 10
-195.8400170712609
 20
171.0682446313296
 30
0
 11
-195.8400170712609
 21
131.0682446313296
 31
0
  0
LINE
  8
1
 62
7
 10
-180.8400170712609
 20
171.0682446313296
 30
0
 11
-195.8400170712609
 21
171.0682446313296
 31
0
  0
LINE
  8
1
 62
7
 10
-180.8400170712609
 20
115.0682446313296
 30
0
 11
-172.8400170712609
 21
115.0682446313296
 31
0
  0
LINE
  8
1
 62
7
 10
-180.8400170712609
 20
187.0682446313296
 30
0
 11
-172.8400170712609
 21
187.0682446313296
 31
0
  0
LINE
  8
1
 62
7
 10
-180.8400170712609
 20
187.0682446313296
 30
0
 11
-180.8400170712609
 21
115.0682446313296
 31
0
  0
LINE
  8
1
 62
7
 10
-138.0400170712609
 20
96.06824463132961
 30
0
 11
-138.0400170712609
 21
206.0682446313295
 31
0
  0
LINE
  8
1
 62
7
 10
-142.6400170712609
 20
110.0682446313296
 30
0
 11
-139.0400170712609
 21
110.0682446313296
 31
0
  0
LINE
  8
1
 62
7
 10
-138.0400170712609
 20
-51.99999999999999
 30
0
 11
-138.0400170712609
 21
42.00000000000001
 31
0
  0
LINE
  8
1
 62
7
 10
-140.5400170712609
 20
41.00000000000001
 30
0
 11
-140.5400170712609
 21
-40.99999999999999
 31
0
  0
LINE
  8
1
 62
7
 10
-68.54001707126093
 20
-40.99999999999999
 30
0
 11
-68.54001707126093
 21
41.00000000000001
 31
0
  0
LINE
  8
1
 62
7
 10
-71.04001707126093
 20
42.00000000000001
 30
0
 11
-71.04001707126093
 21
-51.99999999999999
 31
0
  0
LINE
  8
1
 62
7
 10
-85.54001707126093
 20
-24.99999999999999
 30
0
 11
-85.54001707126093
 21
-15.99999999999999
 31
0
  0
LINE
  8
1
 62
7
 10
-85.54001707126093
 20
-15.99999999999999
 30
0
 11
-93.54001707126093
 21
-15.99999999999999
 31
0
  0
LINE
  8
1
 62
7
 10
-93.54001707126093
 20
-15.99999999999999
 30
0
 11
-93.54001707126093
 21
-24.99999999999999
 31
0
  0
LINE
  8
1
 62
7
 10
-103.5400170712609
 20
-24.99999999999999
 30
0
 11
-103.5400170712609
 21
-15.99999999999999
 31
0
  0
LINE
  8
1
 62
7
 10
-103.5400170712609
 20
-15.99999999999999
 30
0
 11
-95.54001707126093
 21
-15.99999999999999
 31
0
  0
LINE
  8
1
 62
7
 10
-95.54001707126093
 20
-15.99999999999999
 30
0
 11
-95.54001707126093
 21
-24.63679671664209
 31
0
  0
LINE
  8
1
 62
7
 10
-90.96306946839894
 20
-21.05182133701498
 30
0
 11
-90.59183840827592
 21
-21.42305239713792
 31
0
  0
LINE
  8
1
 62
7
 10
-88.48819573424589
 20
-21.42305239713792
 30
0
 11
-88.11696467412304
 21
-21.05182133701498
 31
0
  0
LINE
  8
1
 62
7
 10
-88.11696467412304
 20
-18.948178662985
 30
0
 11
-88.48819573424589
 21
-18.57694760286206
 31
0
  0
LINE
  8
1
 62
7
 10
-90.59183840827592
 20
-18.57694760286206
 30
0
 11
-90.96306946839894
 21
-18.948178662985
 31
0
  0
LINE
  8
1
 62
7
 10
-100.9630694683989
 20
-21.05182133701498
 30
0
 11
-100.5918384082759
 21
-21.42305239713792
 31
0
  0
LINE
  8
1
 62
7
 10
-98.48819573424589
 20
-21.42305239713792
 30
0
 11
-98.11696467412304
 21
-21.05182133701498
 31
0
  0
LINE
  8
1
 62
7
 10
-98.11696467412304
 20
-18.948178662985
 30
0
 11
-98.48819573424589
 21
-18.57694760286206
 31
0
  0
LINE
  8
1
 62
7
 10
-100.5918384082759
 20
-18.57694760286206
 30
0
 11
-100.9630694683989
 21
-18.948178662985
 31
0
  0
LINE
  8
1
 62
7
 10
-82.29001707126093
 20
-9.73749999999999
 30
0
 11
-82.29001707126093
 21
-10.2625
 31
0
  0
LINE
  8
1
 62
7
 10
-80.80251707126092
 20
-11.74999999999999
 30
0
 11
-80.27751707126089
 21
-11.74999999999999
 31
0
  0
LINE
  8
1
 62
7
 10
-78.79001707126093
 20
-10.2625
 30
0
 11
-78.79001707126093
 21
-9.73749999999999
 31
0
  0
LINE
  8
1
 62
7
 10
-80.27751707126089
 20
-8.249999999999993
 30
0
 11
-80.80251707126092
 21
-8.249999999999993
 31
0
  0
LINE
  8
1
 62
7
 10
-132.5400170712609
 20
-4.999999999999993
 30
0
 11
-76.54001707126093
 21
-4.999999999999993
 31
0
  0
LINE
  8
1
 62
7
 10
-76.54001707126093
 20
-4.999999999999993
 30
0
 11
-76.54001707126093
 21
-24.99999999999999
 31
0
  0
LINE
  8
1
 62
7
 10
-76.54001707126093
 20
-24.99999999999999
 30
0
 11
-132.5400170712609
 21
-24.99999999999999
 31
0
  0
LINE
  8
1
 62
7
 10
-123.5400170712609
 20
-15.99999999999999
 30
0
 11
-123.5400170712609
 21
-24.99999999999999
 31
0
  0
LINE
  8
1
 62
7
 10
-115.5400170712609
 20
-15.99999999999999
 30
0
 11
-123.5400170712609
 21
-15.99999999999999
 31
0
  0
LINE
  8
1
 62
7
 10
-115.5400170712609
 20
-24.99999999999999
 30
0
 11
-115.5400170712609
 21
-15.99999999999999
 31
0
  0
LINE
  8
1
 62
7
 10
-105.5400170712609
 20
-15.99999999999999
 30
0
 11
-105.5400170712609
 21
-24.99999999999999
 31
0
  0
LINE
  8
1
 62
7
 10
-113.5400170712609
 20
-15.99999999999999
 30
0
 11
-105.5400170712609
 21
-15.99999999999999
 31
0
  0
LINE
  8
1
 62
7
 10
-113.5400170712609
 20
-24.63679671664209
 30
0
 11
-113.5400170712609
 21
-15.99999999999999
 31
0
  0
LINE
  8
1
 62
7
 10
-118.4881957342459
 20
-21.42305239713792
 30
0
 11
-118.1169646741231
 21
-21.05182133701498
 31
0
  0
LINE
  8
1
 62
7
 10
-120.963069468399
 20
-21.05182133701498
 30
0
 11
-120.5918384082759
 21
-21.42305239713792
 31
0
  0
LINE
  8
1
 62
7
 10
-120.5918384082759
 20
-18.57694760286206
 30
0
 11
-120.963069468399
 21
-18.948178662985
 31
0
  0
LINE
  8
1
 62
7
 10
-118.1169646741231
 20
-18.948178662985
 30
0
 11
-118.4881957342459
 21
-18.57694760286206
 31
0
  0
LINE
  8
1
 62
7
 10
-108.4881957342459
 20
-21.42305239713792
 30
0
 11
-108.1169646741231
 21
-21.05182133701498
 31
0
  0
LINE
  8
1
 62
7
 10
-110.963069468399
 20
-21.05182133701498
 30
0
 11
-110.5918384082759
 21
-21.42305239713792
 31
0
  0
LINE
  8
1
 62
7
 10
-110.5918384082759
 20
-18.57694760286206
 30
0
 11
-110.963069468399
 21
-18.948178662985
 31
0
  0
LINE
  8
1
 62
7
 10
-108.1169646741231
 20
-18.948178662985
 30
0
 11
-108.4881957342459
 21
-18.57694760286206
 31
0
  0
LINE
  8
1
 62
7
 10
-126.7900170712609
 20
-10.2625
 30
0
 11
-126.7900170712609
 21
-9.73749999999999
 31
0
  0
LINE
  8
1
 62
7
 10
-128.8025170712609
 20
-11.74999999999999
 30
0
 11
-128.2775170712609
 21
-11.74999999999999
 31
0
  0
LINE
  8
1
 62
7
 10
-130.2900170712609
 20
-9.73749999999999
 30
0
 11
-130.2900170712609
 21
-10.2625
 31
0
  0
LINE
  8
1
 62
7
 10
-128.2775170712609
 20
-8.249999999999993
 30
0
 11
-128.8025170712609
 21
-8.249999999999993
 31
0
  0
LINE
  8
1
 62
7
 10
-132.5400170712609
 20
-24.99999999999999
 30
0
 11
-132.5400170712609
 21
-4.999999999999993
 31
0
  0
LINE
  8
1
 62
7
 10
-272.3886496956208
 20
-12.49999999999999
 30
0
 11
-274.3886496956208
 21
-12.49999999999999
 31
0
  0
LINE
  8
1
 62
7
 10
-272.3886496956208
 20
-7.499999999999993
 30
0
 11
-272.3886496956208
 21
-12.49999999999999
 31
0
  0
LINE
  8
1
 62
7
 10
-274.3886496956208
 20
-7.499999999999989
 30
0
 11
-272.3886496956208
 21
-7.499999999999993
 31
0
  0
LINE
  8
1
 62
7
 10
-274.3886496956208
 20
-4.999999999999993
 30
0
 11
-274.3886496956208
 21
-24.99999999999999
 31
0
  0
LINE
  8
1
 62
7
 10
-275.3886496956208
 20
-4.999999999999993
 30
0
 11
-275.3886496956208
 21
-24.99999999999999
 31
0
  0
LINE
  8
1
 62
3
  6
DASHDOT
 10
-334.3886496956208
 20
5.158402313526295
 30
0
 11
-334.3886496956208
 21
-5.158402313526295
 31
0
  0
LINE
  8
1
 62
3
  6
DASHDOT
 10
-329.2302473820946
 20
7.105427357601002e-015
 30
0
 11
-339.5470520091471
 21
7.105427357601002e-015
 31
0
  0
LINE
  8
1
 62
7
 10
-35.54001707126089
 20
-12.4848963662092
 30
0
 11
-37.04001707126081
 21
-12.4848963662092
 31
0
  0
LINE
  8
1
 62
7
 10
-33.34001707126089
 20
-9.251766077583902
 30
0
 11
-35.54001707126089
 21
-9.251766077583902
 31
0
  0
LINE
  8
1
 62
7
 10
-35.54001707126089
 20
9.251766077583909
 30
0
 11
-33.34001707126089
 21
9.251766077583909
 31
0
  0
LINE
  8
1
 62
7
 10
-35.54001707126089
 20
12.48489636620921
 30
0
 11
-35.54001707126089
 21
-12.4848963662092
 31
0
  0
LINE
  8
1
 62
7
 10
-37.04001707126081
 20
12.48489636620921
 30
0
 11
-35.54001707126089
 21
12.48489636620921
 31
0
  0
LINE
  8
1
 62
7
 10
-43.99001707126081
 20
-43.00000000000001
 30
0
 11
-43.99001707126081
 21
42.99999999999999
 31
0
  0
LINE
  8
1
 62
7
 10
-43.49001707126081
 20
29.99999999999999
 30
0
 11
-43.49001707126081
 21
-42.00000000000001
 31
0
  0
LINE
  8
1
 62
7
 10
-42.99001707126081
 20
30.06582624879365
 30
0
 11
-42.99001707126081
 21
-42.00000000000001
 31
0
  0
LINE
  8
1
 62
7
 10
-47.1900170712608
 20
42.99999999999999
 30
0
 11
-47.1900170712608
 21
-43.00000000000001
 31
0
  0
LINE
  8
1
 62
7
 10
-47.1900170712608
 20
42.99999999999999
 30
0
 11
-43.99001707126081
 21
42.99999999999999
 31
0
  0
LINE
  8
1
 62
7
 10
-43.99001707126081
 20
41.99999999999999
 30
0
 11
-43.49001707126081
 21
41.99999999999999
 31
0
  0
LINE
  8
1
 62
7
 10
-43.49001707126081
 20
41.99999999999999
 30
0
 11
-43.49001707126081
 21
31.93185165257812
 31
0
  0
LINE
  8
1
 62
7
 10
-43.49001707126081
 20
31.93185165257812
 30
0
 11
-42.99001707126081
 21
30.06582624879365
 31
0
  0
LINE
  8
1
 62
7
 10
-43.99001707126081
 20
31.86602540378441
 30
0
 11
-43.49001707126081
 21
29.99999999999999
 31
0
  0
LINE
  8
1
 62
7
 10
-43.49001707126081
 20
41.09999999999996
 30
0
 11
-42.09001707126089
 21
41.09999999999996
 31
0
  0
LINE
  8
1
 62
7
 10
-41.59001707126089
 20
40.59999999999996
 30
0
 11
-41.59001707126089
 21
34.39999999999997
 31
0
  0
LINE
  8
1
 62
7
 10
-43.49001707126081
 20
33.89999999999997
 30
0
 11
-42.09001707126089
 21
33.89999999999997
 31
0
  0
LINE
  8
1
 62
7
 10
-42.99001707126081
 20
41.09999999999996
 30
0
 11
-42.99001707126081
 21
33.89999999999997
 31
0
  0
LINE
  8
1
 62
7
 10
-41.59001707126089
 20
40.59999999999996
 30
0
 11
-42.09001707126089
 21
41.09999999999996
 31
0
  0
LINE
  8
1
 62
7
 10
-42.09001707126089
 20
33.89999999999997
 30
0
 11
-41.59001707126089
 21
34.39999999999997
 31
0
  0
LINE
  8
1
 62
7
 10
-41.04001707126081
 20
35.99999999999999
 30
0
 11
-37.04001707126081
 21
35.99999999999999
 31
0
  0
LINE
  8
1
 62
7
 10
-42.04001707126081
 20
15.99999999999999
 30
0
 11
-42.99001707126081
 21
15.99999999999999
 31
0
  0
LINE
  8
1
 62
7
 10
-47.4400170712608
 20
-42.50000000000001
 30
0
 11
-60.4400170712608
 21
-42.50000000000001
 31
0
  0
LINE
  8
1
 62
7
 10
-43.99001707126081
 20
-43.00000000000001
 30
0
 11
-47.1900170712608
 21
-43.00000000000001
 31
0
  0
LINE
  8
1
 62
7
 10
-43.49001707126081
 20
-42.00000000000001
 30
0
 11
-42.99001707126081
 21
-42.00000000000001
 31
0
  0
LINE
  8
1
 62
7
 10
-42.99001707126081
 20
-25.5
 30
0
 11
-41.04001707126081
 21
-25.5
 31
0
  0
LINE
  8
1
 62
7
 10
-42.99001707126081
 20
-34.5
 30
0
 11
-41.04001707126081
 21
-34.5
 31
0
  0
LINE
  8
1
 62
7
 10
-37.04001707126081
 20
-36.00000000000006
 30
0
 11
-41.04001707126081
 21
-36.00000000000006
 31
0
  0
LINE
  8
1
 62
7
 10
-37.04001707126081
 20
-36.00000000000006
 30
0
 11
-41.04001707126081
 21
-36.00000000000006
 31
0
  0
LINE
  8
1
 62
7
 10
-37.04001707126081
 20
-36.00000000000006
 30
0
 11
-41.04001707126081
 21
-36.00000000000006
 31
0
  0
LINE
  8
1
 62
7
 10
-47.4400170712608
 20
42.49999999999999
 30
0
 11
-47.4400170712608
 21
-42.50000000000001
 31
0
  0
LINE
  8
1
 62
7
 10
-42.04001707126081
 20
-16
 30
0
 11
-42.99001707126081
 21
-16
 31
0
  0
LINE
  8
1
 62
7
 10
-28.34001707126089
 20
9.5
 30
0
 11
-3.340017071260888
 21
9.5
 31
0
  0
LINE
  8
1
 62
7
 10
-28.34001707126089
 20
7.5
 30
0
 11
-28.34001707126089
 21
9.5
 31
0
  0
LINE
  8
1
 62
7
 10
-142.6400170712609
 20
-40.99999999999999
 30
0
 11
-142.6400170712609
 21
41.00000000000001
 31
0
  0
LINE
  8
1
 62
7
 10
-140.0400170712609
 20
-40.99999999999999
 30
0
 11
-142.6400170712609
 21
-40.99999999999999
 31
0
  0
LINE
  8
1
 62
7
 10
-165.3400170712609
 20
42.49999999999999
 30
0
 11
-165.3400170712609
 21
-42.50000000000001
 31
0
  0
LINE
  8
1
 62
7
 10
-163.8966413982868
 20
-45.00000000000001
 30
0
 11
-163.8966413982868
 21
45
 31
0
  0
LINE
  8
1
 62
7
 10
-147.3400170712609
 20
-42.49999999999999
 30
0
 11
-154.3400170712609
 21
-42.49999999999989
 31
0
  0
LINE
  8
1
 62
7
 10
-154.3400170712609
 20
42.49999999999999
 30
0
 11
-147.3400170712609
 21
42.49999999999999
 31
0
  0
LINE
  8
1
 62
7
 10
-170.3400170712609
 20
-42.00000000000001
 30
0
 11
-170.3400170712609
 21
29.99999999999999
 31
0
  0
LINE
  8
1
 62
3
  6
DASHDOT
 10
-206.3480373889051
 20
0
 30
0
 11
-203.3400170712609
 21
7.105427357601002e-015
 31
0
  0
LINE
  8
1
 62
7
 10
-169.8400170712609
 20
-43.00000000000001
 30
0
 11
-169.8400170712609
 21
42.99999999999999
 31
0
  0
LINE
  8
1
 62
7
 10
-154.3400170712609
 20
44.99999999999999
 30
0
 11
-154.3400170712609
 21
-45
 31
0
  0
LINE
  8
1
 62
7
 10
-166.6400170712609
 20
-43.00000000000001
 30
0
 11
-166.6400170712609
 21
42.99999999999999
 31
0
  0
LINE
  8
1
 62
7
 10
-169.8400170712609
 20
42.99999999999999
 30
0
 11
-166.6400170712609
 21
42.99999999999999
 31
0
  0
LINE
  8
1
 62
7
 10
-166.6400170712609
 20
-43.00000000000001
 30
0
 11
-169.8400170712609
 21
-43.00000000000001
 31
0
  0
LINE
  8
1
 62
7
 10
-170.3400170712609
 20
41.99999999999999
 30
0
 11
-169.8400170712609
 21
41.99999999999999
 31
0
  0
LINE
  8
1
 62
7
 10
-170.3400170712609
 20
31.9318516525781
 30
0
 11
-170.3400170712609
 21
41.99999999999999
 31
0
  0
LINE
  8
1
 62
7
 10
-170.8400170712609
 20
30.06582624879359
 30
0
 11
-170.3400170712609
 21
31.9318516525781
 31
0
  0
LINE
  8
1
 62
7
 10
-170.3400170712609
 20
29.99999999999999
 30
0
 11
-169.8400170712609
 21
31.86602540378441
 31
0
  0
LINE
  8
1
 62
7
 10
-171.6400170712609
 20
41.09999999999999
 30
0
 11
-170.3400170712609
 21
41.09999999999999
 31
0
  0
LINE
  8
1
 62
7
 10
-172.1400170712609
 20
34.4
 30
0
 11
-172.1400170712609
 21
40.59999999999999
 31
0
  0
LINE
  8
1
 62
7
 10
-171.6400170712609
 20
33.9
 30
0
 11
-170.3400170712609
 21
33.9
 31
0
  0
LINE
  8
1
 62
7
 10
-170.8400170712609
 20
33.9
 30
0
 11
-170.8400170712609
 21
41.09999999999999
 31
0
  0
LINE
  8
1
 62
7
 10
-171.6400170712609
 20
41.09999999999999
 30
0
 11
-172.1400170712609
 21
40.59999999999999
 31
0
  0
LINE
  8
1
 62
7
 10
-172.1400170712609
 20
34.4
 30
0
 11
-171.6400170712609
 21
33.9
 31
0
  0
LINE
  8
1
 62
7
 10
-170.8400170712609
 20
-42.00000000000001
 30
0
 11
-170.3400170712609
 21
-42.00000000000001
 31
0
  0
LINE
  8
1
 62
7
 10
-172.8400170712609
 20
-25.5
 30
0
 11
-170.8400170712609
 21
-25.5
 31
0
  0
LINE
  8
1
 62
7
 10
-172.8400170712609
 20
-34.5
 30
0
 11
-170.8400170712609
 21
-34.5
 31
0
  0
LINE
  8
1
 62
7
 10
-165.3400170712609
 20
42.49999999999999
 30
0
 11
-166.3400170712609
 21
42.49999999999999
 31
0
  0
LINE
  8
1
 62
7
 10
-163.8966413982868
 20
45
 30
0
 11
-165.3400170712609
 21
42.49999999999999
 31
0
  0
LINE
  8
1
 62
7
 10
-154.3400170712609
 20
44.99999999999999
 30
0
 11
-163.8966413982868
 21
45
 31
0
  0
LINE
  8
1
 62
7
 10
-166.3400170712609
 20
-42.50000000000001
 30
0
 11
-166.3400170712609
 21
42.49999999999999
 31
0
  0
LINE
  8
1
 62
7
 10
-163.8966413982868
 20
-45.00000000000001
 30
0
 11
-154.3400170712609
 21
-45
 31
0
  0
LINE
  8
1
 62
7
 10
-165.3400170712609
 20
-42.50000000000001
 30
0
 11
-163.8966413982868
 21
-45.00000000000001
 31
0
  0
LINE
  8
1
 62
7
 10
-166.3400170712609
 20
-42.50000000000001
 30
0
 11
-165.3400170712609
 21
-42.50000000000001
 31
0
  0
LINE
  8
1
 62
7
 10
-203.3400170712609
 20
-7.5
 30
0
 11
-201.8400170712609
 21
-7.5
 31
0
  0
LINE
  8
1
 62
3
 10
-203.3400170712609
 20
-6.75
 30
0
 11
-201.8400170712609
 21
-6.75
 31
0
  0
LINE
  8
1
 62
7
 10
-203.3400170712609
 20
7.500000000000007
 30
0
 11
-203.3400170712609
 21
-7.5
 31
0
  0
LINE
  8
1
 62
3
 10
-201.8400170712609
 20
6.750000000000007
 30
0
 11
-203.3400170712609
 21
6.750000000000007
 31
0
  0
LINE
  8
1
 62
7
 10
-201.8400170712609
 20
7.500000000000007
 30
0
 11
-203.3400170712609
 21
7.500000000000007
 31
0
  0
LINE
  8
1
 62
7
 10
-201.8400170712609
 20
-12.49999999999999
 30
0
 11
-199.8400170712609
 21
-12.49999999999999
 31
0
  0
LINE
  8
1
 62
7
 10
-201.8400170712609
 20
12.50000000000001
 30
0
 11
-201.8400170712609
 21
-12.49999999999999
 31
0
  0
LINE
  8
1
 62
7
 10
-199.8400170712609
 20
12.50000000000001
 30
0
 11
-201.8400170712609
 21
12.50000000000001
 31
0
  0
LINE
  8
1
 62
7
 10
-199.8400170712609
 20
14.00000000000001
 30
0
 11
-199.8400170712609
 21
-13.99999999999999
 31
0
  0
LINE
  8
1
 62
7
 10
-195.8400170712609
 20
-9.999999999999993
 30
0
 11
-199.8400170712609
 21
-13.99999999999999
 31
0
  0
LINE
  8
1
 62
7
 10
-199.8400170712609
 20
14.00000000000001
 30
0
 11
-195.8400170712609
 21
10.00000000000001
 31
0
  0
LINE
  8
1
 62
7
 10
-195.8400170712609
 20
-19.99999999999999
 30
0
 11
-180.8400170712609
 21
-19.99999999999999
 31
0
  0
LINE
  8
1
 62
7
 10
-195.8400170712609
 20
20.00000000000001
 30
0
 11
-195.8400170712609
 21
-19.99999999999999
 31
0
  0
LINE
  8
1
 62
7
 10
-180.8400170712609
 20
20.00000000000001
 30
0
 11
-195.8400170712609
 21
20.00000000000001
 31
0
  0
LINE
  8
1
 62
7
 10
-180.8400170712609
 20
-35.99999999999999
 30
0
 11
-172.8400170712609
 21
-35.99999999999999
 31
0
  0
LINE
  8
1
 62
7
 10
-180.8400170712609
 20
36.00000000000001
 30
0
 11
-172.8400170712609
 21
36.00000000000001
 31
0
  0
LINE
  8
1
 62
7
 10
-172.8400170712609
 20
36.00000000000001
 30
0
 11
-172.8400170712609
 21
-35.99999999999999
 31
0
  0
LINE
  8
1
 62
7
 10
-180.8400170712609
 20
36.00000000000001
 30
0
 11
-180.8400170712609
 21
-35.99999999999999
 31
0
  0
LINE
  8
1
 62
7
 10
-137.0400170712609
 20
43.00000000000001
 30
0
 11
-72.04001707126093
 21
43.00000000000001
 31
0
  0
LINE
  8
1
 62
3
  6
DASHDOT
 10
-57.04001707126094
 20
-68.90523398888679
 30
0
 11
-57.04001707126094
 21
-50.03978317475418
 31
0
  0
LINE
  8
1
 62
7
 10
-123.5400170712609
 20
-60.99999999999999
 30
0
 11
-85.54001707126093
 21
-60.99999999999999
 31
0
  0
LINE
  8
1
 62
7
 10
-81.54001707126093
 20
-65
 30
0
 11
-44.54001707126094
 21
-65
 31
0
  0
LINE
  8
1
 62
7
 10
-160.5400170712609
 20
-54.99999999999999
 30
0
 11
-48.54001707126094
 21
-54.99999999999999
 31
0
  0
LINE
  8
1
 62
7
 10
-44.54001707126094
 20
-58.99999999999999
 30
0
 11
-44.54001707126094
 21
-65
 31
0
  0
LINE
  8
1
 62
7
 10
-139.0400170712609
 20
41.00000000000001
 30
0
 11
-142.6400170712609
 21
41.00000000000001
 31
0
  0
LINE
  8
1
 62
3
  6
DASHDOT
 10
-152.0400170712609
 20
-50.03978317475418
 30
0
 11
-152.0400170712609
 21
-68.90523398888679
 31
0
  0
LINE
  8
1
 62
7
 10
-164.5400170712609
 20
-65
 30
0
 11
-127.5400170712609
 21
-65
 31
0
  0
LINE
  8
1
 62
7
 10
-164.5400170712609
 20
-65
 30
0
 11
-164.5400170712609
 21
-58.99999999999999
 31
0
  0
LINE
  8
1
 62
7
 10
-323.8886496956208
 20
-1.999999999999993
 30
0
 11
-322.0496870163677
 21
-1.999999999999993
 31
0
  0
LINE
  8
1
 62
7
 10
-322.0496870163677
 20
2.000000000000007
 30
0
 11
-323.8886496956208
 21
2.000000000000007
 31
0
  0
LINE
  8
1
 62
7
 10
-323.8886496956208
 20
2.000000000000007
 30
0
 11
-323.8886496956208
 21
-1.999999999999993
 31
0
  0
LINE
  8
1
 62
7
 10
-323.8886496956208
 20
2.000000000000007
 30
0
 11
-323.8886496956208
 21
-1.999999999999993
 31
0
  0
LINE
  8
1
 62
7
 10
-332.3886496956208
 20
-12.33896267925306
 30
0
 11
-332.3886496956208
 21
-10.49999999999999
 31
0
  0
LINE
  8
1
 62
7
 10
-336.3886496956208
 20
-10.49999999999999
 30
0
 11
-336.3886496956208
 21
-12.33896267925306
 31
0
  0
LINE
  8
1
 62
7
 10
-332.3886496956208
 20
-10.49999999999999
 30
0
 11
-336.3886496956208
 21
-10.49999999999999
 31
0
  0
LINE
  8
1
 62
7
 10
-332.3886496956208
 20
-10.49999999999999
 30
0
 11
-336.3886496956208
 21
-10.49999999999999
 31
0
  0
LINE
  8
1
 62
7
 10
-344.8886496956208
 20
2.000000000000007
 30
0
 11
-346.7276123748739
 21
2.000000000000007
 31
0
  0
LINE
  8
1
 62
7
 10
-346.7276123748739
 20
-1.999999999999993
 30
0
 11
-344.8886496956208
 21
-1.999999999999993
 31
0
  0
LINE
  8
1
 62
7
 10
-344.8886496956208
 20
-1.999999999999993
 30
0
 11
-344.8886496956208
 21
2.000000000000007
 31
0
  0
LINE
  8
1
 62
7
 10
-332.3886496956208
 20
10.50000000000001
 30
0
 11
-332.3886496956208
 21
12.33896267925306
 31
0
  0
LINE
  8
1
 62
7
 10
-336.3886496956208
 20
10.50000000000001
 30
0
 11
-332.3886496956208
 21
10.50000000000001
 31
0
  0
LINE
  8
1
 62
7
 10
-336.3886496956208
 20
12.33896267925306
 30
0
 11
-336.3886496956208
 21
10.50000000000001
 31
0
  0
LINE
  8
1
 62
7
 10
-297.7670796815244
 20
-40.99999999999999
 30
0
 11
-315.8414127046294
 21
-40.99999999999999
 31
0
  0
LINE
  8
1
 62
7
 10
-293.3886496956208
 20
-18.5472369909914
 30
0
 11
-293.3886496956208
 21
-36.62157001409647
 31
0
  0
LINE
  8
1
 62
7
 10
-300.3381343989254
 20
-36.87894242144164
 30
0
 11
-298.1074242556246
 21
-36.28122543999628
 31
0
  0
LINE
  8
1
 62
7
 10
-301.9711275607808
 20
-35.24594925958618
 30
0
 11
-300.3381343989254
 21
-36.87894242144164
 31
0
  0
LINE
  8
1
 62
7
 10
-301.3734105793354
 20
-33.01523911628536
 30
0
 11
-301.9711275607808
 21
-35.24594925958618
 31
0
  0
LINE
  8
1
 62
7
 10
-299.1427004360346
 20
-32.41752213483999
 30
0
 11
-301.3734105793354
 21
-33.01523911628536
 31
0
  0
LINE
  8
1
 62
7
 10
-297.5097072741792
 20
-34.05051529669547
 30
0
 11
-299.1427004360346
 21
-32.41752213483999
 31
0
  0
LINE
  8
1
 62
7
 10
-298.1074242556246
 20
-36.28122543999628
 30
0
 11
-297.5097072741792
 21
-34.05051529669547
 31
0
  0
LINE
  8
1
 62
7
 10
-375.3886496956208
 20
-36.62157001409644
 30
0
 11
-375.3886496956208
 21
-18.54723699099139
 31
0
  0
LINE
  8
1
 62
7
 10
-352.9358866866122
 20
-40.99999999999999
 30
0
 11
-371.0102197097173
 21
-40.99999999999999
 31
0
  0
LINE
  8
1
 62
7
 10
-371.2675921170625
 20
-34.05051529669543
 30
0
 11
-370.6698751356171
 21
-36.28122543999624
 31
0
  0
LINE
  8
1
 62
7
 10
-369.634598955207
 20
-32.41752213483998
 30
0
 11
-371.2675921170625
 21
-34.05051529669543
 31
0
  0
LINE
  8
1
 62
7
 10
-367.4038888119062
 20
-33.01523911628536
 30
0
 11
-369.634598955207
 21
-32.41752213483998
 31
0
  0
LINE
  8
1
 62
7
 10
-366.8061718304608
 20
-35.24594925958618
 30
0
 11
-367.4038888119062
 21
-33.01523911628536
 31
0
  0
LINE
  8
1
 62
7
 10
-368.4391649923163
 20
-36.87894242144164
 30
0
 11
-366.8061718304608
 21
-35.24594925958618
 31
0
  0
LINE
  8
1
 62
7
 10
-370.6698751356171
 20
-36.28122543999624
 30
0
 11
-368.4391649923163
 21
-36.87894242144164
 31
0
  0
LINE
  8
1
 62
7
 10
-371.0102197097173
 20
41.00000000000001
 30
0
 11
-352.9358866866122
 21
41.00000000000001
 31
0
  0
LINE
  8
1
 62
7
 10
-375.3886496956208
 20
18.54723699099141
 30
0
 11
-375.3886496956208
 21
36.62157001409648
 31
0
  0
LINE
  8
1
 62
7
 10
-368.4391649923163
 20
36.87894242144166
 30
0
 11
-370.6698751356171
 21
36.28122543999628
 31
0
  0
LINE
  8
1
 62
7
 10
-366.8061718304608
 20
35.24594925958619
 30
0
 11
-368.4391649923163
 21
36.87894242144166
 31
0
  0
LINE
  8
1
 62
7
 10
-367.4038888119062
 20
33.01523911628538
 30
0
 11
-366.8061718304608
 21
35.24594925958619
 31
0
  0
LINE
  8
1
 62
7
 10
-369.634598955207
 20
32.41752213484001
 30
0
 11
-367.4038888119062
 21
33.01523911628538
 31
0
  0
LINE
  8
1
 62
7
 10
-371.2675921170625
 20
34.05051529669547
 30
0
 11
-369.634598955207
 21
32.41752213484001
 31
0
  0
LINE
  8
1
 62
7
 10
-370.6698751356171
 20
36.28122543999628
 30
0
 11
-371.2675921170625
 21
34.05051529669547
 31
0
  0
LINE
  8
1
 62
7
 10
-293.3886496956208
 20
36.62157001409647
 30
0
 11
-293.3886496956208
 21
18.54723699099141
 31
0
  0
LINE
  8
1
 62
7
 10
-315.8414127046294
 20
41.00000000000001
 30
0
 11
-297.7670796815243
 21
41.00000000000001
 31
0
  0
LINE
  8
1
 62
7
 10
-297.5097072741792
 20
34.05051529669546
 30
0
 11
-298.1074242556246
 21
36.28122543999627
 31
0
  0
LINE
  8
1
 62
7
 10
-299.1427004360347
 20
32.41752213484001
 30
0
 11
-297.5097072741792
 21
34.05051529669546
 31
0
  0
LINE
  8
1
 62
7
 10
-301.3734105793354
 20
33.01523911628538
 30
0
 11
-299.1427004360347
 21
32.41752213484001
 31
0
  0
LINE
  8
1
 62
7
 10
-301.9711275607808
 20
35.2459492595862
 30
0
 11
-301.3734105793354
 21
33.01523911628538
 31
0
  0
LINE
  8
1
 62
7
 10
-300.3381343989253
 20
36.87894242144166
 30
0
 11
-301.9711275607808
 21
35.2459492595862
 31
0
  0
LINE
  8
1
 62
7
 10
-298.1074242556246
 20
36.28122543999627
 30
0
 11
-300.3381343989253
 21
36.87894242144166
 31
0
  0
LINE
  8
1
 62
3
  6
DASHDOT
 10
-307.3719614817756
 20
-15.59809221287576
 30
0
 11
-315.0715469902694
 21
-11.1527344468983
 31
0
  0
LINE
  8
1
 62
3
  6
DASHDOT
 10
-307.3719614817756
 20
-15.59809221287576
 30
0
 11
-315.0715469902694
 21
-11.1527344468983
 31
0
  0
LINE
  8
1
 62
3
  6
DASHDOT
 10
-361.4053379094661
 20
-15.59809221287573
 30
0
 11
-353.7057524009723
 21
-11.15273444689828
 31
0
  0
LINE
  8
1
 62
3
  6
DASHDOT
 10
-361.4053379094661
 20
-15.59809221287573
 30
0
 11
-353.7057524009723
 21
-11.15273444689828
 31
0
  0
LINE
  8
1
 62
3
  6
DASHDOT
 10
-334.3886496956208
 20
31.1961844257515
 30
0
 11
-334.3886496956208
 21
22.30546889379661
 31
0
  0
LINE
  8
1
 62
3
  6
DASHDOT
 10
-289.3886496956208
 20
-70.1645877542571
 30
0
 11
-289.3886496956208
 21
-51.38295119300243
 31
0
  0
LINE
  8
1
 62
7
 10
-303.3886496956208
 20
-65
 30
0
 11
-303.3886496956208
 21
-58.99999999999999
 31
0
  0
LINE
  8
1
 62
7
 10
-277.3886496956208
 20
-65
 30
0
 11
-303.3886496956208
 21
-65
 31
0
  0
LINE
  8
1
 62
7
 10
-299.3886496956208
 20
-54.99999999999999
 30
0
 11
-281.3886496956208
 21
-54.99999999999999
 31
0
  0
LINE
  8
1
 62
7
 10
-277.3886496956208
 20
-58.99999999999999
 30
0
 11
-277.3886496956208
 21
-65
 31
0
  0
LINE
  8
1
 62
7
 10
-291.3886496956208
 20
-34.99999999999999
 30
0
 11
-291.3886496956208
 21
-13.26649916142159
 31
0
  0
LINE
  8
1
 62
7
 10
-278.1609478443186
 20
-56.70944744518515
 30
0
 11
-291.3886496956208
 21
-34.99999999999999
 31
0
  0
LINE
  8
1
 62
3
  6
DASHDOT
 10
-379.3886496956208
 20
-51.38295119300243
 30
0
 11
-379.3886496956208
 21
-70.1645877542571
 31
0
  0
LINE
  8
1
 62
7
 10
-377.3886496956208
 20
-34.99999999999999
 30
0
 11
-390.6163515469231
 21
-56.70944744518515
 31
0
  0
LINE
  8
1
 62
7
 10
-365.3886496956208
 20
-58.99999999999999
 30
0
 11
-365.3886496956208
 21
-65
 31
0
  0
LINE
  8
1
 62
7
 10
-361.3886496956208
 20
-60.99999999999999
 30
0
 11
-307.3886496956208
 21
-60.99999999999999
 31
0
  0
LINE
  8
1
 62
7
 10
-377.3886496956208
 20
-13.26649916142159
 30
0
 11
-377.3886496956208
 21
-34.99999999999999
 31
0
  0
LINE
  8
1
 62
7
 10
-291.3886496956208
 20
39.00000000000001
 30
0
 11
-291.3886496956208
 21
13.26649916142161
 31
0
  0
LINE
  8
1
 62
7
 10
-321.1221505341992
 20
43.00000000000001
 30
0
 11
-295.3886496956208
 21
43.00000000000001
 31
0
  0
LINE
  8
1
 62
7
 10
-373.3886496956208
 20
43.00000000000001
 30
0
 11
-347.6551488570424
 21
43.00000000000001
 31
0
  0
LINE
  8
1
 62
7
 10
-377.3886496956208
 20
13.26649916142161
 30
0
 11
-377.3886496956208
 21
39.00000000000001
 31
0
  0
LINE
  8
1
 62
7
 10
-365.3886496956208
 20
-65
 30
0
 11
-391.3886496956208
 21
-65
 31
0
  0
LINE
  8
1
 62
7
 10
-387.3886496956208
 20
-54.99999999999999
 30
0
 11
-369.3886496956208
 21
-54.99999999999999
 31
0
  0
LINE
  8
1
 62
7
 10
-391.3886496956208
 20
-65
 30
0
 11
-391.3886496956208
 21
-58.99999999999999
 31
0
  0
LINE
  8
1
 62
7
 10
-3.340017071260888
 20
9.5
 30
0
 11
-3.340017071260888
 21
-7.5
 31
0
  0
LINE
  8
1
 62
3
  6
DASHED
 10
-3.340017071260888
 20
-1.9
 30
0
 11
-17.14001707126089
 21
-1.899999999999998
 31
0
  0
LINE
  8
1
 62
3
  6
DASHED
 10
-17.14001707126089
 20
-1.899999999999998
 30
0
 11
-17.14001707126089
 21
1.900000000000002
 31
0
  0
LINE
  8
1
 62
3
  6
DASHED
 10
-17.14001707126089
 20
1.900000000000002
 30
0
 11
-3.340017071260887
 21
1.9
 31
0
  0
LINE
  8
1
 62
3
  6
DASHED
 10
-17.14001707126089
 20
-1.899999999999998
 30
0
 11
-18.58339274423495
 21
1.86671347028255e-015
 31
0
  0
LINE
  8
1
 62
3
  6
DASHED
 10
-18.58339274423495
 20
1.86671347028255e-015
 30
0
 11
-17.14001707126089
 21
1.900000000000002
 31
0
  0
LINE
  8
1
 62
3
  6
DASHED
 10
-3.340017071260888
 20
-2.5
 30
0
 11
-13.34001707126089
 21
-2.499999999999999
 31
0
  0
LINE
  8
1
 62
3
  6
DASHED
 10
-13.34001707126089
 20
-2.499999999999999
 30
0
 11
-13.34001707126089
 21
2.500000000000001
 31
0
  0
LINE
  8
1
 62
3
  6
DASHED
 10
-13.34001707126089
 20
2.500000000000001
 30
0
 11
-3.340017071260887
 21
2.5
 31
0
  0
LINE
  8
1
 62
3
  6
DASHED
 10
-13.34001707126089
 20
-2.499999999999999
 30
0
 11
-14.37924755580221
 21
-1.899999999999999
 31
0
  0
LINE
  8
1
 62
3
  6
DASHED
 10
-13.34001707126089
 20
2.500000000000001
 30
0
 11
-14.37924755580221
 21
1.900000000000001
 31
0
  0
LINE
  8
1
 62
3
  6
DASHDOT
 10
-0.3400170712608879
 20
-3.673819061467132e-016
 30
0
 11
-22.43698258272118
 21
2.338626530406108e-015
 31
0
  0
LINE
  8
1
 62
7
 10
-33.34001707126089
 20
9.251766077583909
 30
0
 11
-33.34001707126089
 21
-9.251766077583902
 31
0
  0
LINE
  8
1
 62
7
 10
-37.04001707126081
 20
35.99999999999999
 30
0
 11
-37.04001707126081
 21
-36.00000000000006
 31
0
  0
LINE
  8
1
 62
7
 10
-41.04001707126081
 20
35.99999999999999
 30
0
 11
-41.04001707126081
 21
-36.00000000000006
 31
0
  0
LINE
  8
1
 62
7
 10
-43.49001707126081
 20
29.99999999999999
 30
0
 11
-43.99001707126081
 21
29.99999999999999
 31
0
  0
LINE
  8
1
 62
7
 10
-47.4400170712608
 20
42.49999999999999
 30
0
 11
-60.6900170712608
 21
42.49999999999999
 31
0
  0
LINE
  8
1
 62
7
 10
-66.4400170712608
 20
-40.99999999999999
 30
0
 11
-66.44001707126091
 21
40.99999999999999
 31
0
  0
LINE
  8
1
 62
7
 10
-66.44001707126091
 20
40.99999999999999
 30
0
 11
-70.04001707126093
 21
41.00000000000001
 31
0
  0
LINE
  8
1
 62
7
 10
-66.4400170712608
 20
-40.99999999999999
 30
0
 11
-69.04001707126093
 21
-40.99999999999999
 31
0
  0
LINE
  8
1
 62
7
 10
-170.8400170712609
 20
30.06582624879359
 30
0
 11
-170.8400170712609
 21
-42.00000000000001
 31
0
  0
LINE
  8
1
 62
7
 10
-170.3400170712609
 20
29.99999999999999
 30
0
 11
-169.8400170712609
 21
29.99999999999999
 31
0
  0
LINE
  8
1
 62
7
 10
-170.8400170712609
 20
20.00000000000001
 30
0
 11
-172.8400170712609
 21
20.00000000000001
 31
0
  0
LINE
  8
1
 62
7
 10
-172.8400170712609
 20
-19.99999999999999
 30
0
 11
-170.8400170712609
 21
-19.99999999999999
 31
0
  0
LINE
  8
1
 62
7
 10
-274.3886496956208
 20
-24.99999999999999
 30
0
 11
-291.3886496956208
 21
-24.99999999999999
 31
0
  0
LINE
  8
1
 62
7
 10
-289.667290145625
 20
-4.999999999999999
 30
0
 11
-274.3886496956208
 21
-4.999999999999993
 31
0
  0
LINE
  8
1
 62
7
 10
-105.5376661582205
 20
3
 30
0
 11
-105.5400170712609
 21
3
 31
0
  0
LINE
  8
1
 62
7
 10
-118.5400170712609
 20
-2
 30
0
 11
-118.5400170712609
 21
-4.943232011699138
 31
0
  0
LINE
  8
1
 62
7
 10
-120.5400170712609
 20
-2
 30
0
 11
-120.5400170712609
 21
-4.943232011699138
 31
0
  0
LINE
  8
1
 62
7
 10
-100.5400170712609
 20
0
 30
0
 11
-100.5400170712609
 21
-4.943232011699138
 31
0
  0
LINE
  8
1
 62
7
 10
-103.5400170712609
 20
3
 30
0
 11
-103.5423679843012
 21
3
 31
0
  0
LINE
  8
1
 62
7
 10
-90.54001707126093
 20
-4.943232011699138
 30
0
 11
-90.54001707126093
 21
-2
 31
0
  0
LINE
  8
1
 62
7
 10
-88.54001707126093
 20
-4.943232011699138
 30
0
 11
-88.54001707126093
 21
-2
 31
0
  0
LINE
  8
1
 62
7
 10
-103.5400693869877
 20
7
 30
0
 11
-97.54001707126093
 21
7
 31
0
  0
LINE
  8
1
 62
7
 10
-105.539964755534
 20
7
 30
0
 11
-111.5400170712609
 21
7
 31
0
  0
LINE
  8
1
 62
7
 10
-98.53999629609868
 20
0
 30
0
 11
-98.53999629609868
 21
-4.943232011699138
 31
0
  0
LINE
  8
1
 62
7
 10
-108.5400170712609
 20
-4.943232011699138
 30
0
 11
-108.5400170712609
 21
0
 31
0
  0
LINE
  8
1
 62
7
 10
-110.5400378464232
 20
-4.943232011699138
 30
0
 11
-110.5400378464232
 21
0
 31
0
  0
LINE
  8
1
 62
7
 10
-97.54001707126093
 20
5
 30
0
 11
-103.5256034646968
 21
5
 31
0
  0
LINE
  8
1
 62
7
 10
-105.5544306778249
 20
5
 30
0
 11
-111.5400170712609
 21
5
 31
0
  0
LINE
  8
1
 62
7
 10
-170.3400170712609
 20
181.0682446313296
 30
0
 11
-169.8400170712609
 21
181.0682446313296
 31
0
  0
ARC
  8
1
 62
7
 10
-147.3838902304816
 20
188.8243714721088
 30
0
 40
4.74407603278811
 50
0.52987824662673
 51
89.47012175337326
  0
ARC
  8
1
 62
7
 10
-147.3838902304816
 20
113.3121177905502
 30
0
 40
4.74407603278811
 50
270.5298782466267
 51
359.4701217533733
  0
ARC
  8
1
 62
7
 10
-147.3838902304816
 20
-37.75612684077927
 30
0
 40
4.744076032788138
 50
270.5298782466267
 51
359.4701217533731
  0
ARC
  8
1
 62
7
 10
-334.3886496956208
 20
7.105427357601002e-015
 30
0
 40
54.97398830626502
 50
311.7715159797245
 51
318.2284840202754
  0
ARC
  8
1
 62
7
 10
-57.04001707126094
 20
196.0682446313296
 30
0
 40
4.499999999999985
 50
326.2510114041112
 51
213.8157662457218
  0
ARC
  8
1
 62
7
  6
DASHED
 10
-152.0400170712609
 20
196.0682446313296
 30
0
 40
4.5
 50
180
 51
326.2510114041112
  0
ARC
  8
1
 62
7
 10
-152.0400170712609
 20
196.0682446313296
 30
0
 40
4.499999999999973
 50
326.2510114041112
 51
180
  0
ARC
  8
1
 62
7
 10
-152.0400170712609
 20
106.0682446313295
 30
0
 40
4.5
 50
180
 51
33.74898859588987
  0
ARC
  8
1
 62
7
  6
DASHED
 10
-152.0400170712609
 20
106.0682446313295
 30
0
 40
4.500000000000028
 50
33.74898859588987
 51
180
  0
ARC
  8
1
 62
7
 10
-57.04001707126094
 20
106.0682446313295
 30
0
 40
4.500000000000007
 50
146.107251562593
 51
33.74898859588857
  0
ARC
  8
1
 62
7
  6
DASHED
 10
-57.04001707126094
 20
106.0682446313295
 30
0
 40
4.500000000000003
 50
33.74898859588857
 51
146.107251562593
  0
ARC
  8
1
 62
7
  6
DASHED
 10
-57.04001707126094
 20
196.0682446313296
 30
0
 40
4.499999999999967
 50
213.8157662457218
 51
326.2510114041112
  0
ARC
  8
1
 62
7
 10
-89.54001707126093
 20
-22.47487373415291
 30
0
 40
1.487500000000039
 50
44.99999999999864
 51
134.9999999999998
  0
ARC
  8
1
 62
7
 10
-87.065143337108
 20
-19.99999999999999
 30
0
 40
1.487500000000037
 50
135.0000000000015
 51
224.9999999999987
  0
ARC
  8
1
 62
7
 10
-89.54001707126093
 20
-17.52512626584708
 30
0
 40
1.487499999999989
 50
224.9999999999998
 51
315.0000000000017
  0
ARC
  8
1
 62
7
 10
-92.01489080541393
 20
-19.99999999999999
 30
0
 40
1.487499999999999
 50
314.9999999999998
 51
45.00000000000009
  0
ARC
  8
1
 62
7
 10
-99.54001707126093
 20
-22.47487373415291
 30
0
 40
1.487500000000039
 50
44.99999999999864
 51
134.9999999999994
  0
ARC
  8
1
 62
7
 10
-97.065143337108
 20
-19.99999999999999
 30
0
 40
1.487500000000037
 50
135.0000000000015
 51
224.9999999999987
  0
ARC
  8
1
 62
7
 10
-99.54001707126093
 20
-17.52512626584708
 30
0
 40
1.487499999999979
 50
225.0000000000002
 51
315.0000000000017
  0
ARC
  8
1
 62
7
 10
-102.0148908054139
 20
-19.99999999999999
 30
0
 40
1.487500000000009
 50
315.0000000000002
 51
44.99999999999971
  0
ARC
  8
1
 62
7
 10
-82.29001707126093
 20
-11.74999999999999
 30
0
 40
1.487500000000011
 50
0
 51
90
  0
ARC
  8
1
 62
7
 10
-78.79001707126093
 20
-11.74999999999999
 30
0
 40
1.48749999999999
 50
90
 51
180
  0
ARC
  8
1
 62
7
 10
-78.79001707126093
 20
-8.249999999999993
 30
0
 40
1.487499999999955
 50
180
 51
270
  0
ARC
  8
1
 62
7
 10
-82.29001707126093
 20
-8.249999999999993
 30
0
 40
1.487499999999997
 50
270
 51
0
  0
ARC
  8
1
 62
7
 10
-119.5400170712609
 20
-22.47487373415291
 30
0
 40
1.487500000000009
 50
44.99999999999981
 51
135.0000000000002
  0
ARC
  8
1
 62
7
 10
-122.0148908054139
 20
-19.99999999999999
 30
0
 40
1.487499999999939
 50
314.9999999999975
 51
45.00000000000242
  0
ARC
  8
1
 62
7
 10
-119.5400170712609
 20
-17.52512626584708
 30
0
 40
1.487499999999999
 50
224.9999999999994
 51
315.0000000000006
  0
ARC
  8
1
 62
7
 10
-117.065143337108
 20
-19.99999999999999
 30
0
 40
1.487500000000077
 50
135.000000000003
 51
224.9999999999971
  0
ARC
  8
1
 62
7
 10
-109.5400170712609
 20
-22.47487373415291
 30
0
 40
1.487500000000009
 50
44.99999999999981
 51
135.0000000000002
  0
ARC
  8
1
 62
7
 10
-112.0148908054139
 20
-19.99999999999999
 30
0
 40
1.487499999999939
 50
314.9999999999975
 51
45.00000000000242
  0
ARC
  8
1
 62
7
 10
-109.5400170712609
 20
-17.52512626584708
 30
0
 40
1.487499999999999
 50
224.9999999999994
 51
315.0000000000006
  0
ARC
  8
1
 62
7
 10
-107.065143337108
 20
-19.99999999999999
 30
0
 40
1.487500000000077
 50
135.000000000003
 51
224.9999999999971
  0
ARC
  8
1
 62
7
 10
-126.7900170712609
 20
-11.74999999999999
 30
0
 40
1.48749999999999
 50
90
 51
180
  0
ARC
  8
1
 62
7
 10
-130.2900170712609
 20
-11.74999999999999
 30
0
 40
1.487500000000011
 50
0
 51
90
  0
ARC
  8
1
 62
7
 10
-130.2900170712609
 20
-8.249999999999993
 30
0
 40
1.487499999999997
 50
270
 51
0
  0
ARC
  8
1
 62
7
 10
-126.7900170712609
 20
-8.249999999999993
 30
0
 40
1.487499999999983
 50
180
 51
270
  0
ARC
  8
1
 62
7
 10
-147.3838902304816
 20
37.75612684077927
 30
0
 40
4.74407603278811
 50
0.5298782466269015
 51
89.47012175337329
  0
ARC
  8
1
 62
7
 10
-334.3886496956208
 20
7.105427357601002e-015
 30
0
 40
12.5
 50
279.2068962213459
 51
350.7931037786541
  0
ARC
  8
1
 62
7
 10
-334.3886496956208
 20
7.105427357601002e-015
 30
0
 40
12.50000000000002
 50
189.2068962213459
 51
260.7931037786541
  0
ARC
  8
1
 62
7
 10
-334.3886496956208
 20
7.105427357601002e-015
 30
0
 40
12.49999999999999
 50
99.20689622134591
 51
170.7931037786541
  0
ARC
  8
1
 62
7
 10
-334.3886496956208
 20
7.105427357601002e-015
 30
0
 40
12.50000000000002
 50
9.206896221345886
 51
80.79310377865409
  0
ARC
  8
1
 62
7
 10
-299.74041741748
 20
-34.64823227814082
 30
0
 40
4.249999999999915
 50
153.8923761392294
 51
116.1076238607701
  0
ARC
  8
1
 62
7
 10
-334.3886496956208
 20
7.105427357601002e-015
 30
0
 40
54.97398830626507
 50
221.7715159797245
 51
228.2284840202754
  0
ARC
  8
1
 62
7
 10
-369.0368819737616
 20
-34.64823227814081
 30
0
 40
4.249999999999945
 50
63.89237613923129
 51
26.10762386077028
  0
ARC
  8
1
 62
7
 10
-334.3886496956208
 20
7.105427357601002e-015
 30
0
 40
54.97398830626511
 50
131.7715159797246
 51
138.2284840202754
  0
ARC
  8
1
 62
7
 10
-369.0368819737616
 20
34.64823227814083
 30
0
 40
4.249999999999915
 50
333.8923761392294
 51
296.1076238607684
  0
ARC
  8
1
 62
7
 10
-334.3886496956208
 20
7.105427357601002e-015
 30
0
 40
54.97398830626508
 50
41.77151597972456
 51
48.22848402027541
  0
ARC
  8
1
 62
7
 10
-299.74041741748
 20
34.64823227814083
 30
0
 40
4.249999999999995
 50
243.8923761392299
 51
206.107623860771
  0
ARC
  8
1
 62
3
  6
DASHDOT
 10
-334.3886496956208
 20
7.105427357601002e-015
 30
0
 40
27.00000000000006
 50
318.799738564677
 51
341.332282756088
  0
ARC
  8
1
 62
3
  6
DASHDOT
 10
-334.3886496956208
 20
7.105427357601002e-015
 30
0
 40
26.99999999999997
 50
198.799738564677
 51
221.3322827560882
  0
ARC
  8
1
 62
3
  6
DASHDOT
 10
-334.3886496956208
 20
7.105427357601002e-015
 30
0
 40
26.99999999999997
 50
198.799738564677
 51
221.3322827560882
  0
ARC
  8
1
 62
3
  6
DASHDOT
 10
-334.3886496956208
 20
7.105427357601002e-015
 30
0
 40
27
 50
78.7997385646769
 51
101.3322827560882
  0
ARC
  8
1
 62
7
 10
-160.5400170712609
 20
204.0682446313295
 30
0
 40
4
 50
90
 51
180
  0
ARC
  8
1
 62
7
 10
-160.5400170712609
 20
98.06824463132952
 30
0
 40
4
 50
180
 51
270
  0
ARC
  8
1
 62
7
 10
-48.54001707126094
 20
98.06824463132952
 30
0
 40
4
 50
270
 51
0
  0
ARC
  8
1
 62
7
 10
-48.54001707126094
 20
204.0682446313295
 30
0
 40
4
 50
0
 51
90
  0
ARC
  8
1
 62
7
 10
-140.0400170712609
 20
96.06824463132961
 30
0
 40
2
 50
270
 51
0
  0
ARC
  8
1
 62
7
 10
-69.04001707126093
 20
96.06824463132961
 30
0
 40
2
 50
180
 51
270
  0
ARC
  8
1
 62
7
 10
-140.0400170712609
 20
206.0682446313295
 30
0
 40
2
 50
0
 51
90
  0
ARC
  8
1
 62
7
 10
-69.04001707126093
 20
206.0682446313295
 30
0
 40
2
 50
90
 51
180
  0
ARC
  8
1
 62
7
 10
-139.0400170712609
 20
109.0682446313296
 30
0
 40
1
 50
0
 51
90
  0
ARC
  8
1
 62
7
 10
-70.04001707126093
 20
109.0682446313296
 30
0
 40
1
 50
90
 51
180
  0
ARC
  8
1
 62
7
 10
-72.04001707126093
 20
109.0682446313296
 30
0
 40
1
 50
270
 51
0
  0
ARC
  8
1
 62
7
 10
-137.0400170712609
 20
109.0682446313296
 30
0
 40
1
 50
180
 51
270
  0
ARC
  8
1
 62
7
 10
-25.84001707126089
 20
151.0682446313295
 30
0
 40
2.5
 50
90
 51
270
  0
ARC
  8
1
 62
7
 10
-60.4400170712608
 20
187.5734552271888
 30
0
 40
5.999999999999917
 50
92.38801546326882
 51
180
  0
ARC
  8
1
 62
7
 10
-42.01501707126085
 20
168.0432446313295
 30
0
 40
0.9753204601565534
 50
271.4688007143883
 51
1.46880071438622
  0
ARC
  8
1
 62
7
 10
-60.4400170712608
 20
114.5682446313295
 30
0
 40
6
 50
180
 51
270
  0
ARC
  8
1
 62
7
 10
-42.01501707126085
 20
134.0932446313295
 30
0
 40
0.975320460156517
 50
358.5311992856138
 51
88.53119928561175
  0
ARC
  8
1
 62
7
 10
-70.04001707126093
 20
193.0682446313296
 30
0
 40
1
 50
180
 51
270
  0
ARC
  8
1
 62
7
 10
-72.04001707126093
 20
193.0682446313296
 30
0
 40
1
 50
0
 51
90
  0
ARC
  8
1
 62
7
 10
-139.0400170712609
 20
193.0682446313296
 30
0
 40
1
 50
270
 51
0
  0
ARC
  8
1
 62
7
 10
-137.0400170712609
 20
193.0682446313296
 30
0
 40
1
 50
90
 51
180
  0
ARC
  8
1
 62
7
 10
-60.4400170712608
 20
36.49999999999999
 30
0
 40
5.999999999999975
 50
92.3880154632688
 51
180
  0
ARC
  8
1
 62
7
 10
-42.04001707126081
 20
16.99999999999999
 30
0
 40
1
 50
270
 51
0
  0
ARC
  8
1
 62
7
 10
-60.4400170712608
 20
-36.5
 30
0
 40
6
 50
180
 51
270
  0
ARC
  8
1
 62
7
 10
-42.04001707126081
 20
-17
 30
0
 40
1
 50
0
 51
90
  0
ARC
  8
1
 62
7
 10
-70.04001707126093
 20
42.00000000000001
 30
0
 40
1
 50
180
 51
270
  0
ARC
  8
1
 62
7
 10
-72.04001707126093
 20
42.00000000000001
 30
0
 40
1
 50
0
 51
90
  0
ARC
  8
1
 62
7
 10
-69.04001707126093
 20
-42.99999999999999
 30
0
 40
2
 50
90
 51
180
  0
ARC
  8
1
 62
7
 10
-68.04001707126093
 20
-51.99999999999999
 30
0
 40
3
 50
180
 51
270
  0
ARC
  8
1
 62
7
 10
-48.54001707126094
 20
-58.99999999999999
 30
0
 40
4
 50
0
 51
90
  0
ARC
  8
1
 62
7
 10
-85.54001707126093
 20
-65
 30
0
 40
4
 50
0
 51
90
  0
ARC
  8
1
 62
7
 10
-139.0400170712609
 20
42.00000000000001
 30
0
 40
1
 50
270
 51
0
  0
ARC
  8
1
 62
7
 10
-137.0400170712609
 20
42.00000000000001
 30
0
 40
1
 50
90
 51
180
  0
ARC
  8
1
 62
7
 10
-140.0400170712609
 20
-42.99999999999999
 30
0
 40
2
 50
0
 51
90
  0
ARC
  8
1
 62
7
 10
-141.0400170712609
 20
-51.99999999999999
 30
0
 40
3
 50
270
 51
0
  0
ARC
  8
1
 62
7
 10
-160.5400170712609
 20
-58.99999999999999
 30
0
 40
4
 50
90
 51
180
  0
ARC
  8
1
 62
7
 10
-123.5400170712609
 20
-65
 30
0
 40
4.000000000000007
 50
90
 51
180
  0
ARC
  8
1
 62
7
 10
-373.3886496956208
 20
39.00000000000001
 30
0
 40
4
 50
90
 51
180
  0
ARC
  8
1
 62
7
 10
-307.3886496956208
 20
-65
 30
0
 40
4
 50
0
 51
90
  0
ARC
  8
1
 62
7
 10
-299.3886496956208
 20
-58.99999999999999
 30
0
 40
4
 50
90
 51
180
  0
ARC
  8
1
 62
7
 10
-281.3886496956208
 20
-58.99999999999999
 30
0
 40
4
 50
0
 51
90
  0
ARC
  8
1
 62
7
 10
-295.3886496956208
 20
39.00000000000001
 30
0
 40
4
 50
0
 51
90
  0
ARC
  8
1
 62
7
 10
-373.3886496956208
 20
39.00000000000001
 30
0
 40
4
 50
90
 51
180
  0
ARC
  8
1
 62
7
 10
-361.3886496956208
 20
-65
 30
0
 40
4.000000000000007
 50
90
 51
180
  0
ARC
  8
1
 62
7
 10
-369.3886496956208
 20
-58.99999999999999
 30
0
 40
4
 50
0
 51
90
  0
ARC
  8
1
 62
7
 10
-387.3886496956208
 20
-58.99999999999999
 30
0
 40
4
 50
90
 51
180
  0
ARC
  8
1
 62
7
 10
-105.539964755534
 20
5.999947684273081
 30
0
 40
1.000052315726944
 50
269.1711781592382
 51
90
  0
ARC
  8
1
 62
7
 10
-103.5400693869877
 20
5.999947684273081
 30
0
 40
1.000052315726919
 50
90
 51
270.8288218407618
  0
ARC
  8
1
 62
7
 10
-104.5400170712609
 20
5
 30
0
 40
2.500000000000016
 50
234.4649085793088
 51
305.5350914206915
  0
ARC
  8
1
 62
7
 10
-104.5400170712609
 20
5
 30
0
 40
2.5
 50
53.13010235415598
 51
126.869897645844
  0
ARC
  8
1
 62
7
 10
-111.5400170712609
 20
-2
 30
0
 40
7
 50
90
 51
180
  0
ARC
  8
1
 62
7
 10
-111.5400170712609
 20
-2
 30
0
 40
9
 50
90
 51
180
  0
ARC
  8
1
 62
7
 10
-103.5400170712609
 20
0
 30
0
 40
3
 50
0
 51
90
  0
ARC
  8
1
 62
7
 10
-97.54001707126093
 20
-2
 30
0
 40
7
 50
0
 51
90
  0
ARC
  8
1
 62
7
 10
-97.54001707126093
 20
-2
 30
0
 40
9
 50
0
 51
90
  0
ARC
  8
1
 62
7
 10
-103.5400693869877
 20
4.000052315726904
 30
0
 40
1.000052315726959
 50
89.17117815923822
 51
270
  0
ARC
  8
1
 62
7
 10
-105.539964755534
 20
4.000052315726904
 30
0
 40
1.000052315726919
 50
270
 51
90.82882184076178
  0
ARC
  8
1
 62
7
 10
-103.5400170712609
 20
0
 30
0
 40
5.000020775162227
 50
0
 51
89.8348326927799
  0
ARC
  8
1
 62
7
 10
-105.5400170712609
 20
0
 30
0
 40
5.000020775162257
 50
90.16516730721881
 51
180
  0
ARC
  8
1
 62
7
 10
-105.5400170712609
 20
0
 30
0
 40
3
 50
90
 51
180
  0
ARC
  8
1
 62
7
 10
-104.5400170712609
 20
5
 30
0
 40
4.999999999999971
 50
340.6529048529421
 51
0
  0
ARC
  8
1
 62
7
 10
-104.5400170712609
 20
5
 30
0
 40
5.000000000000209
 50
224.1457432463702
 51
315.8542567536287
  0
ARC
  8
1
 62
7
 10
-104.5400170712609
 20
5
 30
0
 40
5
 50
180
 51
199.3470951470577
  0
ARC
  8
1
 62
7
 10
-104.5400170712609
 20
5
 30
0
 40
5.000000000000021
 50
23.57817847820173
 51
156.4218215217989
  0
CIRCLE
  8
1
 62
7
 10
-89.54001707126093
 20
-19.99999999999999
 30
0
 40
2.75
  0
CIRCLE
  8
1
 62
7
 10
-99.54001707126093
 20
-19.99999999999999
 30
0
 40
2.749999999999972
  0
CIRCLE
  8
1
 62
7
 10
-80.54001707126093
 20
-9.999999999999993
 30
0
 40
2.75
  0
CIRCLE
  8
1
 62
7
 10
-119.5400170712609
 20
-19.99999999999999
 30
0
 40
2.75
  0
CIRCLE
  8
1
 62
7
 10
-109.5400170712609
 20
-19.99999999999999
 30
0
 40
2.75
  0
CIRCLE
  8
1
 62
7
 10
-128.5400170712609
 20
-9.999999999999993
 30
0
 40
2.75
  0
CIRCLE
  8
1
 62
3
 10
-334.3886496956208
 20
7.105427357601002e-015
 30
0
 40
6.75
  0
CIRCLE
  8
1
 62
7
 10
-334.3886496956208
 20
7.105427357601002e-015
 30
0
 40
7.5
  0
CIRCLE
  8
1
 62
7
 10
-334.3886496956208
 20
7.105427357601002e-015
 30
0
 40
43
  0
CIRCLE
  8
1
 62
7
 10
-311.005963793441
 20
-13.5
 30
0
 40
2.5
  0
CIRCLE
  8
1
 62
3
 10
-311.005963793441
 20
-13.5
 30
0
 40
3
  0
CIRCLE
  8
1
 62
3
 10
-311.005963793441
 20
-13.5
 30
0
 40
3
  0
CIRCLE
  8
1
 62
7
 10
-357.7713355978007
 20
-13.49999999999999
 30
0
 40
2.5
  0
CIRCLE
  8
1
 62
3
 10
-357.7713355978007
 20
-13.49999999999999
 30
0
 40
3
  0
CIRCLE
  8
1
 62
7
 10
-357.7713355978007
 20
-13.49999999999999
 30
0
 40
2.5
  0
CIRCLE
  8
1
 62
3
 10
-357.7713355978007
 20
-13.49999999999999
 30
0
 40
3
  0
CIRCLE
  8
1
 62
7
 10
-334.3886496956208
 20
27.00000000000001
 30
0
 40
2.5
  0
CIRCLE
  8
1
 62
3
 10
-334.3886496956208
 20
27.00000000000001
 30
0
 40
3
  0
CIRCLE
  8
1
 62
7
 10
-334.3886496956208
 20
7.105427357601002e-015
 30
0
 40
20
  0
CIRCLE
  8
1
 62
7
 10
-334.3886496956208
 20
7.105427357601002e-015
 30
0
 40
36
  0
CIRCLE
  8
1
 62
7
 10
-334.3886496956208
 20
7.105427357601002e-015
 30
0
 40
45
  0
TEXT
  8
1
 62
7
 10
-356.4386496956208
 20
157.0315490836095
 30
0
 40
7
  1
TMP 1.2
 41
0.9
  7
SIMPLEX
  0
TEXT
  8
1
 62
7
 10
-356.4386496956208
 20
146.5315490836095
 30
0
 40
7
  1
DC1802
 41
0.9
  7
SIMPLEX
  0
TEXT
  8
1
 62
7
 10
-97.69001707126094
 20
-12.49999999999999
 30
0
 40
3.5
  1
BR
 41
0.8910000000000004
  7
SIMPLEX
  0
TEXT
  8
1
 62
7
 10
-117.6900170712609
 20
-12.49999999999999
 30
0
 40
3.5
  1
CL
 41
0.8910000000000004
  7
SIMPLEX
  0
ENDSEC
  0
EOF
