  0
SECTION
  2
HEADER
  9
$ACADVER
  1
AC1009
  9
$INSBASE
 10
0
 20
0
  9
$EXTMIN
 10
-557.5940159444461
 20
-97.0938664756674
  9
$EXTMAX
 10
0
 20
354.3859908725448
  9
$LIMMIN
 10
-557.5940159444461
 20
-97.0938664756674
  9
$LIMMAX
 10
0
 20
354.3859908725448
  9
$VIEWCTR
 10
10
 20
10
  9
$VIEWSIZE
 40
10
  9
$SNAPMODE
 70
0
  9
$SNAPUNIT
 10
1
 20
1
  9
$SNAPBASE
 10
0
 20
0
  9
$SNAPANG
 50
0
  9
$SNAPSTYLE
 70
0
  9
$SNAPISOPAIR
 70
0
  9
$GRIDMODE
 70
0
  9
$GRIDUNIT
 10
0
 20
0
  9
$ORTHOMODE
 70
0
  9
$REGENMODE
 70
1
  9
$FILLMODE
 70
1
  9
$QTEXTMODE
 70
0
  9
$DRAGMODE
 70
2
  9
$LTSCALE
 40
1
  9
$OSMODE
 70
0
  9
$ATTMODE
 70
1
  9
$TEXTSIZE
 40
3.5
  9
$TRACEWID
 40
0.5
  9
$TEXTSTYLE
  7
STANDARD
  9
$CLAYER
  8
0
  9
$CELTYPE
  6
BYLAYER
  9
$CECOLOR
 62
256
  9
$DIMSCALE
 40
1
  9
$DIMASZ
 40
0.18
  9
$DIMEXO
 40
0.0625
  9
$DIMDLI
 40
0.38
  9
$DIMRND
 40
0
  9
$DIMDLE
 40
0
  9
$DIMEXE
 40
0.18
  9
$DIMTP
 40
0
  9
$DIMTM
 40
0
  9
$DIMTXT
 40
0.18
  9
$DIMCEN
 40
0.09
  9
$DIMTSZ
 40
0
  9
$DIMTOL
 70
0
  9
$DIMLIM
 70
0
  9
$DIMTIH
 70
1
  9
$DIMTOH
 70
1
  9
$DIMSE1
 70
0
  9
$DIMSE2
 70
0
  9
$DIMTAD
 70
0
  9
$DIMZIN
 70
0
  9
$DIMBLK
  1

  9
$DIMASO
 70
1
  9
$DIMSHO
 70
1
  9
$DIMPOST
  1

  9
$DIMAPOST
  1

  9
$DIMALT
 70
0
  9
$DIMALTD
 70
2
  9
$DIMALTF
 40
25.4
  9
$DIMLFAC
 40
1
  9
$DIMTOFL
 70
0
  9
$DIMTVP
 40
0
  9
$DIMTIX
 70
0
  9
$DIMSOXD
 70
0
  9
$DIMSAH
 70
0
  9
$DIMBLK1
  1

  9
$DIMBLK2
  1

  9
$DIMSTYLE
  2
*UNNAMED
  9
$DIMCLRD
 70
0
  9
$DIMCLRE
 70
0
  9
$DIMCLRT
 70
0
  9
$DIMTFAC
 40
1
  9
$DIMGAP
 40
0.09
  9
$LUNITS
 70
2
  9
$LUPREC
 70
4
  9
$AXISMODE
 70
0
  9
$AXISUNIT
 10
0
 20
0
  9
$SKETCHINC
 40
0.1
  9
$FILLETRAD
 40
2
  9
$AUNITS
 70
0
  9
$AUPREC
 70
0
  9
$MENU
  1
ACAD
  9
$ELEVATION
 40
0
  9
$THICKNESS
 40
0
  9
$VIEWDIR
 10
0
 20
0
 30
1
  9
$LIMCHECK
 70
0
  9
$BLIPMODE
 70
1
  9
$CHAMFERA
 40
0
  9
$CHAMFERB
 40
0
  9
$FASTZOOM
 70
1
  9
$SKPOLY
 70
0
  9
$ANGBASE
 50
0
  9
$ANGDIR
 70
0
  9
$PDMODE
 70
0
  9
$PDSIZE
 40
0
  9
$PLINEWID
 40
0
  9
$COORDS
 70
2
  0
ENDSEC
  0
SECTION
  2
TABLES
  0
TABLE
  2
DIMSTYLE
 70
0
  0
ENDTAB
  0
TABLE
  2
LTYPE
 70
9
  0
LTYPE
  2
CONTINUOUS
 70
64
  3
Solid line
 72
65
 73
0
 40
0
  0
LTYPE
  2
BORDER
 70
64
  3
__ __ . __ __ .
 72
65
 73
6
 40
25.67867178691528
 49
7.336763367690081
 49
-3.66838168384504
 49
7.336763367690081
 49
-3.66838168384504
 49
0
 49
-3.66838168384504
  0
LTYPE
  2
CENTER
 70
64
  3
____ _ ____ _
 72
65
 73
4
 40
29.34705347076032
 49
18.3419084192252
 49
-3.66838168384504
 49
3.66838168384504
 49
-3.66838168384504
  0
LTYPE
  2
DASHDOT
 70
64
  3
__ . __ . __ .
 72
65
 73
4
 40
14.67352673538016
 49
7.336763367690081
 49
-3.66838168384504
 49
0
 49
-3.66838168384504
  0
LTYPE
  2
DASHED
 70
64
  3
__ __ __ __ __
 72
65
 73
2
 40
11.00514505153512
 49
7.336763367690081
 49
-3.66838168384504
  0
LTYPE
  2
DIVIDE
 70
64
  3
__ . . __ . . 
 72
65
 73
6
 40
18.3419084192252
 49
7.336763367690081
 49
-3.66838168384504
 49
0
 49
-3.66838168384504
 49
0
 49
-3.66838168384504
  0
LTYPE
  2
DOT
 70
64
  3
..............
 72
65
 73
4
 40
7.336763367690081
 49
0
 49
-3.66838168384504
 49
0
 49
-3.66838168384504
  0
LTYPE
  2
HIDDEN
 70
64
  3
_ _ _ _ _ _ _
 72
65
 73
2
 40
5.50257252576756
 49
3.66838168384504
 49
-1.83419084192252
  0
LTYPE
  2
PHANTOM
 70
64
  3
_____ _ _ _____ _ _ 
 72
65
 73
6
 40
36.6838168384504
 49
18.3419084192252
 49
-3.66838168384504
 49
3.66838168384504
 49
-3.66838168384504
 49
3.66838168384504
 49
-3.66838168384504
  0
ENDTAB
  0
TABLE
  2
LAYER
 70
3
  0
LAYER
  2
1
 70
0
 62
7
  6
CONTINUOUS
  0
LAYER
  2
0
 70
0
 62
7
  6
CONTINUOUS
  0
ENDTAB
  0
TABLE
  2
STYLE
 70
4
  0
STYLE
  2
STANDARD
 70
0
 40
0
 41
1
 50
0
 71
0
 42
3.5
  3
txt
  4

  0
STYLE
  2
SIMPLEX
 70
0
 40
0
 41
1
 50
0
 71
0
 42
3.5
  3
simplex
  4

  0
STYLE
  2
COMPLEX
 70
0
 40
0
 41
1
 50
0
 71
0
 42
3.5
  3
complex
  4

  0
STYLE
  2
ITALIC
 70
0
 40
0
 41
1
 50
0
 71
0
 42
3.5
  3
italic
  4

  0
ENDTAB
  0
TABLE
  2
VIEW
 70
0
  0
ENDTAB
  0
ENDSEC
  0
SECTION
  2
BLOCKS
  0
ENDSEC
  0
SECTION
  2
ENTITIES
  0
LINE
  8
1
 62
3
  6
DASHDOT
 10
-218.8551670235831
 20
339.3859908725448
 30
0
 11
-214.0842699461099
 21
339.3859908725448
 31
0
  0
LINE
  8
1
 62
7
 10
-224.8551670235831
 20
339.3859908725448
 30
0
 11
-218.8551670235831
 21
339.3859908725448
 31
0
  0
LINE
  8
1
 62
7
 10
-218.8551670235831
 20
204.3859908725448
 30
0
 11
-224.8551670235831
 21
204.3859908725448
 31
0
  0
LINE
  8
1
 62
3
  6
DASHDOT
 10
-224.8551670235831
 20
204.3859908725448
 30
0
 11
-228.4260641010559
 21
204.3859908725448
 31
0
  0
LINE
  8
1
 62
7
 10
-224.8551670235831
 20
67.4985006221045
 30
0
 11
-224.8551670235831
 21
67.34999999999999
 31
0
  0
LINE
  8
1
 62
7
 10
-219.0000429788134
 20
67.4985006221045
 30
0
 11
-224.8551670235831
 21
67.4985006221045
 31
0
  0
LINE
  8
1
 62
7
 10
-219.3232919489449
 20
-67.48432953505596
 30
0
 11
-224.8551670235831
 21
-67.48432953505596
 31
0
  0
LINE
  8
1
 62
7
 10
-211.8551670235828
 20
62.5
 30
0
 11
-211.8551670235828
 21
-62.5
 31
0
  0
LINE
  8
1
 62
3
  6
DASHDOT
 10
-89.95516702358299
 20
204.3859908725448
 30
0
 11
-93.42606410105594
 21
204.3859908725448
 31
0
  0
LINE
  8
1
 62
7
 10
-95.85516702358308
 20
336.1529525129123
 30
0
 11
-95.85516702358308
 21
207.6190292321774
 31
0
  0
LINE
  8
1
 62
7
 10
-63.15516702358284
 20
327.8859908725447
 30
0
 11
-63.15516702358284
 21
215.8859908725447
 31
0
  0
LINE
  8
1
 62
7
 10
-57.15516702358283
 20
327.8859908725447
 30
0
 11
-57.15516702358284
 21
215.8859908725447
 31
0
  0
LINE
  8
1
 62
7
 10
-248.4551670235831
 20
319.3859908725448
 30
0
 11
-247.6551670235831
 21
319.3859908725448
 31
0
  0
LINE
  8
1
 62
7
 10
-67.05516702358284
 20
319.3859908725447
 30
0
 11
-67.85516702358308
 21
319.3859908725447
 31
0
  0
LINE
  8
1
 62
7
 10
-248.4551670235831
 20
47.5
 30
0
 11
-247.6551670235831
 21
47.5
 31
0
  0
LINE
  8
1
 62
7
 10
-67.05516702358284
 20
47.49999999999989
 30
0
 11
-67.85516702358308
 21
47.49999999999989
 31
0
  0
LINE
  8
1
 62
7
 10
-95.85516702358308
 20
64.2669616403675
 30
0
 11
-95.85516702358308
 21
-64.26696164036741
 31
0
  0
LINE
  8
1
 62
7
 10
-63.15516702358284
 20
55.99999999999989
 30
0
 11
-63.15516702358283
 21
-56.00000000000011
 31
0
  0
LINE
  8
1
 62
7
 10
-57.15516702358284
 20
55.99999999999989
 30
0
 11
-57.15516702358284
 21
-56.00000000000011
 31
0
  0
LINE
  8
1
 62
7
 10
-159.7551877987452
 20
-21
 30
0
 11
-159.7551877987452
 21
-15
 31
0
  0
LINE
  8
1
 62
7
 10
-147.7551462484207
 20
-15
 30
0
 11
-147.7551462484207
 21
-21
 31
0
  0
LINE
  8
1
 62
3
  6
DASHDOT
 10
-0.3551670235829079
 20
-3.673819061467132e-016
 30
0
 11
-32.20268788498971
 21
3.532685733890235e-015
 31
0
  0
LINE
  8
1
 62
3
  6
DASHED
 10
-19.35516702358291
 20
4.000000000000002
 30
0
 11
-20.74080766963801
 21
3.200000000000002
 31
0
  0
LINE
  8
1
 62
3
  6
DASHED
 10
-19.35516702358291
 20
-3.999999999999998
 30
0
 11
-20.74080766963801
 21
-3.199999999999998
 31
0
  0
LINE
  8
1
 62
3
  6
DASHED
 10
-19.35516702358291
 20
4.000000000000002
 30
0
 11
-3.355167023582907
 21
4
 31
0
  0
LINE
  8
1
 62
3
  6
DASHED
 10
-19.35516702358291
 20
-3.999999999999998
 30
0
 11
-19.35516702358291
 21
4.000000000000002
 31
0
  0
LINE
  8
1
 62
3
  6
DASHED
 10
-3.355167023582908
 20
-4
 30
0
 11
-19.35516702358291
 21
-3.999999999999998
 31
0
  0
LINE
  8
1
 62
3
  6
DASHED
 10
-28.06456810034141
 20
3.025928955774395e-015
 30
0
 11
-25.75516702358291
 21
3.200000000000003
 31
0
  0
LINE
  8
1
 62
3
  6
DASHED
 10
-25.75516702358291
 20
-3.199999999999998
 30
0
 11
-28.06456810034141
 21
3.025928955774395e-015
 31
0
  0
LINE
  8
1
 62
3
  6
DASHED
 10
-25.75516702358291
 20
3.200000000000003
 30
0
 11
-3.355167023582907
 21
3.2
 31
0
  0
LINE
  8
1
 62
3
  6
DASHED
 10
-25.75516702358291
 20
-3.199999999999998
 30
0
 11
-25.75516702358291
 21
3.200000000000003
 31
0
  0
LINE
  8
1
 62
3
  6
DASHED
 10
-3.355167023582908
 20
-3.2
 30
0
 11
-25.75516702358291
 21
-3.199999999999998
 31
0
  0
LINE
  8
1
 62
3
  6
DASHDOT
 10
-475.0940159444461
 20
45.51151079136689
 30
0
 11
-475.0940159444461
 21
31.80187050359709
 31
0
  0
LINE
  8
1
 62
3
  6
DASHDOT
 10
-514.5081404543795
 20
-22.75575539568345
 30
0
 11
-502.6352436884243
 21
-15.90093525179855
 31
0
  0
LINE
  8
1
 62
3
  6
DASHDOT
 10
-435.6798914345128
 20
-22.75575539568348
 30
0
 11
-447.552788200468
 21
-15.90093525179856
 31
0
  0
LINE
  8
1
 62
7
 10
-420.0197659031357
 20
55.07425004131039
 30
0
 11
-422.8081535822617
 21
55.8213962681171
 31
0
  0
LINE
  8
1
 62
7
 10
-422.8081535822617
 20
55.8213962681171
 30
0
 11
-424.849395034581
 21
53.78015481579769
 31
0
  0
LINE
  8
1
 62
7
 10
-424.849395034581
 20
53.78015481579769
 30
0
 11
-424.1022488077743
 21
50.99176713667174
 31
0
  0
LINE
  8
1
 62
7
 10
-424.1022488077743
 20
50.99176713667174
 30
0
 11
-421.3138611286483
 21
50.24462090986503
 31
0
  0
LINE
  8
1
 62
7
 10
-421.3138611286483
 20
50.24462090986503
 30
0
 11
-419.272619676329
 21
52.28586236218439
 31
0
  0
LINE
  8
1
 62
7
 10
-419.272619676329
 20
52.28586236218439
 30
0
 11
-420.0197659031357
 21
55.07425004131039
 31
0
  0
LINE
  8
1
 62
7
 10
-441.4079654190432
 20
62.5
 30
0
 11
-421.2423678731012
 21
62.5
 31
0
  0
LINE
  8
1
 62
7
 10
-412.5940159444461
 20
53.851648071345
 30
0
 11
-412.5940159444461
 21
33.68605052540295
 31
0
  0
LINE
  8
1
 62
7
 10
-530.1682659857565
 20
55.07425004131039
 30
0
 11
-530.9154122125632
 21
52.28586236218439
 31
0
  0
LINE
  8
1
 62
7
 10
-530.9154122125632
 20
52.28586236218439
 30
0
 11
-528.8741707602439
 21
50.24462090986503
 31
0
  0
LINE
  8
1
 62
7
 10
-528.8741707602439
 20
50.24462090986503
 30
0
 11
-526.0857830811178
 21
50.99176713667175
 31
0
  0
LINE
  8
1
 62
7
 10
-526.0857830811178
 20
50.99176713667175
 30
0
 11
-525.3386368543112
 21
53.78015481579779
 31
0
  0
LINE
  8
1
 62
7
 10
-525.3386368543112
 20
53.78015481579779
 30
0
 11
-527.3798783066305
 21
55.8213962681171
 31
0
  0
LINE
  8
1
 62
7
 10
-527.3798783066305
 20
55.8213962681171
 30
0
 11
-530.1682659857565
 21
55.07425004131039
 31
0
  0
LINE
  8
1
 62
7
 10
-537.5940159444461
 20
33.68605052540293
 30
0
 11
-537.5940159444461
 21
53.851648071345
 31
0
  0
LINE
  8
1
 62
7
 10
-528.9456640157912
 20
62.5
 30
0
 11
-508.7800664698491
 21
62.5
 31
0
  0
LINE
  8
1
 62
7
 10
-530.1682659857565
 20
-55.07425004131037
 30
0
 11
-527.3798783066305
 21
-55.82139626811708
 31
0
  0
LINE
  8
1
 62
7
 10
-527.3798783066305
 20
-55.82139626811708
 30
0
 11
-525.3386368543112
 21
-53.78015481579776
 31
0
  0
LINE
  8
1
 62
7
 10
-525.3386368543112
 20
-53.78015481579776
 30
0
 11
-526.0857830811179
 21
-50.99176713667175
 31
0
  0
LINE
  8
1
 62
7
 10
-526.0857830811179
 20
-50.99176713667175
 30
0
 11
-528.8741707602439
 21
-50.24462090986504
 31
0
  0
LINE
  8
1
 62
7
 10
-528.8741707602439
 20
-50.24462090986504
 30
0
 11
-530.9154122125633
 21
-52.28586236218435
 31
0
  0
LINE
  8
1
 62
7
 10
-530.9154122125633
 20
-52.28586236218435
 30
0
 11
-530.1682659857565
 21
-55.07425004131037
 31
0
  0
LINE
  8
1
 62
7
 10
-508.7800664698491
 20
-62.50000000000001
 30
0
 11
-528.9456640157912
 21
-62.50000000000001
 31
0
  0
LINE
  8
1
 62
7
 10
-537.5940159444461
 20
-53.85164807134504
 30
0
 11
-537.5940159444461
 21
-33.68605052540295
 31
0
  0
LINE
  8
1
 62
7
 10
-420.0197659031357
 20
-55.07425004131039
 30
0
 11
-419.272619676329
 21
-52.28586236218436
 31
0
  0
LINE
  8
1
 62
7
 10
-419.272619676329
 20
-52.28586236218436
 30
0
 11
-421.3138611286483
 21
-50.24462090986505
 31
0
  0
LINE
  8
1
 62
7
 10
-421.3138611286483
 20
-50.24462090986505
 30
0
 11
-424.1022488077743
 21
-50.99176713667177
 31
0
  0
LINE
  8
1
 62
7
 10
-424.1022488077743
 20
-50.99176713667177
 30
0
 11
-424.849395034581
 21
-53.7801548157978
 31
0
  0
LINE
  8
1
 62
7
 10
-424.849395034581
 20
-53.7801548157978
 30
0
 11
-422.8081535822617
 21
-55.82139626811711
 31
0
  0
LINE
  8
1
 62
7
 10
-422.8081535822617
 20
-55.82139626811711
 30
0
 11
-420.0197659031357
 21
-55.07425004131039
 31
0
  0
LINE
  8
1
 62
7
 10
-412.5940159444461
 20
-33.68605052540295
 30
0
 11
-412.5940159444461
 21
-53.85164807134505
 31
0
  0
LINE
  8
1
 62
7
 10
-421.242367873101
 20
-62.50000000000001
 30
0
 11
-441.4079654190432
 21
-62.5
 31
0
  0
LINE
  8
1
 62
7
 10
-522.5940159444461
 20
-90
 30
0
 11
-557.5940159444461
 21
-90
 31
0
  0
LINE
  8
1
 62
7
 10
-557.5940159444461
 20
-90
 30
0
 11
-557.5940159444461
 21
-79
 31
0
  0
LINE
  8
1
 62
7
 10
-553.5940159444461
 20
-75
 30
0
 11
-526.5940159444461
 21
-75
 31
0
  0
LINE
  8
1
 62
7
 10
-522.5940159444461
 20
-90
 30
0
 11
-522.5940159444461
 21
-79
 31
0
  0
LINE
  8
1
 62
7
 10
-503.0839694992487
 20
65.25
 30
0
 11
-528.0940159444461
 21
65.25
 31
0
  0
LINE
  8
1
 62
7
 10
-540.0940159444461
 20
53.25
 30
0
 11
-540.0940159444461
 21
28.56571371417139
 31
0
  0
LINE
  8
1
 62
7
 10
-540.0940159444461
 20
-28.56571371417141
 30
0
 11
-540.0940159444461
 21
-47.00000000000001
 31
0
  0
LINE
  8
1
 62
7
 10
-540.0940159444461
 20
-47.00000000000001
 30
0
 11
-556.6556612922163
 21
-76.42583454990225
 31
0
  0
LINE
  8
1
 62
7
 10
-392.5940159444461
 20
-90
 30
0
 11
-427.5940159444461
 21
-90
 31
0
  0
LINE
  8
1
 62
7
 10
-392.5940159444462
 20
-79.00000000000006
 30
0
 11
-392.5940159444461
 21
-90
 31
0
  0
LINE
  8
1
 62
7
 10
-423.5940159444461
 20
-75
 30
0
 11
-396.5940159444461
 21
-75
 31
0
  0
LINE
  8
1
 62
7
 10
-427.5940159444461
 20
-79
 30
0
 11
-427.5940159444461
 21
-90
 31
0
  0
LINE
  8
1
 62
7
 10
-431.5940159444461
 20
-83
 30
0
 11
-518.5940159444461
 21
-83
 31
0
  0
LINE
  8
1
 62
7
 10
-393.5323705966759
 20
-76.42583454990225
 30
0
 11
-410.0940159444461
 21
-47.00000000000001
 31
0
  0
LINE
  8
1
 62
7
 10
-410.0940159444461
 20
-47.00000000000001
 30
0
 11
-410.0940159444461
 21
-28.56571371417141
 31
0
  0
LINE
  8
1
 62
7
 10
-410.0940159444461
 20
28.56571371417139
 30
0
 11
-410.0940159444461
 21
53.25
 31
0
  0
LINE
  8
1
 62
7
 10
-422.0940159444461
 20
65.25
 30
0
 11
-447.1040623896437
 21
65.25
 31
0
  0
LINE
  8
1
 62
7
 10
-477.5940159444461
 20
18.83480820183736
 30
0
 11
-477.5940159444461
 21
17
 31
0
  0
LINE
  8
1
 62
7
 10
-477.5940159444461
 20
17
 30
0
 11
-472.5940159444461
 21
17
 31
0
  0
LINE
  8
1
 62
7
 10
-472.5940159444461
 20
17
 30
0
 11
-472.5940159444461
 21
18.83480820183736
 31
0
  0
LINE
  8
1
 62
7
 10
-493.9288241462835
 20
-2.500000000000007
 30
0
 11
-492.0940159444462
 21
-2.500000000000007
 31
0
  0
LINE
  8
1
 62
7
 10
-492.0940159444462
 20
-2.500000000000007
 30
0
 11
-492.0940159444462
 21
2.499999999999993
 31
0
  0
LINE
  8
1
 62
7
 10
-492.0940159444462
 20
2.499999999999993
 30
0
 11
-493.9288241462835
 21
2.499999999999993
 31
0
  0
LINE
  8
1
 62
7
 10
-472.5940159444461
 20
-18.83480820183738
 30
0
 11
-472.5940159444461
 21
-17.00000000000002
 31
0
  0
LINE
  8
1
 62
7
 10
-472.5940159444461
 20
-17.00000000000002
 30
0
 11
-477.5940159444461
 21
-17.00000000000002
 31
0
  0
LINE
  8
1
 62
7
 10
-477.5940159444461
 20
-17.00000000000002
 30
0
 11
-477.5940159444461
 21
-18.83480820183738
 31
0
  0
LINE
  8
1
 62
7
 10
-456.2592077426088
 20
2.499999999999993
 30
0
 11
-458.0940159444461
 21
2.499999999999993
 31
0
  0
LINE
  8
1
 62
7
 10
-458.0940159444461
 20
2.499999999999993
 30
0
 11
-458.0940159444461
 21
-2.500000000000007
 31
0
  0
LINE
  8
1
 62
7
 10
-458.0940159444461
 20
-2.500000000000007
 30
0
 11
-456.2592077426088
 21
-2.500000000000007
 31
0
  0
LINE
  8
1
 62
7
 10
-188.7551670235829
 20
-87
 30
0
 11
-188.7551670235829
 21
-90
 31
0
  0
LINE
  8
1
 62
7
 10
-188.7551670235829
 20
-90
 30
0
 11
-236.2551670235829
 21
-90
 31
0
  0
LINE
  8
1
 62
7
 10
-236.2551670235829
 20
-90
 30
0
 11
-236.2551670235829
 21
-79
 31
0
  0
LINE
  8
1
 62
3
  6
DASHDOT
 10
-221.2551670235829
 20
-69.89237410071951
 30
0
 11
-221.2551670235829
 21
-94.86474820143891
 31
0
  0
LINE
  8
1
 62
7
 10
-206.7551670235829
 20
64.25
 30
0
 11
-206.7551670235829
 21
-72
 31
0
  0
LINE
  8
1
 62
7
 10
-101.7551670235829
 20
65.25
 30
0
 11
-205.7551670235829
 21
65.25
 31
0
  0
LINE
  8
1
 62
7
 10
-100.7551670235829
 20
-72
 30
0
 11
-100.7551670235829
 21
64.25
 31
0
  0
LINE
  8
1
 62
7
 10
-71.25516702358306
 20
-79
 30
0
 11
-71.25516702358306
 21
-90
 31
0
  0
LINE
  8
1
 62
7
 10
-71.25516702358306
 20
-90
 30
0
 11
-118.7551670235829
 21
-90
 31
0
  0
LINE
  8
1
 62
7
 10
-122.7551670235829
 20
-83
 30
0
 11
-184.7551670235829
 21
-83
 31
0
  0
LINE
  8
1
 62
7
 10
-118.7551670235829
 20
-90
 30
0
 11
-118.7551670235829
 21
-87
 31
0
  0
LINE
  8
1
 62
7
 10
-71.25516702358306
 20
-90
 30
0
 11
-118.7551670235829
 21
-90
 31
0
  0
LINE
  8
1
 62
3
  6
DASHDOT
 10
-86.25516702358306
 20
-94.86474820143891
 30
0
 11
-86.25516702358306
 21
-69.89237410071951
 31
0
  0
LINE
  8
1
 62
7
 10
-232.2551670235829
 20
-75
 30
0
 11
-75.25516702358306
 21
-75
 31
0
  0
LINE
  8
1
 62
7
 10
-240.455167023583
 20
67.5
 30
0
 11
-240.455167023583
 21
-67.49999999999989
 31
0
  0
LINE
  8
1
 62
7
 10
-238.4344410814194
 20
-70.99999999999989
 30
0
 11
-238.4344410814194
 21
71
 31
0
  0
LINE
  8
1
 62
7
 10
-226.455167023583
 20
-67.35000000000002
 30
0
 11
-224.8551670235831
 21
-67.35000000000002
 31
0
  0
LINE
  8
1
 62
7
 10
-226.455167023583
 20
67.34999999999999
 30
0
 11
-224.8551670235831
 21
67.34999999999999
 31
0
  0
LINE
  8
1
 62
3
  6
DASHDOT
 10
-300.8478005376611
 20
0
 30
0
 11
-297.355167023583
 21
0
 31
0
  0
LINE
  8
1
 62
7
 10
-248.4551670235831
 20
-66.53672573724259
 30
0
 11
-248.4551670235831
 21
47.5
 31
0
  0
LINE
  8
1
 62
7
 10
-252.3551670235831
 20
-54
 30
0
 11
-249.4551670235831
 21
-54
 31
0
  0
LINE
  8
1
 62
7
 10
-249.4551670235831
 20
-66.53672573724259
 30
0
 11
-249.4551670235831
 21
47.63165249758737
 31
0
  0
LINE
  8
1
 62
7
 10
-252.3551670235831
 20
-41
 30
0
 11
-249.4551670235831
 21
-41
 31
0
  0
LINE
  8
1
 62
7
 10
-249.4551670235831
 20
-66.53672573724259
 30
0
 11
-248.4551670235831
 21
-66.53672573724259
 31
0
  0
LINE
  8
1
 62
7
 10
-247.6551670235831
 20
68
 30
0
 11
-247.6551670235831
 21
-68
 31
0
  0
LINE
  8
1
 62
7
 10
-251.4551670235831
 20
56
 30
0
 11
-250.9551670235831
 21
55.5
 31
0
  0
LINE
  8
1
 62
7
 10
-251.4551670235831
 20
65
 30
0
 11
-250.9551670235831
 21
65.5
 31
0
  0
LINE
  8
1
 62
7
 10
-249.3551670235829
 20
55.5
 30
0
 11
-249.3551670235829
 21
65.5
 31
0
  0
LINE
  8
1
 62
7
 10
-248.6551670235831
 20
66.5
 30
0
 11
-247.6551670235831
 21
66.5
 31
0
  0
LINE
  8
1
 62
7
 10
-248.6551670235831
 20
50.61729314364243
 30
0
 11
-248.6551670235831
 21
66.5
 31
0
  0
LINE
  8
1
 62
7
 10
-250.9551670235831
 20
65.5
 30
0
 11
-248.6551670235831
 21
65.5
 31
0
  0
LINE
  8
1
 62
7
 10
-250.9551670235831
 20
55.5
 30
0
 11
-248.6551670235831
 21
55.5
 31
0
  0
LINE
  8
1
 62
7
 10
-251.4551670235831
 20
56
 30
0
 11
-251.4551670235831
 21
65
 31
0
  0
LINE
  8
1
 62
7
 10
-242.755167023583
 20
-68.00000000000001
 30
0
 11
-247.6551670235831
 21
-68
 31
0
  0
LINE
  8
1
 62
7
 10
-247.6551670235831
 20
68
 30
0
 11
-242.755167023583
 21
68
 31
0
  0
LINE
  8
1
 62
7
 10
-224.8551670235831
 20
-67.35000000000002
 30
0
 11
-224.8551670235831
 21
-67.48432953505596
 31
0
  0
LINE
  8
1
 62
7
 10
-211.8551670235828
 20
62.5
 30
0
 11
-207.7551670235829
 21
62.5
 31
0
  0
LINE
  8
1
 62
7
 10
-240.455167023583
 20
67.5
 30
0
 11
-238.4344410814194
 21
71
 31
0
  0
LINE
  8
1
 62
7
 10
-242.455167023583
 20
67.5
 30
0
 11
-240.455167023583
 21
67.5
 31
0
  0
LINE
  8
1
 62
7
 10
-242.455167023583
 20
-67.49999999999989
 30
0
 11
-242.455167023583
 21
67.5
 31
0
  0
LINE
  8
1
 62
7
 10
-238.4344410814194
 20
71
 30
0
 11
-226.455167023583
 21
71
 31
0
  0
LINE
  8
1
 62
7
 10
-226.455167023583
 20
-70.99999999999989
 30
0
 11
-238.4344410814194
 21
-70.99999999999989
 31
0
  0
LINE
  8
1
 62
7
 10
-226.455167023583
 20
-70.99999999999989
 30
0
 11
-226.455167023583
 21
71
 31
0
  0
LINE
  8
1
 62
7
 10
-240.455167023583
 20
-67.49999999999989
 30
0
 11
-242.455167023583
 21
-67.49999999999989
 31
0
  0
LINE
  8
1
 62
7
 10
-238.4344410814194
 20
-70.99999999999989
 30
0
 11
-240.455167023583
 21
-67.49999999999989
 31
0
  0
LINE
  8
1
 62
7
 10
-242.755167023583
 20
68
 30
0
 11
-242.755167023583
 21
-68.00000000000001
 31
0
  0
LINE
  8
1
 62
7
 10
-249.4551670235831
 20
47.63165249758737
 30
0
 11
-248.6551670235831
 21
50.61729314364243
 31
0
  0
LINE
  8
1
 62
7
 10
-248.4551670235831
 20
47.5
 30
0
 11
-247.6551670235831
 21
50.48564064605506
 31
0
  0
LINE
  8
1
 62
7
 10
-209.2551670235829
 20
62.5
 30
0
 11
-209.2551670235829
 21
-62.5
 31
0
  0
LINE
  8
1
 62
7
 10
-211.8551670235828
 20
-62.5
 30
0
 11
-207.7551670235829
 21
-62.5
 31
0
  0
LINE
  8
1
 62
7
 10
-72.75516702358294
 20
67.99999999999989
 30
0
 11
-72.75516702358294
 21
-68.00000000000011
 31
0
  0
LINE
  8
1
 62
7
 10
-72.75516702358294
 20
67.99999999999989
 30
0
 11
-67.85516702358308
 21
67.99999999999989
 31
0
  0
LINE
  8
1
 62
7
 10
-67.05516702358284
 20
47.49999999999989
 30
0
 11
-67.05516702358284
 21
-66.53672573724271
 31
0
  0
LINE
  8
1
 62
7
 10
-67.85516702358308
 20
-68.00000000000011
 30
0
 11
-72.75516702358294
 21
-68.00000000000011
 31
0
  0
LINE
  8
1
 62
7
 10
-64.05516702358284
 20
64.99999999999989
 30
0
 11
-64.05516702358284
 21
55.99999999999989
 31
0
  0
LINE
  8
1
 62
7
 10
-66.85516702358308
 20
55.49999999999989
 30
0
 11
-64.55516702358284
 21
55.49999999999989
 31
0
  0
LINE
  8
1
 62
7
 10
-66.85516702358308
 20
65.49999999999989
 30
0
 11
-64.55516702358284
 21
65.49999999999989
 31
0
  0
LINE
  8
1
 62
7
 10
-67.85516702358308
 20
66.49999999999989
 30
0
 11
-66.85516702358308
 21
66.49999999999989
 31
0
  0
LINE
  8
1
 62
7
 10
-66.15516702358298
 20
65.49999999999989
 30
0
 11
-66.15516702358298
 21
55.49999999999989
 31
0
  0
LINE
  8
1
 62
7
 10
-64.55516702358284
 20
65.49999999999989
 30
0
 11
-64.05516702358284
 21
64.99999999999989
 31
0
  0
LINE
  8
1
 62
7
 10
-64.55516702358284
 20
55.49999999999989
 30
0
 11
-64.05516702358284
 21
55.99999999999989
 31
0
  0
LINE
  8
1
 62
7
 10
-66.85516702358308
 20
66.49999999999989
 30
0
 11
-66.85516702358308
 21
50.61729314364243
 31
0
  0
LINE
  8
1
 62
7
 10
-67.85516702358308
 20
50.485640646055
 30
0
 11
-67.05516702358284
 21
47.49999999999989
 31
0
  0
LINE
  8
1
 62
7
 10
-66.85516702358308
 20
50.61729314364243
 30
0
 11
-66.05516702358284
 21
47.63165249758731
 31
0
  0
LINE
  8
1
 62
7
 10
-66.05516702358284
 20
47.63165249758731
 30
0
 11
-66.05516702358284
 21
-66.53672573724271
 31
0
  0
LINE
  8
1
 62
7
 10
-67.05516702358284
 20
-66.53672573724271
 30
0
 11
-66.05516702358284
 21
-66.53672573724271
 31
0
  0
LINE
  8
1
 62
7
 10
-66.05516702358284
 20
-41.00000000000011
 30
0
 11
-63.15516702358284
 21
-41.00000000000011
 31
0
  0
LINE
  8
1
 62
7
 10
-66.05516702358284
 20
-54.00000000000011
 30
0
 11
-63.15516702358284
 21
-54.00000000000011
 31
0
  0
LINE
  8
1
 62
7
 10
-63.15516702358284
 20
55.99999999999989
 30
0
 11
-57.15516702358284
 21
55.99999999999989
 31
0
  0
LINE
  8
1
 62
7
 10
-57.15516702358284
 20
-56.00000000000011
 30
0
 11
-63.15516702358283
 21
-56.00000000000011
 31
0
  0
LINE
  8
1
 62
7
 10
-89.95516702358299
 20
-67.5
 30
0
 11
-73.05516702358284
 21
-67.5
 31
0
  0
LINE
  8
1
 62
7
 10
-73.05516702358284
 20
67.5
 30
0
 11
-73.05516702358284
 21
-67.5
 31
0
  0
LINE
  8
1
 62
7
 10
-73.05516702358284
 20
67.5
 30
0
 11
-89.95516702358299
 21
67.5
 31
0
  0
LINE
  8
1
 62
7
 10
-99.75516702358294
 20
62.5
 30
0
 11
-95.85516702358308
 21
62.5000000000001
 31
0
  0
LINE
  8
1
 62
7
 10
-64.15516702358283
 20
24.99999999999989
 30
0
 11
-66.05516702358284
 21
24.99999999999989
 31
0
  0
LINE
  8
1
 62
7
 10
-64.15516702358283
 20
-25.00000000000012
 30
0
 11
-66.05516702358284
 21
-25.00000000000012
 31
0
  0
LINE
  8
1
 62
7
 10
-67.85516702358308
 20
-68.00000000000011
 30
0
 11
-67.85516702358308
 21
67.99999999999989
 31
0
  0
LINE
  8
1
 62
7
 10
-99.75516702358294
 20
-62.5
 30
0
 11
-95.85516702358308
 21
-62.5
 31
0
  0
LINE
  8
1
 62
7
 10
-98.25516702358294
 20
62.5
 30
0
 11
-98.25516702358294
 21
-62.5
 31
0
  0
LINE
  8
1
 62
7
 10
-264.355167023583
 20
30
 30
0
 11
-287.355167023583
 21
30
 31
0
  0
LINE
  8
1
 62
7
 10
-252.355167023583
 20
56
 30
0
 11
-264.355167023583
 21
56
 31
0
  0
LINE
  8
1
 62
7
 10
-297.355167023583
 20
12.49999999999999
 30
0
 11
-295.355167023583
 21
12.49999999999999
 31
0
  0
LINE
  8
1
 62
7
 10
-287.355167023583
 20
17
 30
0
 11
-289.6645681003414
 21
21
 31
0
  0
LINE
  8
1
 62
7
 10
-289.6645681003414
 20
21
 30
0
 11
-290.359278045546
 21
21
 31
0
  0
LINE
  8
1
 62
7
 10
-295.355167023583
 20
19
 30
0
 11
-290.359278045546
 21
19
 31
0
  0
LINE
  8
1
 62
7
 10
-295.355167023583
 20
17
 30
0
 11
-290.359278045546
 21
17
 31
0
  0
LINE
  8
1
 62
3
 10
-297.355167023583
 20
11.49999999999999
 30
0
 11
-295.355167023583
 21
11.49999999999999
 31
0
  0
LINE
  8
1
 62
7
 10
-287.355167023583
 20
-30.00000000000001
 30
0
 11
-264.355167023583
 21
-30.00000000000001
 31
0
  0
LINE
  8
1
 62
7
 10
-264.355167023583
 20
-56
 30
0
 11
-252.355167023583
 21
-56
 31
0
  0
LINE
  8
1
 62
7
 10
-295.355167023583
 20
-12.5
 30
0
 11
-297.355167023583
 21
-12.5
 31
0
  0
LINE
  8
1
 62
7
 10
-289.6645681003414
 20
-21.00000000000001
 30
0
 11
-287.355167023583
 21
-17.00000000000001
 31
0
  0
LINE
  8
1
 62
7
 10
-290.359278045546
 20
-21.00000000000001
 30
0
 11
-289.6645681003414
 21
-21.00000000000001
 31
0
  0
LINE
  8
1
 62
7
 10
-290.359278045546
 20
-19.00000000000001
 30
0
 11
-295.355167023583
 21
-19.00000000000001
 31
0
  0
LINE
  8
1
 62
7
 10
-290.359278045546
 20
-17.00000000000001
 30
0
 11
-295.355167023583
 21
-17.00000000000001
 31
0
  0
LINE
  8
1
 62
3
 10
-295.355167023583
 20
-11.5
 30
0
 11
-297.355167023583
 21
-11.5
 31
0
  0
LINE
  8
1
 62
7
 10
-287.355167023583
 20
30
 30
0
 11
-287.355167023583
 21
-30.00000000000001
 31
0
  0
LINE
  8
1
 62
7
 10
-264.355167023583
 20
56
 30
0
 11
-264.355167023583
 21
-56
 31
0
  0
LINE
  8
1
 62
7
 10
-290.359278045546
 20
21
 30
0
 11
-290.359278045546
 21
-21.00000000000001
 31
0
  0
LINE
  8
1
 62
7
 10
-295.355167023583
 20
-19.00000000000001
 30
0
 11
-295.355167023583
 21
19
 31
0
  0
LINE
  8
1
 62
7
 10
-297.355167023583
 20
-12.5
 30
0
 11
-297.355167023583
 21
12.49999999999999
 31
0
  0
LINE
  8
1
 62
7
 10
-252.355167023583
 20
56
 30
0
 11
-252.355167023583
 21
-56
 31
0
  0
LINE
  8
1
 62
7
 10
-53.35516702358285
 20
-12.50000000000001
 30
0
 11
-3.355167023582908
 21
-12.50000000000001
 31
0
  0
LINE
  8
1
 62
7
 10
-3.355167023582908
 20
12.5
 30
0
 11
-53.35516702358285
 21
12.5
 31
0
  0
LINE
  8
1
 62
7
 10
-3.355167023582908
 20
-12.50000000000001
 30
0
 11
-3.355167023582908
 21
15.5
 31
0
  0
LINE
  8
1
 62
7
 10
-3.355167023582908
 20
15.5
 30
0
 11
-48.35516702358285
 21
15.5
 31
0
  0
LINE
  8
1
 62
7
 10
-48.35516702358285
 20
15.5
 30
0
 11
-48.35516702358285
 21
12.49999999999999
 31
0
  0
LINE
  8
1
 62
7
 10
-57.15516702358284
 20
17
 30
0
 11
-55.05516702358285
 21
17
 31
0
  0
LINE
  8
1
 62
7
 10
-55.05516702358285
 20
17
 30
0
 11
-55.05516702358285
 21
-17
 31
0
  0
LINE
  8
1
 62
7
 10
-55.05516702358285
 20
13.99999999999999
 30
0
 11
-53.35516702358285
 21
13.99999999999999
 31
0
  0
LINE
  8
1
 62
7
 10
-53.35516702358285
 20
13.99999999999999
 30
0
 11
-53.35516702358285
 21
-14.00000000000001
 31
0
  0
LINE
  8
1
 62
7
 10
-53.35516702358285
 20
-14.00000000000001
 30
0
 11
-55.05516702358285
 21
-14
 31
0
  0
LINE
  8
1
 62
7
 10
-55.05516702358285
 20
-17
 30
0
 11
-57.15516702358284
 21
-17
 31
0
  0
LINE
  8
1
 62
7
 10
-101.7551670235829
 20
337.1359908725448
 30
0
 11
-205.7551670235829
 21
337.1359908725448
 31
0
  0
LINE
  8
1
 62
7
 10
-100.7551670235829
 20
335.3859908725448
 30
0
 11
-100.7551670235829
 21
336.1359908725448
 31
0
  0
LINE
  8
1
 62
7
 10
-240.455167023583
 20
339.3859908725448
 30
0
 11
-240.455167023583
 21
204.3859908725449
 31
0
  0
LINE
  8
1
 62
7
 10
-238.4344410814194
 20
200.8859908725449
 30
0
 11
-238.4344410814194
 21
342.8859908725448
 31
0
  0
LINE
  8
1
 62
7
 10
-226.455167023583
 20
204.5359908725448
 30
0
 11
-224.8551670235831
 21
204.5359908725448
 31
0
  0
LINE
  8
1
 62
7
 10
-226.455167023583
 20
339.2359908725448
 30
0
 11
-224.8551670235831
 21
339.2359908725448
 31
0
  0
LINE
  8
1
 62
3
  6
DASHDOT
 10
-300.8478005376611
 20
271.8859908725448
 30
0
 11
-297.355167023583
 21
271.8859908725448
 31
0
  0
LINE
  8
1
 62
7
 10
-224.8551670235831
 20
339.3859908725448
 30
0
 11
-224.8551670235831
 21
339.2359908725448
 31
0
  0
LINE
  8
1
 62
7
 10
-248.4551670235831
 20
205.3492651353022
 30
0
 11
-248.4551670235831
 21
319.3859908725448
 31
0
  0
LINE
  8
1
 62
7
 10
-252.3551670235831
 20
217.8859908725448
 30
0
 11
-249.4551670235831
 21
217.8859908725448
 31
0
  0
LINE
  8
1
 62
7
 10
-249.4551670235831
 20
205.3492651353022
 30
0
 11
-249.4551670235831
 21
319.5176433701321
 31
0
  0
LINE
  8
1
 62
7
 10
-252.3551670235831
 20
230.8859908725448
 30
0
 11
-249.4551670235831
 21
230.8859908725448
 31
0
  0
LINE
  8
1
 62
7
 10
-249.4551670235831
 20
205.3492651353022
 30
0
 11
-248.4551670235831
 21
205.3492651353022
 31
0
  0
LINE
  8
1
 62
7
 10
-247.6551670235831
 20
339.8859908725448
 30
0
 11
-247.6551670235831
 21
203.8859908725448
 31
0
  0
LINE
  8
1
 62
7
 10
-251.4551670235831
 20
327.8859908725448
 30
0
 11
-250.9551670235831
 21
327.3859908725448
 31
0
  0
LINE
  8
1
 62
7
 10
-251.4551670235831
 20
336.8859908725448
 30
0
 11
-250.9551670235831
 21
337.3859908725448
 31
0
  0
LINE
  8
1
 62
7
 10
-249.3551670235829
 20
327.3859908725448
 30
0
 11
-249.3551670235829
 21
337.3859908725448
 31
0
  0
LINE
  8
1
 62
7
 10
-248.6551670235831
 20
338.3859908725448
 30
0
 11
-247.6551670235831
 21
338.3859908725448
 31
0
  0
LINE
  8
1
 62
7
 10
-248.6551670235831
 20
322.5032840161872
 30
0
 11
-248.6551670235831
 21
338.3859908725448
 31
0
  0
LINE
  8
1
 62
7
 10
-250.9551670235831
 20
337.3859908725448
 30
0
 11
-248.6551670235831
 21
337.3859908725448
 31
0
  0
LINE
  8
1
 62
7
 10
-250.9551670235831
 20
327.3859908725448
 30
0
 11
-248.6551670235831
 21
327.3859908725448
 31
0
  0
LINE
  8
1
 62
7
 10
-251.4551670235831
 20
327.8859908725448
 30
0
 11
-251.4551670235831
 21
336.8859908725448
 31
0
  0
LINE
  8
1
 62
7
 10
-242.755167023583
 20
203.8859908725448
 30
0
 11
-247.6551670235831
 21
203.8859908725448
 31
0
  0
LINE
  8
1
 62
7
 10
-247.6551670235831
 20
339.8859908725448
 30
0
 11
-242.755167023583
 21
339.8859908725448
 31
0
  0
LINE
  8
1
 62
7
 10
-224.8551670235831
 20
204.5359908725448
 30
0
 11
-224.8551670235831
 21
204.3859908725448
 31
0
  0
LINE
  8
1
 62
7
 10
-211.8551670235828
 20
334.3859908725448
 30
0
 11
-207.7551670235829
 21
334.3859908725448
 31
0
  0
LINE
  8
1
 62
7
 10
-240.455167023583
 20
339.3859908725448
 30
0
 11
-238.4344410814194
 21
342.8859908725448
 31
0
  0
LINE
  8
1
 62
7
 10
-242.455167023583
 20
339.3859908725448
 30
0
 11
-240.455167023583
 21
339.3859908725448
 31
0
  0
LINE
  8
1
 62
7
 10
-242.455167023583
 20
204.3859908725449
 30
0
 11
-242.455167023583
 21
339.3859908725448
 31
0
  0
LINE
  8
1
 62
7
 10
-226.455167023583
 20
339.5859908725448
 30
0
 11
-226.455167023583
 21
342.8859908725448
 31
0
  0
LINE
  8
1
 62
7
 10
-238.4344410814194
 20
342.8859908725448
 30
0
 11
-226.455167023583
 21
342.8859908725448
 31
0
  0
LINE
  8
1
 62
7
 10
-226.455167023583
 20
200.8859908725449
 30
0
 11
-238.4344410814194
 21
200.8859908725449
 31
0
  0
LINE
  8
1
 62
7
 10
-240.455167023583
 20
204.3859908725449
 30
0
 11
-242.455167023583
 21
204.3859908725449
 31
0
  0
LINE
  8
1
 62
7
 10
-238.4344410814194
 20
200.8859908725449
 30
0
 11
-240.455167023583
 21
204.3859908725449
 31
0
  0
LINE
  8
1
 62
7
 10
-242.755167023583
 20
339.8859908725448
 30
0
 11
-242.755167023583
 21
203.8859908725448
 31
0
  0
LINE
  8
1
 62
7
 10
-249.4551670235831
 20
319.5176433701321
 30
0
 11
-248.6551670235831
 21
322.5032840161872
 31
0
  0
LINE
  8
1
 62
7
 10
-248.4551670235831
 20
319.3859908725448
 30
0
 11
-247.6551670235831
 21
322.3716315185998
 31
0
  0
LINE
  8
1
 62
7
 10
-209.2551670235829
 20
334.3859908725448
 30
0
 11
-209.2551670235829
 21
209.3859908725448
 31
0
  0
LINE
  8
1
 62
7
 10
-211.8551670235828
 20
209.3859908725448
 30
0
 11
-207.7551670235829
 21
209.3859908725448
 31
0
  0
LINE
  8
1
 62
7
 10
-72.75516702358294
 20
339.8859908725447
 30
0
 11
-72.75516702358294
 21
203.8859908725447
 31
0
  0
LINE
  8
1
 62
7
 10
-72.75516702358294
 20
339.8859908725447
 30
0
 11
-67.85516702358308
 21
339.8859908725447
 31
0
  0
LINE
  8
1
 62
7
 10
-67.05516702358284
 20
319.3859908725447
 30
0
 11
-67.05516702358284
 21
205.3492651353021
 31
0
  0
LINE
  8
1
 62
7
 10
-67.85516702358308
 20
203.8859908725447
 30
0
 11
-72.75516702358294
 21
203.8859908725447
 31
0
  0
LINE
  8
1
 62
7
 10
-64.05516702358284
 20
336.8859908725447
 30
0
 11
-64.05516702358284
 21
327.8859908725447
 31
0
  0
LINE
  8
1
 62
7
 10
-66.85516702358308
 20
327.3859908725447
 30
0
 11
-64.55516702358284
 21
327.3859908725447
 31
0
  0
LINE
  8
1
 62
7
 10
-66.85516702358308
 20
337.3859908725447
 30
0
 11
-64.55516702358284
 21
337.3859908725447
 31
0
  0
LINE
  8
1
 62
7
 10
-67.85516702358308
 20
338.3859908725447
 30
0
 11
-66.85516702358308
 21
338.3859908725447
 31
0
  0
LINE
  8
1
 62
7
 10
-66.15516702358298
 20
337.3859908725447
 30
0
 11
-66.15516702358298
 21
327.3859908725447
 31
0
  0
LINE
  8
1
 62
7
 10
-64.55516702358284
 20
337.3859908725447
 30
0
 11
-64.05516702358284
 21
336.8859908725447
 31
0
  0
LINE
  8
1
 62
7
 10
-64.55516702358284
 20
327.3859908725447
 30
0
 11
-64.05516702358284
 21
327.8859908725447
 31
0
  0
LINE
  8
1
 62
7
 10
-66.85516702358308
 20
338.3859908725447
 30
0
 11
-66.85516702358308
 21
322.5032840161872
 31
0
  0
LINE
  8
1
 62
7
 10
-67.85516702358308
 20
322.3716315185998
 30
0
 11
-67.05516702358284
 21
319.3859908725447
 31
0
  0
LINE
  8
1
 62
7
 10
-66.85516702358308
 20
322.5032840161872
 30
0
 11
-66.05516702358284
 21
319.5176433701321
 31
0
  0
LINE
  8
1
 62
7
 10
-66.05516702358284
 20
319.5176433701321
 30
0
 11
-66.05516702358284
 21
205.3492651353021
 31
0
  0
LINE
  8
1
 62
7
 10
-67.05516702358284
 20
205.3492651353021
 30
0
 11
-66.05516702358284
 21
205.3492651353021
 31
0
  0
LINE
  8
1
 62
7
 10
-66.05516702358284
 20
230.8859908725447
 30
0
 11
-63.15516702358284
 21
230.8859908725447
 31
0
  0
LINE
  8
1
 62
7
 10
-66.05516702358284
 20
217.8859908725447
 30
0
 11
-63.15516702358284
 21
217.8859908725447
 31
0
  0
LINE
  8
1
 62
7
 10
-63.15516702358284
 20
327.8859908725447
 30
0
 11
-57.15516702358283
 21
327.8859908725447
 31
0
  0
LINE
  8
1
 62
7
 10
-57.15516702358284
 20
215.8859908725447
 30
0
 11
-63.15516702358284
 21
215.8859908725447
 31
0
  0
LINE
  8
1
 62
7
 10
-89.95516702358299
 20
204.3859908725448
 30
0
 11
-73.05516702358284
 21
204.3859908725448
 31
0
  0
LINE
  8
1
 62
7
 10
-73.05516702358284
 20
339.3859908725448
 30
0
 11
-73.05516702358284
 21
204.3859908725448
 31
0
  0
LINE
  8
1
 62
7
 10
-99.75516702358294
 20
334.3859908725448
 30
0
 11
-95.85516702358308
 21
334.3859908725449
 31
0
  0
LINE
  8
1
 62
3
  6
DASHDOT
 10
0
 20
271.8859908725448
 30
0
 11
-3.355167023582908
 21
271.8859908725448
 31
0
  0
LINE
  8
1
 62
7
 10
-64.15516702358283
 20
296.8859908725447
 30
0
 11
-66.05516702358284
 21
296.8859908725447
 31
0
  0
LINE
  8
1
 62
7
 10
-64.15516702358283
 20
246.8859908725447
 30
0
 11
-66.05516702358284
 21
246.8859908725447
 31
0
  0
LINE
  8
1
 62
7
 10
-67.85516702358308
 20
203.8859908725447
 30
0
 11
-67.85516702358308
 21
339.8859908725447
 31
0
  0
LINE
  8
1
 62
7
 10
-99.75516702358294
 20
209.3859908725448
 30
0
 11
-95.85516702358308
 21
209.3859908725448
 31
0
  0
LINE
  8
1
 62
7
 10
-98.25516702358294
 20
334.3859908725448
 30
0
 11
-98.25516702358294
 21
209.3859908725448
 31
0
  0
LINE
  8
1
 62
7
 10
-264.355167023583
 20
301.8859908725448
 30
0
 11
-287.355167023583
 21
301.8859908725448
 31
0
  0
LINE
  8
1
 62
7
 10
-252.355167023583
 20
327.8859908725448
 30
0
 11
-264.355167023583
 21
327.8859908725448
 31
0
  0
LINE
  8
1
 62
7
 10
-297.355167023583
 20
284.3859908725448
 30
0
 11
-295.355167023583
 21
284.3859908725448
 31
0
  0
LINE
  8
1
 62
7
 10
-287.355167023583
 20
288.8859908725448
 30
0
 11
-289.6645681003414
 21
292.8859908725448
 31
0
  0
LINE
  8
1
 62
7
 10
-289.6645681003414
 20
292.8859908725448
 30
0
 11
-290.359278045546
 21
292.8859908725448
 31
0
  0
LINE
  8
1
 62
7
 10
-295.355167023583
 20
290.8859908725448
 30
0
 11
-290.359278045546
 21
290.8859908725448
 31
0
  0
LINE
  8
1
 62
7
 10
-295.355167023583
 20
288.8859908725448
 30
0
 11
-290.359278045546
 21
288.8859908725448
 31
0
  0
LINE
  8
1
 62
3
 10
-297.355167023583
 20
283.3859908725448
 30
0
 11
-295.355167023583
 21
283.3859908725448
 31
0
  0
LINE
  8
1
 62
7
 10
-287.355167023583
 20
241.8859908725448
 30
0
 11
-264.355167023583
 21
241.8859908725448
 31
0
  0
LINE
  8
1
 62
7
 10
-264.355167023583
 20
215.8859908725448
 30
0
 11
-252.355167023583
 21
215.8859908725448
 31
0
  0
LINE
  8
1
 62
7
 10
-295.355167023583
 20
259.3859908725448
 30
0
 11
-297.355167023583
 21
259.3859908725448
 31
0
  0
LINE
  8
1
 62
7
 10
-289.6645681003414
 20
250.8859908725448
 30
0
 11
-287.355167023583
 21
254.8859908725448
 31
0
  0
LINE
  8
1
 62
7
 10
-290.359278045546
 20
250.8859908725448
 30
0
 11
-289.6645681003414
 21
250.8859908725448
 31
0
  0
LINE
  8
1
 62
7
 10
-290.359278045546
 20
252.8859908725448
 30
0
 11
-295.355167023583
 21
252.8859908725448
 31
0
  0
LINE
  8
1
 62
7
 10
-290.359278045546
 20
254.8859908725448
 30
0
 11
-295.355167023583
 21
254.8859908725448
 31
0
  0
LINE
  8
1
 62
3
 10
-295.355167023583
 20
260.3859908725448
 30
0
 11
-297.355167023583
 21
260.3859908725448
 31
0
  0
LINE
  8
1
 62
7
 10
-287.355167023583
 20
301.8859908725448
 30
0
 11
-287.355167023583
 21
241.8859908725448
 31
0
  0
LINE
  8
1
 62
7
 10
-264.355167023583
 20
327.8859908725448
 30
0
 11
-264.355167023583
 21
215.8859908725448
 31
0
  0
LINE
  8
1
 62
7
 10
-290.359278045546
 20
292.8859908725448
 30
0
 11
-290.359278045546
 21
250.8859908725448
 31
0
  0
LINE
  8
1
 62
7
 10
-295.355167023583
 20
252.8859908725448
 30
0
 11
-295.355167023583
 21
290.8859908725448
 31
0
  0
LINE
  8
1
 62
7
 10
-297.355167023583
 20
259.3859908725448
 30
0
 11
-297.355167023583
 21
284.3859908725448
 31
0
  0
LINE
  8
1
 62
7
 10
-252.355167023583
 20
327.8859908725448
 30
0
 11
-252.355167023583
 21
215.8859908725448
 31
0
  0
LINE
  8
1
 62
7
 10
-53.35516702358285
 20
259.3859908725448
 30
0
 11
-3.355167023582908
 21
259.3859908725448
 31
0
  0
LINE
  8
1
 62
7
 10
-3.355167023582908
 20
284.3859908725448
 30
0
 11
-53.35516702358285
 21
284.3859908725448
 31
0
  0
LINE
  8
1
 62
7
 10
-3.355167023582908
 20
259.3859908725448
 30
0
 11
-3.355167023582908
 21
284.3859908725448
 31
0
  0
LINE
  8
1
 62
7
 10
-57.15516702358284
 20
288.8859908725448
 30
0
 11
-55.05516702358285
 21
288.8859908725448
 31
0
  0
LINE
  8
1
 62
7
 10
-55.05516702358285
 20
288.8859908725448
 30
0
 11
-55.05516702358285
 21
254.8859908725448
 31
0
  0
LINE
  8
1
 62
7
 10
-55.05516702358285
 20
285.8859908725448
 30
0
 11
-53.35516702358285
 21
285.8859908725448
 31
0
  0
LINE
  8
1
 62
7
 10
-53.35516702358285
 20
285.8859908725448
 30
0
 11
-53.35516702358285
 21
257.8859908725448
 31
0
  0
LINE
  8
1
 62
7
 10
-53.35516702358285
 20
257.8859908725448
 30
0
 11
-55.05516702358285
 21
257.8859908725448
 31
0
  0
LINE
  8
1
 62
7
 10
-55.05516702358285
 20
254.8859908725448
 30
0
 11
-57.15516702358284
 21
254.8859908725448
 31
0
  0
LINE
  8
1
 62
7
 10
-205.7551670235829
 20
206.8859908725448
 30
0
 11
-101.7551670235829
 21
206.8859908725448
 31
0
  0
LINE
  8
1
 62
7
 10
-236.2551670235829
 20
200.8859908725449
 30
0
 11
-236.2551670235829
 21
193.3859908725448
 31
0
  0
LINE
  8
1
 62
7
 10
-71.25516702358306
 20
193.3859908725448
 30
0
 11
-71.25516702358306
 21
203.8859908725447
 31
0
  0
LINE
  8
1
 62
7
 10
-71.25516702358306
 20
350.3859908725448
 30
0
 11
-71.25516702358306
 21
339.8859908725447
 31
0
  0
LINE
  8
1
 62
7
 10
-236.2551670235829
 20
350.3859908725448
 30
0
 11
-236.2551670235829
 21
342.8859908725448
 31
0
  0
LINE
  8
1
 62
7
 10
-206.7551670235829
 20
335.3859908725448
 30
0
 11
-206.7551670235829
 21
351.3859908725448
 31
0
  0
LINE
  8
1
 62
7
 10
-206.7551670235829
 20
336.1359908725448
 30
0
 11
-206.7551670235829
 21
192.3859908725448
 31
0
  0
LINE
  8
1
 62
7
 10
-75.25516702358306
 20
189.3859908725448
 30
0
 11
-232.2551670235829
 21
189.3859908725448
 31
0
  0
LINE
  8
1
 62
7
 10
-100.7551670235829
 20
192.3859908725448
 30
0
 11
-100.7551670235829
 21
351.3859908725448
 31
0
  0
LINE
  8
1
 62
7
 10
-75.25516702358306
 20
354.3859908725448
 30
0
 11
-232.2551670235829
 21
354.3859908725448
 31
0
  0
LINE
  8
1
 62
3
  6
DASHDOT
 10
-214.0842699461099
 20
204.3859908725448
 30
0
 11
-218.8551670235831
 21
204.3859908725448
 31
0
  0
LINE
  8
1
 62
3
  6
DASHDOT
 10
-221.2551670235829
 20
211.5568879500178
 30
0
 11
-221.2551670235829
 21
197.2150937950718
 31
0
  0
LINE
  8
1
 62
7
 10
-224.8551670235831
 20
339.2359908725448
 30
0
 11
-226.455167023583
 21
339.2359908725448
 31
0
  0
LINE
  8
1
 62
7
 10
-224.8551670235831
 20
339.3859908725448
 30
0
 11
-224.8551670235831
 21
339.2359908725448
 31
0
  0
LINE
  8
1
 62
7
 10
-226.455167023583
 20
200.8859908725449
 30
0
 11
-226.455167023583
 21
342.8859908725448
 31
0
  0
LINE
  8
1
 62
7
 10
-211.8551670235828
 20
334.3859908725448
 30
0
 11
-211.8551670235828
 21
209.3859908725448
 31
0
  0
LINE
  8
1
 62
3
  6
DASHDOT
 10
-228.4260641010559
 20
339.3859908725448
 30
0
 11
-224.8551670235831
 21
339.3859908725448
 31
0
  0
LINE
  8
1
 62
3
  6
DASHDOT
 10
-221.2551670235829
 20
346.5568879500178
 30
0
 11
-221.2551670235829
 21
332.2150937950718
 31
0
  0
LINE
  8
1
 62
3
  6
DASHDOT
 10
-93.42606410105594
 20
339.3859908725448
 30
0
 11
-89.95516702358299
 21
339.3859908725448
 31
0
  0
LINE
  8
1
 62
3
  6
DASHDOT
 10
-86.25516702358294
 20
332.2150937950718
 30
0
 11
-86.25516702358294
 21
346.5568879500178
 31
0
  0
LINE
  8
1
 62
3
  6
DASHDOT
 10
-86.25516702358294
 20
197.2150937950718
 30
0
 11
-86.25516702358294
 21
211.5568879500178
 31
0
  0
LINE
  8
1
 62
7
 10
-3.355167023582908
 20
275.3859908725448
 30
0
 11
-44.85516702358285
 21
275.3859908725448
 31
0
  0
LINE
  8
1
 62
7
 10
-44.85516702358285
 20
268.3859908725448
 30
0
 11
-3.355167023582908
 21
268.3859908725448
 31
0
  0
LINE
  8
1
 62
3
  6
DASHDOT
 10
-408.8440159444461
 20
-66.83972174324811
 30
0
 11
-408.8440159444461
 21
-96.1179263230087
 31
0
  0
LINE
  8
1
 62
3
  6
DASHDOT
 10
-543.8440159444461
 20
-68.59641401803381
 30
0
 11
-543.8440159444461
 21
-97.0938664756674
 31
0
  0
LINE
  8
1
 62
7
 10
-89.95516702358299
 20
339.3859908725448
 30
0
 11
-73.05516702358284
 21
339.3859908725448
 31
0
  0
LINE
  8
1
 62
3
  6
DASHDOT
 10
-468.0763868649162
 20
0
 30
0
 11
-482.1116450239762
 21
0
 31
0
  0
LINE
  8
1
 62
3
  6
DASHDOT
 10
-475.0940159444462
 20
7.017629079530003
 30
0
 11
-475.0940159444462
 21
-7.01762907953001
 31
0
  0
LINE
  8
1
 62
7
 10
-134.755167023583
 20
-41
 30
0
 11
-134.755167023583
 21
-32
 31
0
  0
LINE
  8
1
 62
7
 10
-134.755167023583
 20
-32
 30
0
 11
-142.755167023583
 21
-32
 31
0
  0
LINE
  8
1
 62
7
 10
-142.755167023583
 20
-32
 30
0
 11
-142.755167023583
 21
-41
 31
0
  0
LINE
  8
1
 62
7
 10
-152.755167023583
 20
-41
 30
0
 11
-152.755167023583
 21
-32
 31
0
  0
LINE
  8
1
 62
7
 10
-152.755167023583
 20
-32
 30
0
 11
-144.755167023583
 21
-32
 31
0
  0
LINE
  8
1
 62
7
 10
-144.755167023583
 20
-32
 30
0
 11
-144.755167023583
 21
-40.63679671664209
 31
0
  0
LINE
  8
1
 62
7
 10
-140.1782194207211
 20
-37.05182133701498
 30
0
 11
-139.8069883605979
 21
-37.42305239713789
 31
0
  0
LINE
  8
1
 62
7
 10
-137.7033456865679
 20
-37.42305239713789
 30
0
 11
-137.332114626445
 21
-37.05182133701498
 31
0
  0
LINE
  8
1
 62
7
 10
-137.332114626445
 20
-34.94817866298502
 30
0
 11
-137.7033456865679
 21
-34.5769476028621
 31
0
  0
LINE
  8
1
 62
7
 10
-139.8069883605979
 20
-34.5769476028621
 30
0
 11
-140.1782194207211
 21
-34.94817866298502
 31
0
  0
LINE
  8
1
 62
7
 10
-150.1782194207211
 20
-37.05182133701498
 30
0
 11
-149.806988360598
 21
-37.42305239713789
 31
0
  0
LINE
  8
1
 62
7
 10
-147.7033456865679
 20
-37.42305239713789
 30
0
 11
-147.332114626445
 21
-37.05182133701498
 31
0
  0
LINE
  8
1
 62
7
 10
-147.332114626445
 20
-34.94817866298502
 30
0
 11
-147.7033456865679
 21
-34.5769476028621
 31
0
  0
LINE
  8
1
 62
7
 10
-149.806988360598
 20
-34.5769476028621
 30
0
 11
-150.1782194207211
 21
-34.94817866298502
 31
0
  0
LINE
  8
1
 62
7
 10
-131.505167023583
 20
-25.73750000000001
 30
0
 11
-131.505167023583
 21
-26.26249999999999
 31
0
  0
LINE
  8
1
 62
7
 10
-130.017667023583
 20
-27.75
 30
0
 11
-129.4926670235829
 21
-27.75
 31
0
  0
LINE
  8
1
 62
7
 10
-128.005167023583
 20
-26.26249999999999
 30
0
 11
-128.005167023583
 21
-25.73750000000001
 31
0
  0
LINE
  8
1
 62
7
 10
-129.4926670235829
 20
-24.25
 30
0
 11
-130.017667023583
 21
-24.25
 31
0
  0
LINE
  8
1
 62
7
 10
-125.755167023583
 20
-21
 30
0
 11
-125.755167023583
 21
-41
 31
0
  0
LINE
  8
1
 62
7
 10
-172.755167023583
 20
-32
 30
0
 11
-172.755167023583
 21
-41
 31
0
  0
LINE
  8
1
 62
7
 10
-164.755167023583
 20
-32
 30
0
 11
-172.755167023583
 21
-32
 31
0
  0
LINE
  8
1
 62
7
 10
-164.755167023583
 20
-41
 30
0
 11
-164.755167023583
 21
-32
 31
0
  0
LINE
  8
1
 62
7
 10
-154.755167023583
 20
-32
 30
0
 11
-154.755167023583
 21
-41
 31
0
  0
LINE
  8
1
 62
7
 10
-162.755167023583
 20
-32
 30
0
 11
-154.755167023583
 21
-32
 31
0
  0
LINE
  8
1
 62
7
 10
-162.755167023583
 20
-40.63679671664209
 30
0
 11
-162.755167023583
 21
-32
 31
0
  0
LINE
  8
1
 62
7
 10
-167.7033456865679
 20
-37.42305239713789
 30
0
 11
-167.3321146264452
 21
-37.05182133701498
 31
0
  0
LINE
  8
1
 62
7
 10
-170.1782194207211
 20
-37.05182133701498
 30
0
 11
-169.806988360598
 21
-37.42305239713789
 31
0
  0
LINE
  8
1
 62
7
 10
-169.806988360598
 20
-34.5769476028621
 30
0
 11
-170.1782194207211
 21
-34.94817866298502
 31
0
  0
LINE
  8
1
 62
7
 10
-167.3321146264452
 20
-34.94817866298502
 30
0
 11
-167.7033456865679
 21
-34.5769476028621
 31
0
  0
LINE
  8
1
 62
7
 10
-157.7033456865679
 20
-37.42305239713789
 30
0
 11
-157.3321146264452
 21
-37.05182133701498
 31
0
  0
LINE
  8
1
 62
7
 10
-160.1782194207211
 20
-37.05182133701498
 30
0
 11
-159.806988360598
 21
-37.42305239713789
 31
0
  0
LINE
  8
1
 62
7
 10
-159.806988360598
 20
-34.5769476028621
 30
0
 11
-160.1782194207211
 21
-34.94817866298502
 31
0
  0
LINE
  8
1
 62
7
 10
-157.3321146264452
 20
-34.94817866298502
 30
0
 11
-157.7033456865679
 21
-34.5769476028621
 31
0
  0
LINE
  8
1
 62
7
 10
-176.005167023583
 20
-26.26249999999999
 30
0
 11
-176.005167023583
 21
-25.73750000000001
 31
0
  0
LINE
  8
1
 62
7
 10
-178.017667023583
 20
-27.75
 30
0
 11
-177.4926670235829
 21
-27.75
 31
0
  0
LINE
  8
1
 62
7
 10
-179.505167023583
 20
-25.73750000000001
 30
0
 11
-179.505167023583
 21
-26.26249999999999
 31
0
  0
LINE
  8
1
 62
7
 10
-177.4926670235829
 20
-24.25
 30
0
 11
-178.017667023583
 21
-24.25
 31
0
  0
LINE
  8
1
 62
7
 10
-181.7551670235829
 20
-21
 30
0
 11
-125.755167023583
 21
-21
 31
0
  0
LINE
  8
1
 62
7
 10
-181.7551670235829
 20
-41
 30
0
 11
-181.7551670235829
 21
-21
 31
0
  0
LINE
  8
1
 62
7
 10
-125.755167023583
 20
-41
 30
0
 11
-181.7551670235829
 21
-41
 31
0
  0
LINE
  8
1
 62
7
 10
-154.7528161105426
 20
-12
 30
0
 11
-154.755167023583
 21
-12
 31
0
  0
LINE
  8
1
 62
7
 10
-154.7551147078561
 20
-8
 30
0
 11
-160.755167023583
 21
-8
 31
0
  0
LINE
  8
1
 62
7
 10
-167.7551670235829
 20
-17.00000000000001
 30
0
 11
-167.755167023583
 21
-21
 31
0
  0
LINE
  8
1
 62
7
 10
-169.7551670235829
 20
-17.00000000000001
 30
0
 11
-169.755167023583
 21
-21
 31
0
  0
LINE
  8
1
 62
7
 10
-160.755167023583
 20
-10
 30
0
 11
-154.7695806301471
 21
-10
 31
0
  0
LINE
  8
1
 62
7
 10
-149.7551670235829
 20
-15
 30
0
 11
-149.7551670235829
 21
-21
 31
0
  0
LINE
  8
1
 62
7
 10
-152.7551670235829
 20
-12
 30
0
 11
-152.7575179366233
 21
-12
 31
0
  0
LINE
  8
1
 62
7
 10
-146.7551670235829
 20
-8
 30
0
 11
-152.7552193393099
 21
-8
 31
0
  0
LINE
  8
1
 62
7
 10
-152.7407534170189
 20
-10
 30
0
 11
-146.7551670235829
 21
-10
 31
0
  0
LINE
  8
1
 62
7
 10
-181.7551670235829
 20
206.8859908725448
 30
0
 11
-181.7551670235829
 21
190.0280850786818
 31
0
  0
LINE
  8
1
 62
7
 10
-181.7551670235829
 20
190.0280850786818
 30
0
 11
-125.755167023583
 21
190.0280850786818
 31
0
  0
LINE
  8
1
 62
7
 10
-125.755167023583
 20
206.8859908725448
 30
0
 11
-125.755167023583
 21
190.0280850786818
 31
0
  0
LINE
  8
1
 62
7
 10
-393.0940159444461
 20
-21
 30
0
 11
-407.2707161131934
 21
-21
 31
0
  0
LINE
  8
1
 62
7
 10
-393.0940159444461
 20
-41
 30
0
 11
-410.0940159444461
 21
-41
 31
0
  0
LINE
  8
1
 62
7
 10
-393.0940159444461
 20
-21
 30
0
 11
-393.0940159444461
 21
-41
 31
0
  0
LINE
  8
1
 62
7
 10
-393.0940159444461
 20
-23.25071315743115
 30
0
 11
-391.0940159444461
 21
-23.25071315743115
 31
0
  0
LINE
  8
1
 62
7
 10
-391.0940159444461
 20
-23.25071315743115
 30
0
 11
-391.0940159444461
 21
-28.74932442023106
 31
0
  0
LINE
  8
1
 62
7
 10
-391.0940159444461
 20
-28.74932442023106
 30
0
 11
-393.0940159444461
 21
-28.74932442023106
 31
0
  0
LINE
  8
1
 62
7
 10
-157.755167023583
 20
-21
 30
0
 11
-157.755167023583
 21
-15
 31
0
  0
LINE
  8
1
 62
7
 10
-139.7551670235829
 20
-21
 30
0
 11
-139.755167023583
 21
-17.00000000000001
 31
0
  0
LINE
  8
1
 62
7
 10
-137.7551670235829
 20
-21
 30
0
 11
-137.7551670235828
 21
-17.00000000000001
 31
0
  0
LINE
  8
1
 62
7
 10
-252.355167023583
 20
30
 30
0
 11
-249.4551670235831
 21
30
 31
0
  0
LINE
  8
1
 62
7
 10
-252.355167023583
 20
-30
 30
0
 11
-249.4551670235831
 21
-30
 31
0
  0
LINE
  8
1
 62
7
 10
-252.355167023583
 20
301.8859908725448
 30
0
 11
-249.4551670235831
 21
301.8859908725448
 31
0
  0
LINE
  8
1
 62
7
 10
-252.355167023583
 20
241.8859908725448
 30
0
 11
-249.4551670235831
 21
241.8859908725448
 31
0
  0
ARC
  8
1
 62
7
 10
-218.8551670235831
 20
332.3859908725448
 30
0
 40
7.000000000000068
 50
359.8025431190494
 51
90
  0
ARC
  8
1
 62
7
  6
DASHED
 10
-86.25516702358294
 20
204.3859908725448
 30
0
 40
5.5
 50
0
 51
177.560939431931
  0
ARC
  8
1
 62
7
 10
-86.25516702358294
 20
204.3859908725448
 30
0
 40
5.50000000000001
 50
177.560939431931
 51
0
  0
ARC
  8
1
 62
7
 10
-153.7551670235829
 20
-10
 30
0
 40
4.99999999999997
 50
23.57817847820198
 51
156.4218215217984
  0
ARC
  8
1
 62
7
 10
-153.7551670235829
 20
-10
 30
0
 40
5
 50
180
 51
199.3470951470572
  0
ARC
  8
1
 62
7
 10
-153.7551670235829
 20
-10
 30
0
 40
5.000000000000024
 50
224.1457432463718
 51
315.8542567536275
  0
ARC
  8
1
 62
7
 10
-153.7551670235829
 20
-10
 30
0
 40
5.000000000000007
 50
340.6529048529425
 51
0
  0
ARC
  8
1
 62
7
 10
-154.755167023583
 20
-15
 30
0
 40
5.000020775162257
 50
90.16516730721995
 51
180
  0
ARC
  8
1
 62
7
 10
-152.7551670235829
 20
-15
 30
0
 40
5.000020775162227
 50
0
 51
89.83483269278104
  0
ARC
  8
1
 62
7
 10
-154.7551147078561
 20
-10.99994768427308
 30
0
 40
1.00005231572692
 50
270
 51
90.82882184076668
  0
ARC
  8
1
 62
7
 10
-152.7552193393099
 20
-10.99994768427308
 30
0
 40
1.000052315726944
 50
89.17117815923332
 51
270
  0
ARC
  8
1
 62
7
 10
-518.5940159444461
 20
-87
 30
0
 40
4
 50
90
 51
180
  0
ARC
  8
1
 62
7
 10
-553.5940159444461
 20
-79
 30
0
 40
4
 50
90
 51
180
  0
ARC
  8
1
 62
7
 10
-526.5940159444461
 20
-79
 30
0
 40
4
 50
0
 51
90
  0
ARC
  8
1
 62
7
 10
-528.0940159444461
 20
53.25
 30
0
 40
12
 50
90
 51
180
  0
ARC
  8
1
 62
7
 10
-431.5940159444461
 20
-87
 30
0
 40
4
 50
0
 51
90
  0
ARC
  8
1
 62
7
 10
-396.5940159444461
 20
-79
 30
0
 40
3.999999999999886
 50
0
 51
90
  0
ARC
  8
1
 62
7
 10
-423.5940159444461
 20
-79
 30
0
 40
4
 50
90
 51
180
  0
ARC
  8
1
 62
7
 10
-422.0940159444461
 20
53.25
 30
0
 40
12
 50
0
 51
90
  0
ARC
  8
1
 62
7
 10
-184.7551670235829
 20
-87
 30
0
 40
4
 50
90
 51
180
  0
ARC
  8
1
 62
7
 10
-232.2551670235829
 20
-79
 30
0
 40
4
 50
90
 51
180
  0
ARC
  8
1
 62
7
 10
-205.7551670235829
 20
64.25
 30
0
 40
1
 50
90
 51
180
  0
ARC
  8
1
 62
7
 10
-209.7551670235829
 20
-72
 30
0
 40
3
 50
270
 51
0
  0
ARC
  8
1
 62
7
 10
-207.7551670235829
 20
63.5
 30
0
 40
1
 50
270
 51
0
  0
ARC
  8
1
 62
7
 10
-207.7551670235829
 20
-63.5
 30
0
 40
1
 50
0
 51
90
  0
ARC
  8
1
 62
7
 10
-101.7551670235829
 20
64.25
 30
0
 40
1
 50
0
 51
90
  0
ARC
  8
1
 62
7
 10
-97.75516702358294
 20
-72
 30
0
 40
2.999999999999957
 50
180
 51
270
  0
ARC
  8
1
 62
7
 10
-99.75516702358294
 20
63.5
 30
0
 40
0.9999999999999574
 50
180
 51
270
  0
ARC
  8
1
 62
7
 10
-99.75516702358294
 20
-63.5
 30
0
 40
1
 50
90
 51
180
  0
ARC
  8
1
 62
7
 10
-75.25516702358306
 20
-79
 30
0
 40
4
 50
0
 51
90
  0
ARC
  8
1
 62
7
 10
-122.7551670235829
 20
-87
 30
0
 40
4
 50
0
 51
90
  0
ARC
  8
1
 62
7
 10
-64.15516702358283
 20
-26.00000000000012
 30
0
 40
0.9999999999999929
 50
0
 51
90
  0
ARC
  8
1
 62
7
 10
-64.15516702358283
 20
25.99999999999989
 30
0
 40
1
 50
270
 51
0
  0
ARC
  8
1
 62
7
 10
-89.95516702358299
 20
-60.5
 30
0
 40
7.000000000000044
 50
212.5569318374535
 51
270
  0
ARC
  8
1
 62
7
 10
-89.95516702358299
 20
60.5
 30
0
 40
7
 50
90
 51
147.4430681625459
  0
ARC
  8
1
 62
7
 10
-205.7551670235829
 20
336.1359908725448
 30
0
 40
1
 50
90
 51
180
  0
ARC
  8
1
 62
7
 10
-207.7551670235829
 20
335.3859908725448
 30
0
 40
1
 50
270
 51
0
  0
ARC
  8
1
 62
7
 10
-207.7551670235829
 20
208.3859908725448
 30
0
 40
1
 50
0
 51
90
  0
ARC
  8
1
 62
7
 10
-101.7551670235829
 20
336.1359908725448
 30
0
 40
1
 50
0
 51
90
  0
ARC
  8
1
 62
7
 10
-99.75516702358294
 20
335.3859908725448
 30
0
 40
0.9999999999999574
 50
180
 51
270
  0
ARC
  8
1
 62
7
 10
-99.75516702358294
 20
208.3859908725448
 30
0
 40
1
 50
90
 51
180
  0
ARC
  8
1
 62
7
 10
-64.15516702358283
 20
245.8859908725447
 30
0
 40
0.9999999999999929
 50
0
 51
90
  0
ARC
  8
1
 62
7
 10
-64.15516702358283
 20
297.8859908725447
 30
0
 40
1
 50
270
 51
0
  0
ARC
  8
1
 62
7
 10
-89.95516702358299
 20
211.3859908725448
 30
0
 40
7.000000000000029
 50
212.5569318374533
 51
270
  0
ARC
  8
1
 62
7
 10
-89.95516702358299
 20
332.3859908725448
 30
0
 40
7
 50
90
 51
147.4430681625461
  0
ARC
  8
1
 62
7
 10
-101.7551670235829
 20
207.8859908725448
 30
0
 40
1
 50
270
 51
0
  0
ARC
  8
1
 62
7
 10
-205.7551670235829
 20
207.8859908725448
 30
0
 40
1
 50
180
 51
270
  0
ARC
  8
1
 62
7
 10
-75.25516702358306
 20
193.3859908725448
 30
0
 40
4
 50
270
 51
0
  0
ARC
  8
1
 62
7
 10
-232.2551670235829
 20
193.3859908725448
 30
0
 40
4
 50
180
 51
270
  0
ARC
  8
1
 62
7
 10
-75.25516702358306
 20
350.3859908725448
 30
0
 40
4
 50
0
 51
90
  0
ARC
  8
1
 62
7
 10
-232.2551670235829
 20
350.3859908725448
 30
0
 40
4
 50
90
 51
180
  0
ARC
  8
1
 62
7
 10
-209.7551670235829
 20
351.3859908725448
 30
0
 40
3
 50
0
 51
90
  0
ARC
  8
1
 62
7
 10
-209.7551670235829
 20
192.3859908725448
 30
0
 40
3
 50
270
 51
0
  0
ARC
  8
1
 62
7
 10
-97.75516702358294
 20
192.3859908725448
 30
0
 40
2.999999999999957
 50
180
 51
270
  0
ARC
  8
1
 62
7
 10
-97.75516702358294
 20
351.3859908725448
 30
0
 40
3
 50
90
 51
180
  0
ARC
  8
1
 62
7
 10
-44.85516702358285
 20
271.8859908725448
 30
0
 40
3.5
 50
90
 51
270
  0
ARC
  8
1
 62
7
 10
-154.755167023583
 20
-15
 30
0
 40
3
 50
90
 51
180
  0
ARC
  8
1
 62
7
 10
-160.755167023583
 20
-17
 30
0
 40
7
 50
90
 51
180
  0
ARC
  8
1
 62
7
 10
-160.755167023583
 20
-17
 30
0
 40
9
 50
90
 51
180
  0
ARC
  8
1
 62
7
 10
-152.7551670235829
 20
-15
 30
0
 40
3
 50
0
 51
90
  0
ARC
  8
1
 62
7
 10
-146.7551670235829
 20
-17
 30
0
 40
6.999999999999915
 50
0
 51
90
  0
ARC
  8
1
 62
7
 10
-146.7551670235829
 20
-17
 30
0
 40
9.000000000000114
 50
0
 51
90
  0
ARC
  8
1
 62
3
  6
DASHDOT
 10
-475.0940159444461
 20
-7.105427357601002e-015
 30
0
 40
37.99999999999998
 50
78.62390614717302
 51
100.8403054543306
  0
ARC
  8
1
 62
3
  6
DASHDOT
 10
-475.0940159444461
 20
-7.105427357601002e-015
 30
0
 40
38.00000000000011
 50
198.6239061471728
 51
220.8403054543305
  0
ARC
  8
1
 62
3
  6
DASHDOT
 10
-475.0940159444461
 20
-7.105427357601002e-015
 30
0
 40
37.99999999999994
 50
318.6239061471728
 51
340.8403054543304
  0
ARC
  8
1
 62
7
 10
-422.061007355455
 20
53.03300858899109
 30
0
 40
5.000000000000035
 50
260.7082003836928
 51
189.291799616307
  0
ARC
  8
1
 62
7
 10
-475.0940159444461
 20
-7.105427357601002e-015
 30
0
 40
82.49999999999997
 50
40.74905437747037
 51
49.25094562252971
  0
ARC
  8
1
 62
7
 10
-528.1270245334372
 20
53.03300858899109
 30
0
 40
5.000000000000046
 50
350.7082003836929
 51
279.2917996163066
  0
ARC
  8
1
 62
7
 10
-475.0940159444461
 20
-7.105427357601002e-015
 30
0
 40
82.50000000000004
 50
130.7490543774704
 51
139.2509456225297
  0
ARC
  8
1
 62
7
 10
-528.1270245334373
 20
-53.03300858899106
 30
0
 40
5.000000000000015
 50
80.7082003836921
 51
9.29179961630652
  0
ARC
  8
1
 62
7
 10
-475.0940159444461
 20
-7.105427357601002e-015
 30
0
 40
82.50000000000004
 50
220.7490543774703
 51
229.2509456225296
  0
ARC
  8
1
 62
7
 10
-422.061007355455
 20
-53.03300858899108
 30
0
 40
5.000000000000097
 50
170.7082003836935
 51
99.29179961630729
  0
ARC
  8
1
 62
7
 10
-475.0940159444461
 20
-7.105427357601002e-015
 30
0
 40
82.50000000000004
 50
310.7490543774704
 51
319.2509456225296
  0
ARC
  8
1
 62
7
 10
-475.0940159444461
 20
-7.105427357601002e-015
 30
0
 40
18.99999999999993
 50
7.560843176672125
 51
82.43915682332791
  0
ARC
  8
1
 62
7
 10
-475.0940159444461
 20
-7.105427357601002e-015
 30
0
 40
19.00000000000001
 50
97.56084317667208
 51
172.4391568233279
  0
ARC
  8
1
 62
7
 10
-475.0940159444461
 20
-7.105427357601002e-015
 30
0
 40
19.00000000000004
 50
187.5608431766721
 51
262.439156823328
  0
ARC
  8
1
 62
7
 10
-475.0940159444461
 20
-7.105427357601002e-015
 30
0
 40
19.00000000000001
 50
277.5608431766721
 51
352.4391568233278
  0
ARC
  8
1
 62
7
 10
-218.8551670235831
 20
-60.5
 30
0
 40
7.000000000000003
 50
266.1654835641775
 51
0.1974568809510982
  0
ARC
  8
1
 62
7
 10
-218.8551670235831
 20
60.5
 30
0
 40
7.000000000000068
 50
359.8025431190495
 51
91.18591050077387
  0
ARC
  8
1
 62
7
 10
-218.8551670235831
 20
211.3859908725448
 30
0
 40
7
 50
270
 51
0.1974568809513285
  0
ARC
  8
1
 62
7
 10
-221.2551670235829
 20
204.3859908725448
 30
0
 40
5.499999999999887
 50
199.0112652601378
 51
7.33139930173262
  0
ARC
  8
1
 62
7
 10
-221.2551670235829
 20
339.3859908725448
 30
0
 40
5.500000000000084
 50
352.6686006982662
 51
160.9887347398634
  0
ARC
  8
1
 62
7
 10
-86.25516702358294
 20
339.3859908725448
 30
0
 40
5.5
 50
0
 51
182.4390605680693
  0
ARC
  8
1
 62
7
  6
DASHED
 10
-86.25516702358294
 20
339.3859908725448
 30
0
 40
5.500000000000011
 50
182.4390605680693
 51
0
  0
ARC
  8
1
 62
7
  6
DASHED
 10
-221.2551670235829
 20
339.3859908725448
 30
0
 40
5.500000000000056
 50
160.9887347398634
 51
352.6686006982662
  0
ARC
  8
1
 62
7
  6
DASHED
 10
-221.2551670235829
 20
204.3859908725448
 30
0
 40
5.499999999999869
 50
7.33139930173262
 51
199.0112652601378
  0
ARC
  8
1
 62
7
 10
-138.755167023583
 20
-38.47487373415288
 30
0
 40
1.487500000000079
 50
44.99999999999709
 51
134.9999999999975
  0
ARC
  8
1
 62
7
 10
-136.2802932894302
 20
-36
 30
0
 40
1.487499999999848
 50
134.9999999999948
 51
225.0000000000052
  0
ARC
  8
1
 62
7
 10
-138.755167023583
 20
-33.52512626584712
 30
0
 40
1.487499999999929
 50
225.0000000000021
 51
315.0000000000033
  0
ARC
  8
1
 62
7
 10
-141.230040757736
 20
-36
 30
0
 40
1.487499999999929
 50
314.9999999999978
 51
45.00000000000213
  0
ARC
  8
1
 62
7
 10
-148.755167023583
 20
-38.47487373415288
 30
0
 40
1.487500000000079
 50
44.99999999999709
 51
135.0000000000006
  0
ARC
  8
1
 62
7
 10
-146.2802932894301
 20
-36
 30
0
 40
1.487499999999929
 50
134.9999999999979
 51
225.0000000000021
  0
ARC
  8
1
 62
7
 10
-148.755167023583
 20
-33.52512626584712
 30
0
 40
1.487500000000009
 50
224.999999999999
 51
315.0000000000033
  0
ARC
  8
1
 62
7
 10
-151.230040757736
 20
-36
 30
0
 40
1.487499999999929
 50
314.9999999999978
 51
45.00000000000213
  0
ARC
  8
1
 62
7
 10
-131.505167023583
 20
-27.75
 30
0
 40
1.487500000000011
 50
0
 51
90
  0
ARC
  8
1
 62
7
 10
-128.005167023583
 20
-27.75
 30
0
 40
1.487500000000011
 50
90
 51
180
  0
ARC
  8
1
 62
7
 10
-128.005167023583
 20
-24.25
 30
0
 40
1.487499999999898
 50
180
 51
270
  0
ARC
  8
1
 62
7
 10
-131.505167023583
 20
-24.25
 30
0
 40
1.487500000000011
 50
270
 51
0
  0
ARC
  8
1
 62
7
 10
-168.755167023583
 20
-38.47487373415288
 30
0
 40
1.487500000000079
 50
44.99999999999709
 51
135.0000000000006
  0
ARC
  8
1
 62
7
 10
-171.230040757736
 20
-36
 30
0
 40
1.487499999999929
 50
314.9999999999978
 51
45.00000000000213
  0
ARC
  8
1
 62
7
 10
-168.755167023583
 20
-33.52512626584712
 30
0
 40
1.487500000000009
 50
224.999999999999
 51
315.0000000000033
  0
ARC
  8
1
 62
7
 10
-166.2802932894301
 20
-36
 30
0
 40
1.487500000000069
 50
135.0000000000033
 51
224.9999999999967
  0
ARC
  8
1
 62
7
 10
-158.755167023583
 20
-38.47487373415288
 30
0
 40
1.487500000000079
 50
44.99999999999709
 51
135.0000000000006
  0
ARC
  8
1
 62
7
 10
-161.230040757736
 20
-36
 30
0
 40
1.487499999999929
 50
314.9999999999978
 51
45.00000000000213
  0
ARC
  8
1
 62
7
 10
-158.755167023583
 20
-33.52512626584712
 30
0
 40
1.487500000000009
 50
224.999999999999
 51
315.0000000000033
  0
ARC
  8
1
 62
7
 10
-156.2802932894301
 20
-36
 30
0
 40
1.487500000000069
 50
135.0000000000033
 51
224.9999999999967
  0
ARC
  8
1
 62
7
 10
-176.005167023583
 20
-27.75
 30
0
 40
1.487500000000011
 50
90
 51
180
  0
ARC
  8
1
 62
7
 10
-179.505167023583
 20
-27.75
 30
0
 40
1.487500000000011
 50
0
 51
90
  0
ARC
  8
1
 62
7
 10
-179.505167023583
 20
-24.25
 30
0
 40
1.487500000000011
 50
270
 51
0
  0
ARC
  8
1
 62
7
 10
-176.005167023583
 20
-24.25
 30
0
 40
1.487499999999898
 50
180
 51
270
  0
ARC
  8
1
 62
7
 10
-154.7551147078561
 20
-9.000052315726919
 30
0
 40
1.000052315726946
 50
269.1711781592333
 51
90
  0
ARC
  8
1
 62
7
 10
-152.7552193393099
 20
-9.000052315726919
 30
0
 40
1.000052315726919
 50
90
 51
270.8288218407666
  0
ARC
  8
1
 62
7
 10
-153.7551670235829
 20
-10
 30
0
 40
2.50000000000002
 50
234.4649085793089
 51
305.5350914206918
  0
ARC
  8
1
 62
7
 10
-153.7551670235829
 20
-10
 30
0
 40
2.5
 50
53.13010235415598
 51
126.869897645844
  0
CIRCLE
  8
1
 62
7
 10
-475.0940159444461
 20
-7.105427357601002e-015
 30
0
 40
56
  0
CIRCLE
  8
1
 62
7
 10
-475.0940159444461
 20
-7.105427357601002e-015
 30
0
 40
71
  0
CIRCLE
  8
1
 62
3
 10
-475.0940159444461
 20
38
 30
0
 40
4
  0
CIRCLE
  8
1
 62
7
 10
-475.0940159444461
 20
38
 30
0
 40
3.249999999999886
  0
CIRCLE
  8
1
 62
3
 10
-508.0029812882548
 20
-19.00000000000001
 30
0
 40
4
  0
CIRCLE
  8
1
 62
7
 10
-508.0029812882548
 20
-19.00000000000001
 30
0
 40
3.250000000000057
  0
CIRCLE
  8
1
 62
3
 10
-442.1850506006375
 20
-19.00000000000003
 30
0
 40
4
  0
CIRCLE
  8
1
 62
7
 10
-442.1850506006375
 20
-19.00000000000003
 30
0
 40
3.250000000000114
  0
CIRCLE
  8
1
 62
7
 10
-475.0940159444461
 20
-7.105427357601002e-015
 30
0
 40
68
  0
CIRCLE
  8
1
 62
7
 10
-475.0940159444461
 20
-7.105427357601002e-015
 30
0
 40
12.49999999999989
  0
CIRCLE
  8
1
 62
3
 10
-475.0940159444461
 20
-7.105427357601002e-015
 30
0
 40
11.5
  0
CIRCLE
  8
1
 62
7
 10
-475.0940159444461
 20
-7.105427357601002e-015
 30
0
 40
29.99999999999989
  0
CIRCLE
  8
1
 62
7
 10
-138.755167023583
 20
-36
 30
0
 40
2.75
  0
CIRCLE
  8
1
 62
7
 10
-148.755167023583
 20
-36
 30
0
 40
2.75
  0
CIRCLE
  8
1
 62
7
 10
-129.755167023583
 20
-26
 30
0
 40
2.75
  0
CIRCLE
  8
1
 62
7
 10
-168.755167023583
 20
-36
 30
0
 40
2.75
  0
CIRCLE
  8
1
 62
7
 10
-158.755167023583
 20
-36
 30
0
 40
2.75
  0
CIRCLE
  8
1
 62
7
 10
-177.755167023583
 20
-26
 30
0
 40
2.75
  0
TEXT
  8
1
 62
7
 10
-502.0940159444461
 20
255.8994295636758
 30
0
 40
10
  1
DC1804
 41
0.9
  7
SIMPLEX
  0
TEXT
  8
1
 62
7
 10
-502.0940159444461
 20
270.8994295636758
 30
0
 40
10
  1
TMP 5
 41
0.9
  7
SIMPLEX
  0
TEXT
  8
1
 62
7
 10
-146.905167023583
 20
-28.5
 30
0
 40
3.5
  1
BR
 41
0.8910000000000004
  7
SIMPLEX
  0
TEXT
  8
1
 62
7
 10
-166.905167023583
 20
-28.5
 30
0
 40
3.5
  1
CL
 41
0.8910000000000004
  7
SIMPLEX
  0
ENDSEC
  0
EOF
