  0
SECTION
  2
HEADER
  9
$ACADVER
  1
AC1009
  9
$INSBASE
 10
0
 20
0
  9
$EXTMIN
 10
-684.1654125845208
 20
-118.5972880209741
  9
$EXTMAX
 10
0
 20
429.553147082414
  9
$LIMMIN
 10
-684.1654125845208
 20
-118.5972880209741
  9
$LIMMAX
 10
0
 20
429.553147082414
  9
$VIEWCTR
 10
10
 20
10
  9
$VIEWSIZE
 40
10
  9
$SNAPMODE
 70
0
  9
$SNAPUNIT
 10
1
 20
1
  9
$SNAPBASE
 10
0
 20
0
  9
$SNAPANG
 50
0
  9
$SNAPSTYLE
 70
0
  9
$SNAPISOPAIR
 70
0
  9
$GRIDMODE
 70
0
  9
$GRIDUNIT
 10
0
 20
0
  9
$ORTHOMODE
 70
0
  9
$REGENMODE
 70
1
  9
$FILLMODE
 70
1
  9
$QTEXTMODE
 70
0
  9
$DRAGMODE
 70
2
  9
$LTSCALE
 40
1
  9
$OSMODE
 70
0
  9
$ATTMODE
 70
1
  9
$TEXTSIZE
 40
3.5
  9
$TRACEWID
 40
0.5
  9
$TEXTSTYLE
  7
STANDARD
  9
$CLAYER
  8
0
  9
$CELTYPE
  6
BYLAYER
  9
$CECOLOR
 62
256
  9
$DIMSCALE
 40
1
  9
$DIMASZ
 40
0.18
  9
$DIMEXO
 40
0.0625
  9
$DIMDLI
 40
0.38
  9
$DIMRND
 40
0
  9
$DIMDLE
 40
0
  9
$DIMEXE
 40
0.18
  9
$DIMTP
 40
0
  9
$DIMTM
 40
0
  9
$DIMTXT
 40
0.18
  9
$DIMCEN
 40
0.09
  9
$DIMTSZ
 40
0
  9
$DIMTOL
 70
0
  9
$DIMLIM
 70
0
  9
$DIMTIH
 70
1
  9
$DIMTOH
 70
1
  9
$DIMSE1
 70
0
  9
$DIMSE2
 70
0
  9
$DIMTAD
 70
0
  9
$DIMZIN
 70
0
  9
$DIMBLK
  1

  9
$DIMASO
 70
1
  9
$DIMSHO
 70
1
  9
$DIMPOST
  1

  9
$DIMAPOST
  1

  9
$DIMALT
 70
0
  9
$DIMALTD
 70
2
  9
$DIMALTF
 40
25.4
  9
$DIMLFAC
 40
1
  9
$DIMTOFL
 70
0
  9
$DIMTVP
 40
0
  9
$DIMTIX
 70
0
  9
$DIMSOXD
 70
0
  9
$DIMSAH
 70
0
  9
$DIMBLK1
  1

  9
$DIMBLK2
  1

  9
$DIMSTYLE
  2
*UNNAMED
  9
$DIMCLRD
 70
0
  9
$DIMCLRE
 70
0
  9
$DIMCLRT
 70
0
  9
$DIMTFAC
 40
1
  9
$DIMGAP
 40
0.09
  9
$LUNITS
 70
2
  9
$LUPREC
 70
4
  9
$AXISMODE
 70
0
  9
$AXISUNIT
 10
0
 20
0
  9
$SKETCHINC
 40
0.1
  9
$FILLETRAD
 40
2
  9
$AUNITS
 70
0
  9
$AUPREC
 70
0
  9
$MENU
  1
ACAD
  9
$ELEVATION
 40
0
  9
$THICKNESS
 40
0
  9
$VIEWDIR
 10
0
 20
0
 30
1
  9
$LIMCHECK
 70
0
  9
$BLIPMODE
 70
1
  9
$CHAMFERA
 40
0
  9
$CHAMFERB
 40
0
  9
$FASTZOOM
 70
1
  9
$SKPOLY
 70
0
  9
$ANGBASE
 50
0
  9
$ANGDIR
 70
0
  9
$PDMODE
 70
0
  9
$PDSIZE
 40
0
  9
$PLINEWID
 40
0
  9
$COORDS
 70
2
  0
ENDSEC
  0
SECTION
  2
TABLES
  0
TABLE
  2
DIMSTYLE
 70
0
  0
ENDTAB
  0
TABLE
  2
LTYPE
 70
9
  0
LTYPE
  2
CONTINUOUS
 70
64
  3
Solid line
 72
65
 73
0
 40
0
  0
LTYPE
  2
BORDER
 70
64
  3
__ __ . __ __ .
 72
65
 73
6
 40
31.50761768481346
 49
9.002176481375274
 49
-4.501088240687637
 49
9.002176481375274
 49
-4.501088240687637
 49
0
 49
-4.501088240687637
  0
LTYPE
  2
CENTER
 70
64
  3
____ _ ____ _
 72
65
 73
4
 40
36.0087059255011
 49
22.50544120343819
 49
-4.501088240687637
 49
4.501088240687637
 49
-4.501088240687637
  0
LTYPE
  2
DASHDOT
 70
64
  3
__ . __ . __ .
 72
65
 73
4
 40
18.00435296275055
 49
9.002176481375274
 49
-4.501088240687637
 49
0
 49
-4.501088240687637
  0
LTYPE
  2
DASHED
 70
64
  3
__ __ __ __ __
 72
65
 73
2
 40
13.50326472206291
 49
9.002176481375274
 49
-4.501088240687637
  0
LTYPE
  2
DIVIDE
 70
64
  3
__ . . __ . . 
 72
65
 73
6
 40
22.50544120343819
 49
9.002176481375274
 49
-4.501088240687637
 49
0
 49
-4.501088240687637
 49
0
 49
-4.501088240687637
  0
LTYPE
  2
DOT
 70
64
  3
..............
 72
65
 73
4
 40
9.002176481375274
 49
0
 49
-4.501088240687637
 49
0
 49
-4.501088240687637
  0
LTYPE
  2
HIDDEN
 70
64
  3
_ _ _ _ _ _ _
 72
65
 73
2
 40
6.751632361031456
 49
4.501088240687637
 49
-2.250544120343819
  0
LTYPE
  2
PHANTOM
 70
64
  3
_____ _ _ _____ _ _ 
 72
65
 73
6
 40
45.01088240687637
 49
22.50544120343819
 49
-4.501088240687637
 49
4.501088240687637
 49
-4.501088240687637
 49
4.501088240687637
 49
-4.501088240687637
  0
ENDTAB
  0
TABLE
  2
LAYER
 70
3
  0
LAYER
  2
1
 70
0
 62
7
  6
CONTINUOUS
  0
LAYER
  2
0
 70
0
 62
7
  6
CONTINUOUS
  0
ENDTAB
  0
TABLE
  2
STYLE
 70
4
  0
STYLE
  2
STANDARD
 70
0
 40
0
 41
1
 50
0
 71
0
 42
3.5
  3
txt
  4

  0
STYLE
  2
SIMPLEX
 70
0
 40
0
 41
1
 50
0
 71
0
 42
3.5
  3
simplex
  4

  0
STYLE
  2
COMPLEX
 70
0
 40
0
 41
1
 50
0
 71
0
 42
3.5
  3
complex
  4

  0
STYLE
  2
ITALIC
 70
0
 40
0
 41
1
 50
0
 71
0
 42
3.5
  3
italic
  4

  0
ENDTAB
  0
TABLE
  2
VIEW
 70
0
  0
ENDTAB
  0
ENDSEC
  0
SECTION
  2
BLOCKS
  0
ENDSEC
  0
SECTION
  2
ENTITIES
  0
LINE
  8
1
 62
7
 10
-303.2429593879973
 20
287.053147082414
 30
0
 11
-299.2429593879973
 21
287.053147082414
 31
0
  0
LINE
  8
1
 62
7
 10
-303.2429593879973
 20
362.053147082414
 30
0
 11
-299.2429593879973
 21
362.053147082414
 31
0
  0
LINE
  8
1
 62
7
 10
-303.2429593879973
 20
-37.5
 30
0
 11
-299.2429593879973
 21
-37.5
 31
0
  0
LINE
  8
1
 62
7
 10
-303.2429593879973
 20
37.5
 30
0
 11
-299.2429593879973
 21
37.5
 31
0
  0
LINE
  8
1
 62
7
 10
-211.7429593879973
 20
223.695241288551
 30
0
 11
-155.7429593879973
 21
223.695241288551
 31
0
  0
LINE
  8
1
 62
7
 10
-155.7429593879973
 20
240.5531470824139
 30
0
 11
-155.7429593879973
 21
223.695241288551
 31
0
  0
LINE
  8
1
 62
7
 10
-211.7429593879973
 20
240.5531470824139
 30
0
 11
-211.7429593879973
 21
223.695241288551
 31
0
  0
LINE
  8
1
 62
7
 10
-493.7487865682703
 20
-25
 30
0
 11
-478.1654125845207
 21
-25
 31
0
  0
LINE
  8
1
 62
7
 10
-476.1654125845207
 20
-32.35268917010839
 30
0
 11
-478.1654125845207
 21
-32.35268917010839
 31
0
  0
LINE
  8
1
 62
7
 10
-476.1654125845207
 20
-27.35268917010839
 30
0
 11
-478.1654125845207
 21
-27.35268917010839
 31
0
  0
LINE
  8
1
 62
7
 10
-479.1654125845207
 20
-25
 30
0
 11
-479.1654125845207
 21
-45
 31
0
  0
LINE
  8
1
 62
7
 10
-495.1654125845207
 20
-45
 30
0
 11
-478.1654125845207
 21
-45
 31
0
  0
LINE
  8
1
 62
7
 10
-476.1654125845207
 20
-27.35268917010839
 30
0
 11
-476.1654125845207
 21
-32.35268917010839
 31
0
  0
LINE
  8
1
 62
7
 10
-478.1654125845207
 20
-25
 30
0
 11
-478.1654125845207
 21
-45
 31
0
  0
LINE
  8
1
 62
7
 10
-182.7543677039951
 20
-12
 30
0
 11
-176.768781310559
 21
-12
 31
0
  0
LINE
  8
1
 62
7
 10
-167.768781310559
 20
-19
 30
0
 11
-167.768781310559
 21
-25
 31
0
  0
LINE
  8
1
 62
7
 10
-169.768781310559
 20
-19
 30
0
 11
-169.768781310559
 21
-25
 31
0
  0
LINE
  8
1
 62
7
 10
-176.768781310559
 20
-10
 30
0
 11
-182.7688336262861
 21
-10
 31
0
  0
LINE
  8
1
 62
7
 10
-182.768781310559
 20
-14
 30
0
 11
-182.7711322235996
 21
-14
 31
0
  0
LINE
  8
1
 62
7
 10
-179.768781310559
 20
-17
 30
0
 11
-179.768781310559
 21
-25
 31
0
  0
LINE
  8
1
 62
7
 10
-190.7687813105593
 20
-12
 30
0
 11
-184.7831949171232
 21
-12
 31
0
  0
LINE
  8
1
 62
7
 10
-199.7687813105593
 20
-19
 30
0
 11
-199.7687813105593
 21
-25
 31
0
  0
LINE
  8
1
 62
7
 10
-197.7687813105593
 20
-19
 30
0
 11
-197.7687813105593
 21
-25
 31
0
  0
LINE
  8
1
 62
7
 10
-184.7687289948324
 20
-10
 30
0
 11
-190.7687813105593
 21
-10
 31
0
  0
LINE
  8
1
 62
7
 10
-184.7664303975189
 20
-14
 30
0
 11
-184.7687813105593
 21
-14
 31
0
  0
LINE
  8
1
 62
7
 10
-187.7687813105593
 20
-17
 30
0
 11
-187.7687813105593
 21
-25
 31
0
  0
LINE
  8
1
 62
7
 10
-155.7687813105593
 20
-45
 30
0
 11
-211.7687813105593
 21
-45
 31
0
  0
LINE
  8
1
 62
7
 10
-211.7687813105593
 20
-45
 30
0
 11
-211.7687813105593
 21
-25
 31
0
  0
LINE
  8
1
 62
7
 10
-211.7687813105593
 20
-25
 30
0
 11
-155.7687813105593
 21
-25
 31
0
  0
LINE
  8
1
 62
7
 10
-207.5062813105592
 20
-28.25
 30
0
 11
-208.0312813105593
 21
-28.25
 31
0
  0
LINE
  8
1
 62
7
 10
-209.5187813105593
 20
-29.73750000000001
 30
0
 11
-209.5187813105593
 21
-30.26250000000002
 31
0
  0
LINE
  8
1
 62
7
 10
-208.0312813105593
 20
-31.75
 30
0
 11
-207.5062813105592
 21
-31.75
 31
0
  0
LINE
  8
1
 62
7
 10
-206.0187813105593
 20
-30.26250000000002
 30
0
 11
-206.0187813105593
 21
-29.73750000000001
 31
0
  0
LINE
  8
1
 62
7
 10
-187.3457289134215
 20
-38.948178662985
 30
0
 11
-187.7169599735442
 21
-38.57694760286211
 31
0
  0
LINE
  8
1
 62
7
 10
-189.8206026475744
 20
-38.57694760286211
 30
0
 11
-190.1918337076973
 21
-38.948178662985
 31
0
  0
LINE
  8
1
 62
7
 10
-190.1918337076973
 20
-41.051821337015
 30
0
 11
-189.8206026475744
 21
-41.42305239713791
 31
0
  0
LINE
  8
1
 62
7
 10
-187.7169599735442
 20
-41.42305239713791
 30
0
 11
-187.3457289134215
 21
-41.051821337015
 31
0
  0
LINE
  8
1
 62
7
 10
-197.3457289134215
 20
-38.948178662985
 30
0
 11
-197.7169599735442
 21
-38.57694760286211
 31
0
  0
LINE
  8
1
 62
7
 10
-199.8206026475744
 20
-38.57694760286211
 30
0
 11
-200.1918337076973
 21
-38.948178662985
 31
0
  0
LINE
  8
1
 62
7
 10
-200.1918337076973
 20
-41.051821337015
 30
0
 11
-199.8206026475744
 21
-41.42305239713791
 31
0
  0
LINE
  8
1
 62
7
 10
-197.7169599735442
 20
-41.42305239713791
 30
0
 11
-197.3457289134215
 21
-41.051821337015
 31
0
  0
LINE
  8
1
 62
7
 10
-192.7687813105593
 20
-44.63679671664211
 30
0
 11
-192.7687813105593
 21
-36
 31
0
  0
LINE
  8
1
 62
7
 10
-192.7687813105593
 20
-36
 30
0
 11
-184.7687813105593
 21
-36
 31
0
  0
LINE
  8
1
 62
7
 10
-184.7687813105593
 20
-36
 30
0
 11
-184.7687813105593
 21
-45
 31
0
  0
LINE
  8
1
 62
7
 10
-194.7687813105593
 20
-45
 30
0
 11
-194.7687813105593
 21
-36
 31
0
  0
LINE
  8
1
 62
7
 10
-194.7687813105593
 20
-36
 30
0
 11
-202.7687813105593
 21
-36
 31
0
  0
LINE
  8
1
 62
7
 10
-202.7687813105593
 20
-36
 30
0
 11
-202.7687813105593
 21
-45
 31
0
  0
LINE
  8
1
 62
7
 10
-155.7687813105593
 20
-25
 30
0
 11
-155.7687813105593
 21
-45
 31
0
  0
LINE
  8
1
 62
7
 10
-159.5062813105592
 20
-28.25
 30
0
 11
-160.0312813105593
 21
-28.25
 31
0
  0
LINE
  8
1
 62
7
 10
-158.0187813105593
 20
-30.26250000000002
 30
0
 11
-158.0187813105593
 21
-29.73750000000001
 31
0
  0
LINE
  8
1
 62
7
 10
-160.0312813105593
 20
-31.75
 30
0
 11
-159.5062813105592
 21
-31.75
 31
0
  0
LINE
  8
1
 62
7
 10
-161.5187813105593
 20
-29.73750000000001
 30
0
 11
-161.5187813105593
 21
-30.26250000000002
 31
0
  0
LINE
  8
1
 62
7
 10
-179.8206026475741
 20
-38.57694760286211
 30
0
 11
-180.1918337076973
 21
-38.948178662985
 31
0
  0
LINE
  8
1
 62
7
 10
-177.3457289134213
 20
-38.948178662985
 30
0
 11
-177.7169599735442
 21
-38.57694760286211
 31
0
  0
LINE
  8
1
 62
7
 10
-177.7169599735442
 20
-41.42305239713791
 30
0
 11
-177.3457289134213
 21
-41.051821337015
 31
0
  0
LINE
  8
1
 62
7
 10
-180.1918337076973
 20
-41.051821337015
 30
0
 11
-179.8206026475741
 21
-41.42305239713791
 31
0
  0
LINE
  8
1
 62
7
 10
-169.8206026475741
 20
-38.57694760286211
 30
0
 11
-170.1918337076973
 21
-38.948178662985
 31
0
  0
LINE
  8
1
 62
7
 10
-167.3457289134213
 20
-38.948178662985
 30
0
 11
-167.7169599735442
 21
-38.57694760286211
 31
0
  0
LINE
  8
1
 62
7
 10
-167.7169599735442
 20
-41.42305239713791
 30
0
 11
-167.3457289134213
 21
-41.051821337015
 31
0
  0
LINE
  8
1
 62
7
 10
-170.1918337076973
 20
-41.051821337015
 30
0
 11
-169.8206026475741
 21
-41.42305239713791
 31
0
  0
LINE
  8
1
 62
7
 10
-174.7687813105593
 20
-36
 30
0
 11
-174.7687813105593
 21
-44.63679671664211
 31
0
  0
LINE
  8
1
 62
7
 10
-182.7687813105593
 20
-36
 30
0
 11
-174.7687813105593
 21
-36
 31
0
  0
LINE
  8
1
 62
7
 10
-182.7687813105593
 20
-45
 30
0
 11
-182.7687813105593
 21
-36
 31
0
  0
LINE
  8
1
 62
7
 10
-172.7687813105593
 20
-36
 30
0
 11
-172.7687813105593
 21
-45
 31
0
  0
LINE
  8
1
 62
7
 10
-164.7687813105593
 20
-36
 30
0
 11
-172.7687813105593
 21
-36
 31
0
  0
LINE
  8
1
 62
7
 10
-164.7687813105593
 20
-45
 30
0
 11
-164.7687813105593
 21
-36
 31
0
  0
LINE
  8
1
 62
7
 10
-121.7429593879971
 20
240.5531470824139
 30
0
 11
-245.7429593879973
 21
240.5531470824139
 31
0
  0
LINE
  8
1
 62
7
 10
-55.74295938799708
 20
18
 30
0
 11
-55.74295938799708
 21
15
 31
0
  0
LINE
  8
1
 62
7
 10
-5.742959387997075
 20
18
 30
0
 11
-55.74295938799708
 21
18
 31
0
  0
LINE
  8
1
 62
7
 10
-5.742959387997075
 20
-15
 30
0
 11
-5.742959387997075
 21
18
 31
0
  0
LINE
  8
1
 62
7
 10
-274.7429593879973
 20
429.553147082414
 30
0
 11
-92.74295938799708
 21
429.553147082414
 31
0
  0
LINE
  8
1
 62
7
 10
-92.74295938799708
 20
219.553147082414
 30
0
 11
-274.7429593879973
 21
219.553147082414
 31
0
  0
LINE
  8
1
 62
7
 10
-87.74295938799708
 20
424.553147082414
 30
0
 11
-87.74295938799708
 21
409.053147082414
 31
0
  0
LINE
  8
1
 62
7
 10
-279.7429593879973
 20
424.553147082414
 30
0
 11
-279.7429593879973
 21
413.553147082414
 31
0
  0
LINE
  8
1
 62
7
 10
-119.7429593879971
 20
222.553147082414
 30
0
 11
-119.7429593879971
 21
426.553147082414
 31
0
  0
LINE
  8
1
 62
7
 10
-247.7429593879973
 20
222.553147082414
 30
0
 11
-247.7429593879973
 21
426.553147082414
 31
0
  0
LINE
  8
1
 62
7
 10
-279.7429593879973
 20
234.5531470824141
 30
0
 11
-279.7429593879973
 21
224.553147082414
 31
0
  0
LINE
  8
1
 62
3
  6
DASHDOT
 10
-102.7429593879971
 20
241.7005773546749
 30
0
 11
-102.7429593879971
 21
227.4057168101529
 31
0
  0
LINE
  8
1
 62
3
  6
DASHDOT
 10
-109.8903896602581
 20
234.5531470824139
 30
0
 11
-95.5955291157361
 21
234.5531470824139
 31
0
  0
LINE
  8
1
 62
3
  6
DASHDOT
 10
-271.8903896602583
 20
234.5531470824139
 30
0
 11
-257.5955291157364
 21
234.5531470824139
 31
0
  0
LINE
  8
1
 62
3
  6
DASHDOT
 10
-264.7429593879973
 20
241.7005773546749
 30
0
 11
-264.7429593879973
 21
227.4057168101529
 31
0
  0
LINE
  8
1
 62
3
  6
DASHDOT
 10
-102.7429593879971
 20
421.700577354675
 30
0
 11
-102.7429593879971
 21
407.405716810153
 31
0
  0
LINE
  8
1
 62
3
  6
DASHDOT
 10
-95.5955291157361
 20
414.553147082414
 30
0
 11
-109.8903896602581
 21
414.553147082414
 31
0
  0
LINE
  8
1
 62
3
  6
DASHDOT
 10
-264.7429593879973
 20
421.700577354675
 30
0
 11
-264.7429593879973
 21
407.405716810153
 31
0
  0
LINE
  8
1
 62
3
  6
DASHDOT
 10
-257.5955291157364
 20
414.553147082414
 30
0
 11
-271.8903896602583
 21
414.553147082414
 31
0
  0
LINE
  8
1
 62
7
 10
-52.24295938799708
 20
321.053147082414
 30
0
 11
-5.742959387997075
 21
321.053147082414
 31
0
  0
LINE
  8
1
 62
7
 10
-5.742959387997075
 20
328.053147082414
 30
0
 11
-52.24295938799708
 21
328.053147082414
 31
0
  0
LINE
  8
1
 62
7
 10
-65.24295938799708
 20
301.553147082414
 30
0
 11
-67.74295938799696
 21
301.553147082414
 31
0
  0
LINE
  8
1
 62
7
 10
-65.24295938799708
 20
347.553147082414
 30
0
 11
-65.24295938799708
 21
301.553147082414
 31
0
  0
LINE
  8
1
 62
7
 10
-67.74295938799696
 20
347.553147082414
 30
0
 11
-65.24295938799708
 21
347.553147082414
 31
0
  0
LINE
  8
1
 62
7
 10
-63.74295938799708
 20
343.553147082414
 30
0
 11
-63.74295938799708
 21
305.553147082414
 31
0
  0
LINE
  8
1
 62
7
 10
-63.74295938799708
 20
305.553147082414
 30
0
 11
-65.24295938799708
 21
305.553147082414
 31
0
  0
LINE
  8
1
 62
7
 10
-63.74295938799708
 20
343.553147082414
 30
0
 11
-65.24295938799708
 21
343.553147082414
 31
0
  0
LINE
  8
1
 62
7
 10
-5.742959387997075
 20
339.553147082414
 30
0
 11
-63.74295938799708
 21
339.553147082414
 31
0
  0
LINE
  8
1
 62
7
 10
-5.742959387997075
 20
309.553147082414
 30
0
 11
-5.742959387997075
 21
339.553147082414
 31
0
  0
LINE
  8
1
 62
7
 10
-5.742959387997075
 20
309.553147082414
 30
0
 11
-63.74295938799708
 21
309.553147082414
 31
0
  0
LINE
  8
1
 62
3
  6
DASHDOT
 10
-359.7906808808844
 20
324.553147082414
 30
0
 11
-352.7429593879973
 21
324.553147082414
 31
0
  0
LINE
  8
1
 62
3
 10
-351.2429593879973
 20
311.0531470824139
 30
0
 11
-352.7429593879973
 21
311.0531470824139
 31
0
  0
LINE
  8
1
 62
7
 10
-351.2429593879973
 20
309.5531470824139
 30
0
 11
-352.7429593879973
 21
309.5531470824139
 31
0
  0
LINE
  8
1
 62
7
 10
-351.2429593879973
 20
346.9138268574119
 30
0
 11
-351.2429593879973
 21
302.192467307416
 31
0
  0
LINE
  8
1
 62
7
 10
-351.2429593879973
 20
302.192467307416
 30
0
 11
-347.4183858685404
 21
302.192467307416
 31
0
  0
LINE
  8
1
 62
7
 10
-347.4183858685404
 20
349.053147082414
 30
0
 11
-347.4183858685404
 21
300.0531470824139
 31
0
  0
LINE
  8
1
 62
7
 10
-347.4183858685404
 20
300.0531470824139
 30
0
 11
-346.4183858685404
 21
300.0531470824139
 31
0
  0
LINE
  8
1
 62
7
 10
-346.4183858685404
 20
300.0531470824139
 30
0
 11
-343.2429593879973
 21
305.5531470824139
 31
0
  0
LINE
  8
1
 62
7
 10
-303.2429593879973
 20
253.5531470824139
 30
0
 11
-315.2429593879973
 21
253.5531470824139
 31
0
  0
LINE
  8
1
 62
7
 10
-315.2429593879973
 20
287.0531470824139
 30
0
 11
-343.2429593879973
 21
287.0531470824139
 31
0
  0
LINE
  8
1
 62
7
 10
-352.7429593879973
 20
309.5531470824139
 30
0
 11
-352.7429593879973
 21
339.553147082414
 31
0
  0
LINE
  8
1
 62
7
 10
-343.2429593879973
 20
287.0531470824139
 30
0
 11
-343.2429593879973
 21
362.053147082414
 31
0
  0
LINE
  8
1
 62
7
 10
-315.2429593879973
 20
253.5531470824139
 30
0
 11
-315.2429593879973
 21
395.553147082414
 31
0
  0
LINE
  8
1
 62
7
 10
-303.2429593879973
 20
253.5531470824139
 30
0
 11
-303.2429593879973
 21
395.553147082414
 31
0
  0
LINE
  8
1
 62
3
 10
-352.7429593879973
 20
338.053147082414
 30
0
 11
-351.2429593879973
 21
338.053147082414
 31
0
  0
LINE
  8
1
 62
7
 10
-352.7429593879973
 20
339.553147082414
 30
0
 11
-351.2429593879973
 21
339.553147082414
 31
0
  0
LINE
  8
1
 62
7
 10
-347.4183858685404
 20
346.9138268574119
 30
0
 11
-351.2429593879973
 21
346.9138268574119
 31
0
  0
LINE
  8
1
 62
7
 10
-346.4183858685404
 20
349.053147082414
 30
0
 11
-347.4183858685404
 21
349.053147082414
 31
0
  0
LINE
  8
1
 62
7
 10
-343.2429593879973
 20
343.553147082414
 30
0
 11
-346.4183858685404
 21
349.053147082414
 31
0
  0
LINE
  8
1
 62
7
 10
-315.2429593879973
 20
395.553147082414
 30
0
 11
-303.2429593879973
 21
395.553147082414
 31
0
  0
LINE
  8
1
 62
7
 10
-343.2429593879973
 20
362.053147082414
 30
0
 11
-315.2429593879973
 21
362.053147082414
 31
0
  0
LINE
  8
1
 62
7
 10
-114.7429593879971
 20
402.553147082414
 30
0
 11
-114.7429593879971
 21
246.5531470824139
 31
0
  0
LINE
  8
1
 62
7
 10
-116.7429593879971
 20
246.5531470824139
 30
0
 11
-112.0429593879972
 21
246.5531470824139
 31
0
  0
LINE
  8
1
 62
7
 10
-255.6429593879972
 20
402.553147082414
 30
0
 11
-255.6429593879972
 21
246.5531470824139
 31
0
  0
LINE
  8
1
 62
7
 10
-250.7429593879973
 20
246.5531470824139
 30
0
 11
-255.6429593879972
 21
246.5531470824139
 31
0
  0
LINE
  8
1
 62
7
 10
-252.7429593879973
 20
402.553147082414
 30
0
 11
-252.7429593879973
 21
246.5531470824139
 31
0
  0
LINE
  8
1
 62
7
 10
-75.74295938799696
 20
357.053147082414
 30
0
 11
-78.74295938799696
 21
357.053147082414
 31
0
  0
LINE
  8
1
 62
7
 10
-75.74295938799696
 20
292.053147082414
 30
0
 11
-78.74295938799696
 21
292.053147082414
 31
0
  0
LINE
  8
1
 62
3
  6
DASHDOT
 10
-5.742959387997075
 20
324.553147082414
 30
0
 11
0
 21
324.553147082414
 31
0
  0
LINE
  8
1
 62
7
 10
-116.7429593879971
 20
402.553147082414
 30
0
 11
-112.0429593879972
 21
402.553147082414
 31
0
  0
LINE
  8
1
 62
7
 10
-87.64295938799705
 20
409.053147082414
 30
0
 11
-87.64295938799705
 21
240.0531470824139
 31
0
  0
LINE
  8
1
 62
7
 10
-87.64295938799705
 20
409.053147082414
 30
0
 11
-105.7429593879971
 21
409.053147082414
 31
0
  0
LINE
  8
1
 62
7
 10
-105.7429593879971
 20
240.0531470824139
 30
0
 11
-87.64295938799705
 21
240.0531470824139
 31
0
  0
LINE
  8
1
 62
7
 10
-87.34295938799698
 20
409.553147082414
 30
0
 11
-87.34295938799698
 21
239.5531470824141
 31
0
  0
LINE
  8
1
 62
7
 10
-87.34295938799698
 20
409.553147082414
 30
0
 11
-80.94295938799689
 21
409.553147082414
 31
0
  0
LINE
  8
1
 62
7
 10
-79.94295938799689
 20
384.553147082414
 30
0
 11
-79.94295938799689
 21
240.5531470824141
 31
0
  0
LINE
  8
1
 62
7
 10
-80.94295938799689
 20
408.553147082414
 30
0
 11
-79.74295938799696
 21
408.553147082414
 31
0
  0
LINE
  8
1
 62
7
 10
-79.74295938799696
 20
388.4431808870879
 30
0
 11
-78.74295938799696
 21
384.711130079519
 31
0
  0
LINE
  8
1
 62
7
 10
-78.74295938799696
 20
384.711130079519
 30
0
 11
-78.74295938799696
 21
240.5531470824141
 31
0
  0
LINE
  8
1
 62
7
 10
-80.94295938799689
 20
388.285197889983
 30
0
 11
-79.94295938799689
 21
384.553147082414
 31
0
  0
LINE
  8
1
 62
7
 10
-80.94295938799689
 20
409.553147082414
 30
0
 11
-80.94295938799689
 21
239.5531470824141
 31
0
  0
LINE
  8
1
 62
7
 10
-79.74295938799696
 20
407.053147082414
 30
0
 11
-76.44295938799689
 21
407.053147082414
 31
0
  0
LINE
  8
1
 62
7
 10
-75.94295938799689
 20
393.553147082414
 30
0
 11
-75.94295938799689
 21
406.553147082414
 31
0
  0
LINE
  8
1
 62
7
 10
-79.74295938799696
 20
393.053147082414
 30
0
 11
-76.44295938799689
 21
393.053147082414
 31
0
  0
LINE
  8
1
 62
7
 10
-78.74295938799696
 20
407.053147082414
 30
0
 11
-78.74295938799696
 21
393.053147082414
 31
0
  0
LINE
  8
1
 62
7
 10
-76.44295938799689
 20
393.053147082414
 30
0
 11
-75.94295938799689
 21
393.553147082414
 31
0
  0
LINE
  8
1
 62
7
 10
-75.94295938799689
 20
406.553147082414
 30
0
 11
-76.44295938799689
 21
407.053147082414
 31
0
  0
LINE
  8
1
 62
7
 10
-80.94295938799689
 20
239.5531470824141
 30
0
 11
-87.34295938799698
 21
239.5531470824141
 31
0
  0
LINE
  8
1
 62
7
 10
-79.94295938799689
 20
240.5531470824141
 30
0
 11
-78.74295938799696
 21
240.5531470824141
 31
0
  0
LINE
  8
1
 62
7
 10
-78.74295938799696
 20
272.553147082414
 30
0
 11
-74.74295938799696
 21
272.553147082414
 31
0
  0
LINE
  8
1
 62
7
 10
-78.74295938799696
 20
256.5531470824141
 30
0
 11
-74.74295938799696
 21
256.5531470824141
 31
0
  0
LINE
  8
1
 62
7
 10
-74.74295938799696
 20
395.553147082414
 30
0
 11
-67.74295938799696
 21
395.553147082414
 31
0
  0
LINE
  8
1
 62
7
 10
-67.74295938799696
 20
253.5531470824141
 30
0
 11
-74.74295938799696
 21
253.5531470824141
 31
0
  0
LINE
  8
1
 62
7
 10
-287.9429593879972
 20
240.0531470824141
 30
0
 11
-287.9429593879972
 21
409.0531470824139
 31
0
  0
LINE
  8
1
 62
7
 10
-285.344883176644
 20
413.553147082414
 30
0
 11
-285.344883176644
 21
235.5531470824141
 31
0
  0
LINE
  8
1
 62
7
 10
-271.9429593879972
 20
240.203147082414
 30
0
 11
-269.1429593879972
 21
240.203147082414
 31
0
  0
LINE
  8
1
 62
7
 10
-271.9429593879972
 20
408.9031470824139
 30
0
 11
-269.1429593879972
 21
408.9031470824139
 31
0
  0
LINE
  8
1
 62
7
 10
-290.4429593879972
 20
240.0531470824141
 30
0
 11
-290.4429593879972
 21
409.0531470824139
 31
0
  0
LINE
  8
1
 62
7
 10
-269.1429593879972
 20
409.053147082414
 30
0
 11
-263.6429593879972
 21
409.053147082414
 31
0
  0
LINE
  8
1
 62
7
 10
-287.9429593879972
 20
240.0531470824141
 30
0
 11
-285.344883176644
 21
235.5531470824141
 31
0
  0
LINE
  8
1
 62
7
 10
-271.9429593879972
 20
413.553147082414
 30
0
 11
-271.9429593879972
 21
235.5531470824141
 31
0
  0
LINE
  8
1
 62
7
 10
-271.9429593879972
 20
235.5531470824141
 30
0
 11
-285.344883176644
 21
235.5531470824141
 31
0
  0
LINE
  8
1
 62
7
 10
-287.9429593879972
 20
240.0531470824141
 30
0
 11
-290.4429593879972
 21
240.0531470824141
 31
0
  0
LINE
  8
1
 62
7
 10
-290.4429593879972
 20
409.0531470824139
 30
0
 11
-287.9429593879972
 21
409.0531470824139
 31
0
  0
LINE
  8
1
 62
7
 10
-285.344883176644
 20
413.553147082414
 30
0
 11
-271.9429593879972
 21
413.553147082414
 31
0
  0
LINE
  8
1
 62
7
 10
-269.1429593879972
 20
240.053147082414
 30
0
 11
-269.1429593879972
 21
240.203147082414
 31
0
  0
LINE
  8
1
 62
7
 10
-269.1429593879972
 20
240.053147082414
 30
0
 11
-263.6429593879972
 21
240.053147082414
 31
0
  0
LINE
  8
1
 62
7
 10
-269.1429593879972
 20
408.9031470824139
 30
0
 11
-269.1429593879972
 21
409.053147082414
 31
0
  0
LINE
  8
1
 62
7
 10
-255.6429593879972
 20
402.553147082414
 30
0
 11
-250.7429593879973
 21
402.553147082414
 31
0
  0
LINE
  8
1
 62
7
 10
-285.344883176644
 20
413.553147082414
 30
0
 11
-287.9429593879972
 21
409.0531470824139
 31
0
  0
LINE
  8
1
 62
7
 10
-299.2429593879973
 20
384.7111300795189
 30
0
 11
-299.2429593879973
 21
240.553147082414
 31
0
  0
LINE
  8
1
 62
7
 10
-297.0429593879973
 20
409.553147082414
 30
0
 11
-297.0429593879973
 21
239.553147082414
 31
0
  0
LINE
  8
1
 62
7
 10
-290.6429593879972
 20
409.553147082414
 30
0
 11
-290.6429593879972
 21
239.553147082414
 31
0
  0
LINE
  8
1
 62
7
 10
-303.2429593879973
 20
256.553147082414
 30
0
 11
-299.2429593879973
 21
256.553147082414
 31
0
  0
LINE
  8
1
 62
7
 10
-303.2429593879973
 20
272.553147082414
 30
0
 11
-299.2429593879973
 21
272.553147082414
 31
0
  0
LINE
  8
1
 62
7
 10
-299.2429593879973
 20
240.553147082414
 30
0
 11
-298.0429593879973
 21
240.553147082414
 31
0
  0
LINE
  8
1
 62
7
 10
-290.6429593879972
 20
239.553147082414
 30
0
 11
-297.0429593879973
 21
239.553147082414
 31
0
  0
LINE
  8
1
 62
7
 10
-298.0429593879973
 20
240.553147082414
 30
0
 11
-298.0429593879973
 21
384.553147082414
 31
0
  0
LINE
  8
1
 62
7
 10
-301.5429593879973
 20
407.053147082414
 30
0
 11
-302.0429593879973
 21
406.553147082414
 31
0
  0
LINE
  8
1
 62
7
 10
-302.0429593879973
 20
393.553147082414
 30
0
 11
-301.5429593879973
 21
393.053147082414
 31
0
  0
LINE
  8
1
 62
7
 10
-299.2429593879973
 20
393.053147082414
 30
0
 11
-299.2429593879973
 21
407.053147082414
 31
0
  0
LINE
  8
1
 62
7
 10
-301.5429593879973
 20
393.053147082414
 30
0
 11
-298.2429593879973
 21
393.053147082414
 31
0
  0
LINE
  8
1
 62
7
 10
-302.0429593879973
 20
406.553147082414
 30
0
 11
-302.0429593879973
 21
393.553147082414
 31
0
  0
LINE
  8
1
 62
7
 10
-301.5429593879973
 20
407.053147082414
 30
0
 11
-298.2429593879973
 21
407.053147082414
 31
0
  0
LINE
  8
1
 62
7
 10
-298.0429593879973
 20
384.553147082414
 30
0
 11
-297.0429593879973
 21
388.2851978899828
 31
0
  0
LINE
  8
1
 62
7
 10
-299.2429593879973
 20
384.7111300795189
 30
0
 11
-298.2429593879973
 21
388.4431808870879
 31
0
  0
LINE
  8
1
 62
7
 10
-298.2429593879973
 20
388.4431808870879
 30
0
 11
-298.2429593879973
 21
408.553147082414
 31
0
  0
LINE
  8
1
 62
7
 10
-298.2429593879973
 20
408.553147082414
 30
0
 11
-297.0429593879973
 21
408.553147082414
 31
0
  0
LINE
  8
1
 62
7
 10
-297.0429593879973
 20
409.553147082414
 30
0
 11
-290.6429593879972
 21
409.553147082414
 31
0
  0
LINE
  8
1
 62
7
 10
-245.7429593879973
 20
408.553147082414
 30
0
 11
-121.7429593879971
 21
408.553147082414
 31
0
  0
LINE
  8
1
 62
7
 10
-65.24295938799708
 20
-23
 30
0
 11
-67.74295938799696
 21
-23
 31
0
  0
LINE
  8
1
 62
7
 10
-65.24295938799708
 20
23
 30
0
 11
-65.24295938799708
 21
-23
 31
0
  0
LINE
  8
1
 62
7
 10
-67.74295938799696
 20
23
 30
0
 11
-65.24295938799708
 21
23
 31
0
  0
LINE
  8
1
 62
7
 10
-63.74295938799708
 20
19
 30
0
 11
-63.74295938799708
 21
-19
 31
0
  0
LINE
  8
1
 62
7
 10
-63.74295938799708
 20
-19
 30
0
 11
-65.24295938799708
 21
-19
 31
0
  0
LINE
  8
1
 62
7
 10
-63.74295938799708
 20
19
 30
0
 11
-65.24295938799708
 21
19
 31
0
  0
LINE
  8
1
 62
7
 10
-5.742959387997075
 20
15
 30
0
 11
-63.74295938799708
 21
15
 31
0
  0
LINE
  8
1
 62
7
 10
-5.742959387997075
 20
-15
 30
0
 11
-63.74295938799708
 21
-15
 31
0
  0
LINE
  8
1
 62
3
  6
DASHDOT
 10
-359.7906808808844
 20
0
 30
0
 11
-352.7429593879973
 21
0
 31
0
  0
LINE
  8
1
 62
3
 10
-351.2429593879973
 20
-13.50000000000009
 30
0
 11
-352.7429593879973
 21
-13.50000000000009
 31
0
  0
LINE
  8
1
 62
7
 10
-351.2429593879973
 20
-15.00000000000009
 30
0
 11
-352.7429593879973
 21
-15.00000000000009
 31
0
  0
LINE
  8
1
 62
7
 10
-351.2429593879973
 20
22.36067977499792
 30
0
 11
-351.2429593879973
 21
-22.360679774998
 31
0
  0
LINE
  8
1
 62
7
 10
-351.2429593879973
 20
-22.360679774998
 30
0
 11
-347.4183858685404
 21
-22.360679774998
 31
0
  0
LINE
  8
1
 62
7
 10
-347.4183858685404
 20
24.5
 30
0
 11
-347.4183858685404
 21
-24.50000000000009
 31
0
  0
LINE
  8
1
 62
7
 10
-347.4183858685404
 20
-24.50000000000009
 30
0
 11
-346.4183858685404
 21
-24.50000000000009
 31
0
  0
LINE
  8
1
 62
7
 10
-346.4183858685404
 20
-24.50000000000009
 30
0
 11
-343.2429593879973
 21
-19.00000000000009
 31
0
  0
LINE
  8
1
 62
7
 10
-303.2429593879973
 20
-71.00000000000006
 30
0
 11
-315.2429593879973
 21
-71.00000000000006
 31
0
  0
LINE
  8
1
 62
7
 10
-315.2429593879973
 20
-37.5000000000001
 30
0
 11
-343.2429593879973
 21
-37.5000000000001
 31
0
  0
LINE
  8
1
 62
7
 10
-352.7429593879973
 20
-15.00000000000009
 30
0
 11
-352.7429593879973
 21
15
 31
0
  0
LINE
  8
1
 62
7
 10
-343.2429593879973
 20
-37.5000000000001
 30
0
 11
-343.2429593879973
 21
37.5
 31
0
  0
LINE
  8
1
 62
7
 10
-315.2429593879973
 20
-71.00000000000006
 30
0
 11
-315.2429593879973
 21
71
 31
0
  0
LINE
  8
1
 62
7
 10
-303.2429593879973
 20
-71.00000000000006
 30
0
 11
-303.2429593879973
 21
71
 31
0
  0
LINE
  8
1
 62
3
 10
-352.7429593879973
 20
13.5
 30
0
 11
-351.2429593879973
 21
13.5
 31
0
  0
LINE
  8
1
 62
7
 10
-352.7429593879973
 20
15
 30
0
 11
-351.2429593879973
 21
15
 31
0
  0
LINE
  8
1
 62
7
 10
-347.4183858685404
 20
22.36067977499792
 30
0
 11
-351.2429593879973
 21
22.36067977499792
 31
0
  0
LINE
  8
1
 62
7
 10
-346.4183858685404
 20
24.5
 30
0
 11
-347.4183858685404
 21
24.5
 31
0
  0
LINE
  8
1
 62
7
 10
-343.2429593879973
 20
19
 30
0
 11
-346.4183858685404
 21
24.5
 31
0
  0
LINE
  8
1
 62
7
 10
-315.2429593879973
 20
71
 30
0
 11
-303.2429593879973
 21
71
 31
0
  0
LINE
  8
1
 62
7
 10
-343.2429593879973
 20
37.5
 30
0
 11
-315.2429593879973
 21
37.5
 31
0
  0
LINE
  8
1
 62
7
 10
-114.7429593879971
 20
78
 30
0
 11
-114.7429593879971
 21
-78.00000000000007
 31
0
  0
LINE
  8
1
 62
7
 10
-116.7429593879971
 20
-78.00000000000007
 30
0
 11
-112.0429593879972
 21
-78.00000000000007
 31
0
  0
LINE
  8
1
 62
7
 10
-255.6429593879972
 20
78
 30
0
 11
-255.6429593879972
 21
-78.00000000000007
 31
0
  0
LINE
  8
1
 62
7
 10
-250.7429593879973
 20
-78.00000000000007
 30
0
 11
-255.6429593879972
 21
-78.00000000000007
 31
0
  0
LINE
  8
1
 62
7
 10
-252.7429593879973
 20
78
 30
0
 11
-252.7429593879973
 21
-78.00000000000007
 31
0
  0
LINE
  8
1
 62
7
 10
-75.74295938799696
 20
32.5
 30
0
 11
-78.74295938799696
 21
32.5
 31
0
  0
LINE
  8
1
 62
7
 10
-116.7429593879971
 20
78
 30
0
 11
-112.0429593879972
 21
78
 31
0
  0
LINE
  8
1
 62
7
 10
-87.64295938799705
 20
84.5
 30
0
 11
-87.64295938799705
 21
-84.50000000000006
 31
0
  0
LINE
  8
1
 62
7
 10
-87.64295938799705
 20
84.5
 30
0
 11
-105.7429593879971
 21
84.5
 31
0
  0
LINE
  8
1
 62
7
 10
-105.7429593879971
 20
-84.50000000000006
 30
0
 11
-87.64295938799705
 21
-84.50000000000006
 31
0
  0
LINE
  8
1
 62
7
 10
-87.34295938799698
 20
85
 30
0
 11
-87.34295938799698
 21
-84.99999999999994
 31
0
  0
LINE
  8
1
 62
7
 10
-87.34295938799698
 20
85
 30
0
 11
-80.94295938799689
 21
85
 31
0
  0
LINE
  8
1
 62
7
 10
-79.94295938799689
 20
60
 30
0
 11
-79.94295938799689
 21
-83.99999999999994
 31
0
  0
LINE
  8
1
 62
7
 10
-80.94295938799689
 20
84
 30
0
 11
-79.74295938799696
 21
84
 31
0
  0
LINE
  8
1
 62
7
 10
-79.74295938799696
 20
63.89003380467392
 30
0
 11
-78.74295938799696
 21
60.15798299710499
 31
0
  0
LINE
  8
1
 62
7
 10
-78.74295938799696
 20
60.15798299710499
 30
0
 11
-78.74295938799696
 21
-83.99999999999994
 31
0
  0
LINE
  8
1
 62
7
 10
-80.94295938799689
 20
63.7320508075689
 30
0
 11
-79.94295938799689
 21
60
 31
0
  0
LINE
  8
1
 62
7
 10
-80.94295938799689
 20
85
 30
0
 11
-80.94295938799689
 21
-84.99999999999994
 31
0
  0
LINE
  8
1
 62
7
 10
-79.74295938799696
 20
82.5
 30
0
 11
-76.44295938799689
 21
82.5
 31
0
  0
LINE
  8
1
 62
7
 10
-75.94295938799689
 20
69
 30
0
 11
-75.94295938799689
 21
82
 31
0
  0
LINE
  8
1
 62
7
 10
-79.74295938799696
 20
68.5
 30
0
 11
-76.44295938799689
 21
68.5
 31
0
  0
LINE
  8
1
 62
7
 10
-78.74295938799696
 20
82.5
 30
0
 11
-78.74295938799696
 21
68.5
 31
0
  0
LINE
  8
1
 62
7
 10
-76.44295938799689
 20
68.5
 30
0
 11
-75.94295938799689
 21
69
 31
0
  0
LINE
  8
1
 62
7
 10
-75.94295938799689
 20
82
 30
0
 11
-76.44295938799689
 21
82.5
 31
0
  0
LINE
  8
1
 62
7
 10
-80.94295938799689
 20
-84.99999999999994
 30
0
 11
-87.34295938799698
 21
-84.99999999999994
 31
0
  0
LINE
  8
1
 62
7
 10
-79.94295938799689
 20
-83.99999999999994
 30
0
 11
-78.74295938799696
 21
-83.99999999999994
 31
0
  0
LINE
  8
1
 62
7
 10
-78.74295938799696
 20
-52
 30
0
 11
-74.74295938799696
 21
-52
 31
0
  0
LINE
  8
1
 62
7
 10
-78.74295938799696
 20
-67.99999999999994
 30
0
 11
-74.74295938799696
 21
-67.99999999999994
 31
0
  0
LINE
  8
1
 62
7
 10
-74.74295938799696
 20
71
 30
0
 11
-67.74295938799696
 21
71
 31
0
  0
LINE
  8
1
 62
7
 10
-67.74295938799696
 20
-70.99999999999994
 30
0
 11
-74.74295938799696
 21
-70.99999999999994
 31
0
  0
LINE
  8
1
 62
7
 10
-287.9429593879972
 20
-84.49999999999989
 30
0
 11
-287.9429593879972
 21
84.5
 31
0
  0
LINE
  8
1
 62
7
 10
-285.344883176644
 20
89
 30
0
 11
-285.344883176644
 21
-88.99999999999989
 31
0
  0
LINE
  8
1
 62
7
 10
-271.9429593879972
 20
-84.35000000000002
 30
0
 11
-269.1429593879972
 21
-84.35000000000002
 31
0
  0
LINE
  8
1
 62
7
 10
-271.9429593879972
 20
84.34999999999991
 30
0
 11
-269.1429593879972
 21
84.34999999999991
 31
0
  0
LINE
  8
1
 62
7
 10
-290.4429593879972
 20
-84.49999999999989
 30
0
 11
-290.4429593879972
 21
84.5
 31
0
  0
LINE
  8
1
 62
7
 10
-269.1429593879972
 20
84.5
 30
0
 11
-263.6429593879972
 21
84.5
 31
0
  0
LINE
  8
1
 62
7
 10
-287.9429593879972
 20
-84.49999999999989
 30
0
 11
-285.344883176644
 21
-88.99999999999989
 31
0
  0
LINE
  8
1
 62
7
 10
-271.9429593879972
 20
89
 30
0
 11
-271.9429593879972
 21
-88.99999999999989
 31
0
  0
LINE
  8
1
 62
7
 10
-271.9429593879972
 20
-88.99999999999989
 30
0
 11
-285.344883176644
 21
-88.99999999999989
 31
0
  0
LINE
  8
1
 62
7
 10
-287.9429593879972
 20
-84.49999999999989
 30
0
 11
-290.4429593879972
 21
-84.49999999999989
 31
0
  0
LINE
  8
1
 62
7
 10
-290.4429593879972
 20
84.5
 30
0
 11
-287.9429593879972
 21
84.5
 31
0
  0
LINE
  8
1
 62
7
 10
-285.344883176644
 20
89
 30
0
 11
-271.9429593879972
 21
89
 31
0
  0
LINE
  8
1
 62
7
 10
-269.1429593879972
 20
-84.5
 30
0
 11
-269.1429593879972
 21
-84.35000000000002
 31
0
  0
LINE
  8
1
 62
7
 10
-269.1429593879972
 20
-84.5
 30
0
 11
-263.6429593879972
 21
-84.5
 31
0
  0
LINE
  8
1
 62
7
 10
-269.1429593879972
 20
84.34999999999991
 30
0
 11
-269.1429593879972
 21
84.5
 31
0
  0
LINE
  8
1
 62
7
 10
-255.6429593879972
 20
78
 30
0
 11
-250.7429593879973
 21
78
 31
0
  0
LINE
  8
1
 62
7
 10
-285.344883176644
 20
89
 30
0
 11
-287.9429593879972
 21
84.5
 31
0
  0
LINE
  8
1
 62
7
 10
-299.2429593879973
 20
60.15798299710491
 30
0
 11
-299.2429593879973
 21
-84
 31
0
  0
LINE
  8
1
 62
7
 10
-297.0429593879973
 20
85
 30
0
 11
-297.0429593879973
 21
-85
 31
0
  0
LINE
  8
1
 62
7
 10
-290.6429593879972
 20
85
 30
0
 11
-290.6429593879972
 21
-85
 31
0
  0
LINE
  8
1
 62
7
 10
-303.2429593879973
 20
-68
 30
0
 11
-299.2429593879973
 21
-68
 31
0
  0
LINE
  8
1
 62
7
 10
-303.2429593879973
 20
-52
 30
0
 11
-299.2429593879973
 21
-52
 31
0
  0
LINE
  8
1
 62
7
 10
-299.2429593879973
 20
-84
 30
0
 11
-298.0429593879973
 21
-84
 31
0
  0
LINE
  8
1
 62
7
 10
-290.6429593879972
 20
-85
 30
0
 11
-297.0429593879973
 21
-85
 31
0
  0
LINE
  8
1
 62
7
 10
-298.0429593879973
 20
-84
 30
0
 11
-298.0429593879973
 21
60
 31
0
  0
LINE
  8
1
 62
7
 10
-301.5429593879973
 20
82.5
 30
0
 11
-302.0429593879973
 21
82
 31
0
  0
LINE
  8
1
 62
7
 10
-302.0429593879973
 20
69
 30
0
 11
-301.5429593879973
 21
68.5
 31
0
  0
LINE
  8
1
 62
7
 10
-299.2429593879973
 20
68.5
 30
0
 11
-299.2429593879973
 21
82.5
 31
0
  0
LINE
  8
1
 62
7
 10
-301.5429593879973
 20
68.5
 30
0
 11
-298.2429593879973
 21
68.5
 31
0
  0
LINE
  8
1
 62
7
 10
-302.0429593879973
 20
82
 30
0
 11
-302.0429593879973
 21
69
 31
0
  0
LINE
  8
1
 62
7
 10
-301.5429593879973
 20
82.5
 30
0
 11
-298.2429593879973
 21
82.5
 31
0
  0
LINE
  8
1
 62
7
 10
-298.0429593879973
 20
60
 30
0
 11
-297.0429593879973
 21
63.73205080756881
 31
0
  0
LINE
  8
1
 62
7
 10
-299.2429593879973
 20
60.15798299710491
 30
0
 11
-298.2429593879973
 21
63.89003380467392
 31
0
  0
LINE
  8
1
 62
7
 10
-298.2429593879973
 20
63.89003380467392
 30
0
 11
-298.2429593879973
 21
84
 31
0
  0
LINE
  8
1
 62
7
 10
-298.2429593879973
 20
84
 30
0
 11
-297.0429593879973
 21
84
 31
0
  0
LINE
  8
1
 62
7
 10
-297.0429593879973
 20
85
 30
0
 11
-290.6429593879972
 21
85
 31
0
  0
LINE
  8
1
 62
7
 10
-119.7429593879971
 20
82
 30
0
 11
-119.7429593879971
 21
-94
 31
0
  0
LINE
  8
1
 62
3
  6
DASHDOT
 10
-102.7429593879971
 20
-118.2014067706926
 30
0
 11
-102.7429593879971
 21
-90.940174809516
 31
0
  0
LINE
  8
1
 62
7
 10
-274.7429593879973
 20
-97
 30
0
 11
-92.74295938799708
 21
-97
 31
0
  0
LINE
  8
1
 62
7
 10
-245.7429593879973
 20
84
 30
0
 11
-121.7429593879971
 21
84
 31
0
  0
LINE
  8
1
 62
7
 10
-87.74295938799708
 20
-102
 30
0
 11
-87.74295938799708
 21
-112
 31
0
  0
LINE
  8
1
 62
7
 10
-87.74295938799708
 20
-112
 30
0
 11
-136.7429593879971
 21
-112
 31
0
  0
LINE
  8
1
 62
7
 10
-136.7429593879971
 20
-112
 30
0
 11
-136.7429593879971
 21
-110
 31
0
  0
LINE
  8
1
 62
7
 10
-141.7429593879971
 20
-105
 30
0
 11
-225.7429593879973
 21
-105
 31
0
  0
LINE
  8
1
 62
7
 10
-247.7429593879973
 20
-94
 30
0
 11
-247.7429593879973
 21
82
 31
0
  0
LINE
  8
1
 62
3
  6
DASHDOT
 10
-264.7429593879973
 20
-90.940174809516
 30
0
 11
-264.7429593879973
 21
-118.2014067706926
 31
0
  0
LINE
  8
1
 62
7
 10
-279.7429593879973
 20
-112
 30
0
 11
-279.7429593879973
 21
-102
 31
0
  0
LINE
  8
1
 62
7
 10
-230.7429593879973
 20
-112
 30
0
 11
-279.7429593879973
 21
-112
 31
0
  0
LINE
  8
1
 62
7
 10
-230.7429593879973
 20
-110
 30
0
 11
-230.7429593879973
 21
-112
 31
0
  0
LINE
  8
1
 62
3
  6
DASHDOT
 10
-489.1654125845208
 20
-118.5972880209741
 30
0
 11
-489.1654125845208
 21
-91.53018160899789
 31
0
  0
LINE
  8
1
 62
3
  6
DASHDOT
 10
-669.1654125845208
 20
-91.53018160899789
 30
0
 11
-669.1654125845208
 21
-118.5972880209741
 31
0
  0
LINE
  8
1
 62
7
 10
-495.1654125845207
 20
29.41088233970549
 30
0
 11
-495.1654125845207
 21
74
 31
0
  0
LINE
  8
1
 62
7
 10
-505.1654125845207
 20
84
 30
0
 11
-549.7545302448152
 21
84
 31
0
  0
LINE
  8
1
 62
7
 10
-509.1654125845207
 20
-112
 30
0
 11
-474.1654125845207
 21
-112
 31
0
  0
LINE
  8
1
 62
7
 10
-509.1654125845207
 20
-102
 30
0
 11
-509.1654125845207
 21
-112
 31
0
  0
LINE
  8
1
 62
7
 10
-514.1654125845207
 20
-105
 30
0
 11
-644.1654125845208
 21
-105
 31
0
  0
LINE
  8
1
 62
7
 10
-475.1089121664521
 20
-99.07685026756938
 30
0
 11
-495.1654125845207
 21
-62
 31
0
  0
LINE
  8
1
 62
7
 10
-474.1654125845207
 20
-112
 30
0
 11
-474.1654125845207
 21
-102
 31
0
  0
LINE
  8
1
 62
7
 10
-509.1654125845207
 20
-112
 30
0
 11
-474.1654125845207
 21
-112
 31
0
  0
LINE
  8
1
 62
7
 10
-479.1654125845207
 20
-97
 30
0
 11
-504.1654125845207
 21
-97
 31
0
  0
LINE
  8
1
 62
7
 10
-475.1089121664521
 20
-99.07685026756938
 30
0
 11
-495.1654125845207
 21
-62
 31
0
  0
LINE
  8
1
 62
7
 10
-495.1654125845207
 20
-62
 30
0
 11
-495.1654125845207
 21
-29.41088233970549
 31
0
  0
LINE
  8
1
 62
7
 10
-663.1654125845208
 20
-62
 30
0
 11
-683.2219130025894
 21
-99.07685026756938
 31
0
  0
LINE
  8
1
 62
7
 10
-663.1654125845208
 20
-29.41088233970549
 30
0
 11
-663.1654125845208
 21
-62
 31
0
  0
LINE
  8
1
 62
7
 10
-649.1654125845208
 20
-112
 30
0
 11
-649.1654125845208
 21
-102
 31
0
  0
LINE
  8
1
 62
7
 10
-684.1654125845208
 20
-112
 30
0
 11
-649.1654125845208
 21
-112
 31
0
  0
LINE
  8
1
 62
7
 10
-684.1654125845208
 20
-102
 30
0
 11
-684.1654125845208
 21
-112
 31
0
  0
LINE
  8
1
 62
7
 10
-654.1654125845208
 20
-97
 30
0
 11
-679.1654125845208
 21
-97
 31
0
  0
LINE
  8
1
 62
7
 10
-663.1654125845208
 20
74
 30
0
 11
-663.1654125845208
 21
29.41088233970549
 31
0
  0
LINE
  8
1
 62
7
 10
-608.5762949242263
 20
84
 30
0
 11
-653.1654125845208
 21
84
 31
0
  0
LINE
  8
1
 62
3
  6
DASHDOT
 10
-579.1654125845208
 20
9.840451327408999
 30
0
 11
-579.1654125845208
 21
-9.840451327408999
 31
0
  0
LINE
  8
1
 62
3
  6
DASHDOT
 10
-569.3249612571118
 20
0
 30
0
 11
-589.0058639119299
 21
0
 31
0
  0
LINE
  8
1
 62
7
 10
-558.6654125845208
 20
-2.5
 30
0
 11
-556.804732809523
 21
-2.5
 31
0
  0
LINE
  8
1
 62
7
 10
-558.6654125845208
 20
2.5
 30
0
 11
-558.6654125845208
 21
-2.5
 31
0
  0
LINE
  8
1
 62
7
 10
-556.804732809523
 20
2.5
 30
0
 11
-558.6654125845208
 21
2.5
 31
0
  0
LINE
  8
1
 62
7
 10
-581.6654125845208
 20
-20.5
 30
0
 11
-581.6654125845208
 21
-22.36067977499789
 31
0
  0
LINE
  8
1
 62
7
 10
-576.6654125845208
 20
-20.5
 30
0
 11
-581.6654125845208
 21
-20.5
 31
0
  0
LINE
  8
1
 62
7
 10
-576.6654125845208
 20
-22.36067977499789
 30
0
 11
-576.6654125845208
 21
-20.5
 31
0
  0
LINE
  8
1
 62
7
 10
-599.6654125845208
 20
2.5
 30
0
 11
-601.5260923595187
 21
2.5
 31
0
  0
LINE
  8
1
 62
7
 10
-599.6654125845208
 20
-2.5
 30
0
 11
-599.6654125845208
 21
2.5
 31
0
  0
LINE
  8
1
 62
7
 10
-601.5260923595187
 20
-2.5
 30
0
 11
-599.6654125845208
 21
-2.5
 31
0
  0
LINE
  8
1
 62
7
 10
-576.6654125845208
 20
20.5
 30
0
 11
-576.6654125845208
 21
22.36067977499792
 31
0
  0
LINE
  8
1
 62
7
 10
-581.6654125845208
 20
20.5
 30
0
 11
-576.6654125845208
 21
20.5
 31
0
  0
LINE
  8
1
 62
7
 10
-581.6654125845208
 20
22.36067977499792
 30
0
 11
-581.6654125845208
 21
20.5
 31
0
  0
LINE
  8
1
 62
7
 10
-508.8731655013609
 20
-78.00000000000007
 30
0
 11
-536.3051746010472
 21
-78.00000000000006
 31
0
  0
LINE
  8
1
 62
7
 10
-501.1654125845208
 20
-42.8602379834737
 30
0
 11
-501.1654125845208
 21
-70.29224708315992
 31
0
  0
LINE
  8
1
 62
7
 10
-512.8868438439669
 20
-70.5212094276733
 30
0
 11
-509.5407786290156
 21
-69.62463395550522
 31
0
  0
LINE
  8
1
 62
7
 10
-515.33633358675
 20
-68.07171968489014
 30
0
 11
-512.8868438439669
 21
-70.5212094276733
 31
0
  0
LINE
  8
1
 62
7
 10
-514.439758114582
 20
-64.7256544699389
 30
0
 11
-515.33633358675
 21
-68.07171968489014
 31
0
  0
LINE
  8
1
 62
7
 10
-511.0936928996308
 20
-63.82907899777082
 30
0
 11
-514.439758114582
 21
-64.7256544699389
 31
0
  0
LINE
  8
1
 62
7
 10
-508.6442031568476
 20
-66.27856874055398
 30
0
 11
-511.0936928996308
 21
-63.82907899777082
 31
0
  0
LINE
  8
1
 62
7
 10
-509.5407786290156
 20
-69.62463395550522
 30
0
 11
-508.6442031568476
 21
-66.27856874055398
 31
0
  0
LINE
  8
1
 62
7
 10
-657.1654125845208
 20
-70.29224708315985
 30
0
 11
-657.1654125845208
 21
-42.8602379834736
 31
0
  0
LINE
  8
1
 62
7
 10
-622.0256505679946
 20
-78
 30
0
 11
-649.4576596676808
 21
-78
 31
0
  0
LINE
  8
1
 62
7
 10
-649.686622012194
 20
-66.27856874055397
 30
0
 11
-648.7900465400261
 21
-69.6246339555052
 31
0
  0
LINE
  8
1
 62
7
 10
-647.237132269411
 20
-63.82907899777078
 30
0
 11
-649.686622012194
 21
-66.27856874055397
 31
0
  0
LINE
  8
1
 62
7
 10
-643.8910670544598
 20
-64.72565446993883
 30
0
 11
-647.237132269411
 21
-63.82907899777078
 31
0
  0
LINE
  8
1
 62
7
 10
-642.9944915822916
 20
-68.07171968489007
 30
0
 11
-643.8910670544598
 21
-64.72565446993883
 31
0
  0
LINE
  8
1
 62
7
 10
-645.4439813250748
 20
-70.52120942767326
 30
0
 11
-642.9944915822916
 21
-68.07171968489007
 31
0
  0
LINE
  8
1
 62
7
 10
-648.7900465400261
 20
-69.6246339555052
 30
0
 11
-645.4439813250748
 21
-70.52120942767326
 31
0
  0
LINE
  8
1
 62
7
 10
-649.4576596676806
 20
78
 30
0
 11
-622.0256505679944
 21
78
 31
0
  0
LINE
  8
1
 62
7
 10
-657.1654125845208
 20
42.8602379834737
 30
0
 11
-657.1654125845208
 21
70.29224708315991
 31
0
  0
LINE
  8
1
 62
7
 10
-645.4439813250748
 20
70.5212094276732
 30
0
 11
-648.7900465400261
 21
69.6246339555052
 31
0
  0
LINE
  8
1
 62
7
 10
-642.9944915822915
 20
68.0717196848901
 30
0
 11
-645.4439813250748
 21
70.5212094276732
 31
0
  0
LINE
  8
1
 62
7
 10
-643.8910670544597
 20
64.72565446993892
 30
0
 11
-642.9944915822915
 21
68.0717196848901
 31
0
  0
LINE
  8
1
 62
7
 10
-647.2371322694108
 20
63.82907899777081
 30
0
 11
-643.8910670544597
 21
64.72565446993892
 31
0
  0
LINE
  8
1
 62
7
 10
-649.686622012194
 20
66.27856874055391
 30
0
 11
-647.2371322694108
 21
63.82907899777081
 31
0
  0
LINE
  8
1
 62
7
 10
-648.7900465400261
 20
69.6246339555052
 30
0
 11
-649.686622012194
 21
66.27856874055391
 31
0
  0
LINE
  8
1
 62
7
 10
-501.1654125845207
 20
70.29224708315979
 30
0
 11
-501.1654125845207
 21
42.86023798347361
 31
0
  0
LINE
  8
1
 62
7
 10
-536.3051746010472
 20
78
 30
0
 11
-508.8731655013609
 21
78
 31
0
  0
LINE
  8
1
 62
7
 10
-508.6442031568476
 20
66.27856874055399
 30
0
 11
-509.5407786290156
 21
69.6246339555052
 31
0
  0
LINE
  8
1
 62
7
 10
-511.0936928996308
 20
63.82907899777081
 30
0
 11
-508.6442031568476
 21
66.27856874055399
 31
0
  0
LINE
  8
1
 62
7
 10
-514.439758114582
 20
64.7256544699388
 30
0
 11
-511.0936928996308
 21
63.82907899777081
 31
0
  0
LINE
  8
1
 62
7
 10
-515.33633358675
 20
68.0717196848901
 30
0
 11
-514.439758114582
 21
64.7256544699388
 31
0
  0
LINE
  8
1
 62
7
 10
-512.8868438439669
 20
70.5212094276732
 30
0
 11
-515.33633358675
 21
68.0717196848901
 31
0
  0
LINE
  8
1
 62
7
 10
-509.5407786290156
 20
69.6246339555052
 30
0
 11
-512.8868438439669
 21
70.5212094276732
 31
0
  0
LINE
  8
1
 62
3
  6
DASHDOT
 10
-530.0091124761697
 20
-28.3804030999226
 30
0
 11
-542.2088928443714
 21
-21.33685662028711
 31
0
  0
LINE
  8
1
 62
3
  6
DASHDOT
 10
-628.3217126928718
 20
-28.38040309992249
 30
0
 11
-616.1219323246704
 21
-21.33685662028699
 31
0
  0
LINE
  8
1
 62
3
  6
DASHDOT
 10
-579.1654125845208
 20
56.76080619984501
 30
0
 11
-579.1654125845208
 21
42.67371324057402
 31
0
  0
LINE
  8
1
 62
3
  6
DASHED
 10
-5.742959387997075
 20
-3.199999999999989
 30
0
 11
-28.14295938799707
 21
-3.199999999999998
 31
0
  0
LINE
  8
1
 62
3
  6
DASHED
 10
-28.14295938799707
 20
-3.199999999999998
 30
0
 11
-28.14295938799707
 21
3.200000000000003
 31
0
  0
LINE
  8
1
 62
3
  6
DASHED
 10
-28.14295938799707
 20
3.200000000000003
 30
0
 11
-5.742959387997075
 21
3.2
 31
0
  0
LINE
  8
1
 62
3
  6
DASHED
 10
-28.14295938799707
 20
-3.199999999999998
 30
0
 11
-30.45236046475558
 21
3.025928955774395e-015
 31
0
  0
LINE
  8
1
 62
3
  6
DASHED
 10
-30.45236046475558
 20
3.025928955774395e-015
 30
0
 11
-28.14295938799707
 21
3.200000000000003
 31
0
  0
LINE
  8
1
 62
3
  6
DASHED
 10
-5.742959387997075
 20
-4
 30
0
 11
-21.74295938799708
 21
-3.999999999999998
 31
0
  0
LINE
  8
1
 62
3
  6
DASHED
 10
-21.74295938799708
 20
-3.999999999999998
 30
0
 11
-21.74295938799708
 21
4.000000000000002
 31
0
  0
LINE
  8
1
 62
3
  6
DASHED
 10
-21.74295938799708
 20
4.000000000000002
 30
0
 11
-5.742959387997074
 21
4
 31
0
  0
LINE
  8
1
 62
3
  6
DASHED
 10
-21.74295938799708
 20
-3.999999999999998
 30
0
 11
-23.12860003405218
 21
-3.199999999999998
 31
0
  0
LINE
  8
1
 62
3
  6
DASHED
 10
-21.74295938799708
 20
4.000000000000002
 30
0
 11
-23.12860003405218
 21
3.200000000000002
 31
0
  0
LINE
  8
1
 62
3
  6
DASHDOT
 10
-2.742959387997075
 20
-3.673819061467132e-016
 30
0
 11
-34.59048024940388
 21
3.532685733890235e-015
 31
0
  0
LINE
  8
1
 62
7
 10
-67.74295938799696
 20
71
 30
0
 11
-67.74295938799696
 21
-70.99999999999994
 31
0
  0
LINE
  8
1
 62
7
 10
-74.74295938799696
 20
71
 30
0
 11
-74.74295938799696
 21
-70.99999999999994
 31
0
  0
LINE
  8
1
 62
7
 10
-79.94295938799689
 20
60
 30
0
 11
-80.94295938799689
 21
60
 31
0
  0
LINE
  8
1
 62
7
 10
-112.0429593879972
 20
81.4305172142484
 30
0
 11
-112.0429593879972
 21
-81.43051721424843
 31
0
  0
LINE
  8
1
 62
7
 10
-79.74295938799696
 20
84
 30
0
 11
-79.74295938799696
 21
63.89003380467392
 31
0
  0
LINE
  8
1
 62
7
 10
-67.74295938799696
 20
253.5531470824141
 30
0
 11
-67.74295938799696
 21
395.553147082414
 31
0
  0
LINE
  8
1
 62
7
 10
-74.74295938799696
 20
395.553147082414
 30
0
 11
-74.74295938799696
 21
253.5531470824141
 31
0
  0
LINE
  8
1
 62
7
 10
-87.74295938799708
 20
224.553147082414
 30
0
 11
-87.74295938799708
 21
240.0531470824139
 31
0
  0
LINE
  8
1
 62
7
 10
-112.0429593879972
 20
243.1226298681656
 30
0
 11
-112.0429593879972
 21
405.9836642966624
 31
0
  0
LINE
  8
1
 62
7
 10
-79.74295938799696
 20
388.4431808870879
 30
0
 11
-79.74295938799696
 21
408.553147082414
 31
0
  0
LINE
  8
1
 62
7
 10
-177.7687605353968
 20
-17
 30
0
 11
-177.7687605353968
 21
-25
 31
0
  0
LINE
  8
1
 62
7
 10
-189.7688020857219
 20
-25
 30
0
 11
-189.7688020857219
 21
-17
 31
0
  0
LINE
  8
1
 62
7
 10
-298.0429593879973
 20
60
 30
0
 11
-297.0429593879973
 21
60
 31
0
  0
LINE
  8
1
 62
7
 10
-78.74295938799696
 20
-32.49999999999999
 30
0
 11
-75.74295938799696
 21
-32.49999999999999
 31
0
  0
ARC
  8
1
 62
7
 10
-183.7687813105593
 20
-12
 30
0
 40
2.5
 50
53.13010235415598
 51
126.869897645844
  0
ARC
  8
1
 62
7
 10
-183.7687813105593
 20
-12
 30
0
 40
2.50000000000003
 50
234.4649085793083
 51
305.535091420691
  0
ARC
  8
1
 62
7
 10
-183.7687813105593
 20
-12
 30
0
 40
4.999999999999983
 50
224.1457432463722
 51
315.8542567536287
  0
ARC
  8
1
 62
7
 10
-182.7688336262861
 20
-11.00005231572689
 30
0
 40
1.00005231572689
 50
90
 51
270.8288218407683
  0
ARC
  8
1
 62
7
 10
-183.7687813105593
 20
-12
 30
0
 40
5.000000000000201
 50
341.1921904482918
 51
0
  0
ARC
  8
1
 62
7
 10
-183.7687813105593
 20
-12
 30
0
 40
5.000000000000126
 50
23.5781784782012
 51
156.4218215217989
  0
ARC
  8
1
 62
7
 10
-184.7687289948324
 20
-11.00005231572689
 30
0
 40
1.000052315726972
 50
269.1711781592431
 51
90
  0
ARC
  8
1
 62
7
 10
-183.7687813105593
 20
-12
 30
0
 40
5
 50
180
 51
198.8078095517083
  0
ARC
  8
1
 62
7
 10
-206.0187813105593
 20
-28.25
 30
0
 40
1.487499999999898
 50
180
 51
270
  0
ARC
  8
1
 62
7
 10
-209.5187813105593
 20
-28.25
 30
0
 40
1.487500000000011
 50
270
 51
0
  0
ARC
  8
1
 62
7
 10
-209.5187813105593
 20
-31.75
 30
0
 40
1.487499999999983
 50
0
 51
90
  0
ARC
  8
1
 62
7
 10
-206.0187813105593
 20
-31.75
 30
0
 40
1.487499999999979
 50
90
 51
180
  0
ARC
  8
1
 62
7
 10
-186.2939075764064
 20
-40
 30
0
 40
1.487500000000084
 50
135.0000000000027
 51
224.9999999999973
  0
ARC
  8
1
 62
7
 10
-188.7687813105593
 20
-37.52512626584711
 30
0
 40
1.487500000000084
 50
224.9999999999973
 51
315.0000000000027
  0
ARC
  8
1
 62
7
 10
-191.2436550447124
 20
-40
 30
0
 40
1.487500000000084
 50
315.0000000000027
 51
44.99999999999729
  0
ARC
  8
1
 62
7
 10
-188.7687813105593
 20
-42.47487373415291
 30
0
 40
1.487500000000084
 50
44.99999999999729
 51
135.0000000000027
  0
ARC
  8
1
 62
7
 10
-196.2939075764064
 20
-40
 30
0
 40
1.487500000000084
 50
135.0000000000027
 51
224.9999999999973
  0
ARC
  8
1
 62
7
 10
-198.7687813105593
 20
-37.52512626584711
 30
0
 40
1.487500000000084
 50
224.9999999999973
 51
315.0000000000027
  0
ARC
  8
1
 62
7
 10
-201.2436550447124
 20
-40
 30
0
 40
1.487500000000084
 50
315.0000000000027
 51
44.99999999999729
  0
ARC
  8
1
 62
7
 10
-198.7687813105593
 20
-42.47487373415291
 30
0
 40
1.487500000000084
 50
44.99999999999729
 51
135.0000000000027
  0
ARC
  8
1
 62
7
 10
-161.5187813105593
 20
-28.25
 30
0
 40
1.487500000000011
 50
270
 51
0
  0
ARC
  8
1
 62
7
 10
-158.0187813105593
 20
-28.25
 30
0
 40
1.487499999999898
 50
180
 51
270
  0
ARC
  8
1
 62
7
 10
-158.0187813105593
 20
-31.75
 30
0
 40
1.487499999999979
 50
90
 51
180
  0
ARC
  8
1
 62
7
 10
-161.5187813105593
 20
-31.75
 30
0
 40
1.487499999999983
 50
0
 51
90
  0
ARC
  8
1
 62
7
 10
-181.2436550447124
 20
-40
 30
0
 40
1.487500000000084
 50
315.0000000000027
 51
44.99999999999729
  0
ARC
  8
1
 62
7
 10
-178.7687813105593
 20
-37.52512626584711
 30
0
 40
1.487499999999883
 50
225.000000000005
 51
315.0000000000027
  0
ARC
  8
1
 62
7
 10
-176.2939075764064
 20
-40
 30
0
 40
1.487499999999944
 50
134.9999999999973
 51
225.0000000000027
  0
ARC
  8
1
 62
7
 10
-178.7687813105593
 20
-42.47487373415291
 30
0
 40
1.487500000000084
 50
44.99999999999729
 51
134.999999999995
  0
ARC
  8
1
 62
7
 10
-171.2436550447124
 20
-40
 30
0
 40
1.487500000000084
 50
315.0000000000027
 51
44.99999999999729
  0
ARC
  8
1
 62
7
 10
-168.7687813105593
 20
-37.52512626584711
 30
0
 40
1.487499999999883
 50
225.000000000005
 51
315.0000000000027
  0
ARC
  8
1
 62
7
 10
-166.2939075764064
 20
-40
 30
0
 40
1.487499999999944
 50
134.9999999999973
 51
225.0000000000027
  0
ARC
  8
1
 62
7
 10
-168.7687813105593
 20
-42.47487373415291
 30
0
 40
1.487500000000084
 50
44.99999999999729
 51
134.999999999995
  0
ARC
  8
1
 62
7
 10
-579.1654125845208
 20
0
 30
0
 40
22.50000000000002
 50
96.37937020844279
 51
173.6206297915572
  0
ARC
  8
1
 62
7
 10
-579.1654125845208
 20
0
 30
0
 40
22.49999999999994
 50
186.3793702084428
 51
263.6206297915572
  0
ARC
  8
1
 62
7
 10
-579.1654125845208
 20
0
 30
0
 40
22.49999999999999
 50
276.3793702084428
 51
353.6206297915571
  0
ARC
  8
1
 62
7
 10
-579.1654125845208
 20
0
 30
0
 40
22.49999999999994
 50
6.379370208442822
 51
83.62062979155721
  0
ARC
  8
1
 62
7
 10
-579.1654125845208
 20
0
 30
0
 40
105.0000000000001
 50
312.0246275793772
 51
317.9753724206228
  0
ARC
  8
1
 62
7
 10
-511.9902683717987
 20
-67.17514421272206
 30
0
 40
6.500000000000093
 50
156.8536547231979
 51
113.1463452768046
  0
ARC
  8
1
 62
7
 10
-579.1654125845208
 20
0
 30
0
 40
105
 50
222.0246275793772
 51
227.9753724206227
  0
ARC
  8
1
 62
7
 10
-646.3405567972428
 20
-67.17514421272202
 30
0
 40
6.500000000000027
 50
66.85365472319765
 51
23.14634527680295
  0
ARC
  8
1
 62
7
 10
-579.1654125845208
 20
0
 30
0
 40
104.9999999999999
 50
132.0246275793772
 51
137.9753724206228
  0
ARC
  8
1
 62
7
 10
-646.3405567972428
 20
67.17514421272202
 30
0
 40
6.500000000000011
 50
336.853654723197
 51
293.1463452768024
  0
ARC
  8
1
 62
7
 10
-579.1654125845208
 20
0
 30
0
 40
105
 50
42.02462757937715
 51
47.97537242062276
  0
ARC
  8
1
 62
7
 10
-511.9902683717987
 20
67.17514421272202
 30
0
 40
6.500000000000065
 50
246.8536547231967
 51
203.1463452768026
  0
ARC
  8
1
 62
3
  6
DASHDOT
 10
-579.1654125845208
 20
0
 30
0
 40
50.00000000000003
 50
321.15871193885
 51
338.9961411082626
  0
ARC
  8
1
 62
3
  6
DASHDOT
 10
-579.1654125845208
 20
0
 30
0
 40
49.99999999999999
 50
201.1587119388499
 51
218.9961411082627
  0
ARC
  8
1
 62
3
  6
DASHDOT
 10
-579.1654125845208
 20
0
 30
0
 40
50.00000000000002
 50
81.15871193884996
 51
98.99614110826276
  0
ARC
  8
1
 62
7
 10
-176.768781310559
 20
-19
 30
0
 40
9
 50
0
 51
90
  0
ARC
  8
1
 62
7
 10
-176.768781310559
 20
-19
 30
0
 40
7
 50
0
 51
90
  0
ARC
  8
1
 62
7
 10
-182.768781310559
 20
-17
 30
0
 40
3
 50
0
 51
90
  0
ARC
  8
1
 62
7
 10
-190.7687813105593
 20
-19
 30
0
 40
9
 50
90
 51
180
  0
ARC
  8
1
 62
7
 10
-190.7687813105593
 20
-19
 30
0
 40
7
 50
90
 51
180
  0
ARC
  8
1
 62
7
 10
-184.7687813105593
 20
-17
 30
0
 40
3
 50
90
 51
180
  0
ARC
  8
1
 62
7
 10
-121.7429593879971
 20
242.5531470824139
 30
0
 40
2
 50
270
 51
0
  0
ARC
  8
1
 62
7
 10
-245.7429593879973
 20
242.5531470824139
 30
0
 40
2
 50
180
 51
270
  0
ARC
  8
1
 62
7
 10
-116.7429593879971
 20
426.553147082414
 30
0
 40
3
 50
90
 51
180
  0
ARC
  8
1
 62
7
 10
-116.7429593879971
 20
222.553147082414
 30
0
 40
3
 50
180
 51
270
  0
ARC
  8
1
 62
7
 10
-250.7429593879973
 20
222.553147082414
 30
0
 40
3
 50
270
 51
0
  0
ARC
  8
1
 62
7
 10
-250.7429593879973
 20
426.553147082414
 30
0
 40
3
 50
0
 51
90
  0
ARC
  8
1
 62
7
 10
-274.7429593879973
 20
224.553147082414
 30
0
 40
5
 50
180
 51
270
  0
ARC
  8
1
 62
7
 10
-92.74295938799708
 20
224.553147082414
 30
0
 40
5
 50
270
 51
0
  0
ARC
  8
1
 62
7
 10
-92.74295938799708
 20
424.553147082414
 30
0
 40
5
 50
0
 51
90
  0
ARC
  8
1
 62
7
 10
-274.7429593879973
 20
424.553147082414
 30
0
 40
5
 50
90
 51
180
  0
ARC
  8
1
 62
7
 10
-52.24295938799708
 20
324.553147082414
 30
0
 40
3.5
 50
90
 51
270
  0
ARC
  8
1
 62
7
 10
-105.7429593879971
 20
401.053147082414
 30
0
 40
8
 50
90
 51
141.9524925463805
  0
ARC
  8
1
 62
7
 10
-105.7429593879971
 20
248.0531470824139
 30
0
 40
7.999999999999992
 50
218.0475074536187
 51
270
  0
ARC
  8
1
 62
7
 10
-75.74295938799696
 20
358.0531470824141
 30
0
 40
1.000000000000114
 50
270
 51
0
  0
ARC
  8
1
 62
7
 10
-75.74295938799696
 20
291.053147082414
 30
0
 40
1
 50
0
 51
90
  0
ARC
  8
1
 62
7
 10
-263.6429593879972
 20
248.053147082414
 30
0
 40
8
 50
270
 51
0
  0
ARC
  8
1
 62
7
 10
-263.6429593879972
 20
401.053147082414
 30
0
 40
8.000000000000028
 50
0
 51
90
  0
ARC
  8
1
 62
7
 10
-116.7429593879971
 20
243.5531470824139
 30
0
 40
3
 50
90
 51
180
  0
ARC
  8
1
 62
7
 10
-116.7429593879971
 20
405.553147082414
 30
0
 40
3
 50
180
 51
270
  0
ARC
  8
1
 62
7
 10
-121.7429593879971
 20
406.553147082414
 30
0
 40
2
 50
0
 51
90
  0
ARC
  8
1
 62
7
 10
-250.7429593879973
 20
243.5531470824139
 30
0
 40
3
 50
0
 51
90
  0
ARC
  8
1
 62
7
 10
-250.7429593879973
 20
405.553147082414
 30
0
 40
3
 50
270
 51
0
  0
ARC
  8
1
 62
7
 10
-245.7429593879973
 20
406.553147082414
 30
0
 40
2
 50
90
 51
180
  0
ARC
  8
1
 62
7
 10
-105.7429593879971
 20
76.5
 30
0
 40
8
 50
90
 51
141.9524925463807
  0
ARC
  8
1
 62
7
 10
-105.7429593879971
 20
-76.50000000000006
 30
0
 40
8.000000000000044
 50
218.0475074536192
 51
270
  0
ARC
  8
1
 62
7
 10
-75.74295938799696
 20
33.50000000000011
 30
0
 40
1.000000000000107
 50
270
 51
0
  0
ARC
  8
1
 62
7
 10
-263.6429593879972
 20
-76.5
 30
0
 40
8
 50
270
 51
0
  0
ARC
  8
1
 62
7
 10
-263.6429593879972
 20
76.5
 30
0
 40
8.000000000000028
 50
0
 51
90
  0
ARC
  8
1
 62
7
 10
-116.7429593879971
 20
-81.00000000000007
 30
0
 40
3
 50
90
 51
180
  0
ARC
  8
1
 62
7
 10
-116.7429593879971
 20
81
 30
0
 40
3
 50
180
 51
270
  0
ARC
  8
1
 62
7
 10
-116.7429593879971
 20
-94
 30
0
 40
3
 50
180
 51
270
  0
ARC
  8
1
 62
7
 10
-121.7429593879971
 20
82
 30
0
 40
2
 50
0
 51
90
  0
ARC
  8
1
 62
7
 10
-92.74295938799708
 20
-102
 30
0
 40
5
 50
0
 51
90
  0
ARC
  8
1
 62
7
 10
-141.7429593879971
 20
-110
 30
0
 40
5
 50
0
 51
90
  0
ARC
  8
1
 62
7
 10
-250.7429593879973
 20
-81.00000000000007
 30
0
 40
3
 50
0
 51
90
  0
ARC
  8
1
 62
7
 10
-250.7429593879973
 20
81
 30
0
 40
3
 50
270
 51
0
  0
ARC
  8
1
 62
7
 10
-250.7429593879973
 20
-94
 30
0
 40
3
 50
270
 51
0
  0
ARC
  8
1
 62
7
 10
-245.7429593879973
 20
82
 30
0
 40
2
 50
90
 51
180
  0
ARC
  8
1
 62
7
 10
-274.7429593879973
 20
-102
 30
0
 40
5
 50
90
 51
180
  0
ARC
  8
1
 62
7
 10
-225.7429593879973
 20
-110
 30
0
 40
5
 50
90
 51
180
  0
ARC
  8
1
 62
7
 10
-505.1654125845207
 20
74
 30
0
 40
10
 50
0
 51
90
  0
ARC
  8
1
 62
7
 10
-479.1654125845207
 20
-102
 30
0
 40
5
 50
0
 51
90
  0
ARC
  8
1
 62
7
 10
-504.1654125845207
 20
-102
 30
0
 40
5
 50
90
 51
180
  0
ARC
  8
1
 62
7
 10
-514.1654125845207
 20
-110
 30
0
 40
5
 50
0
 51
90
  0
ARC
  8
1
 62
7
 10
-504.1654125845207
 20
-102
 30
0
 40
5
 50
90
 51
180
  0
ARC
  8
1
 62
7
 10
-653.1654125845208
 20
74
 30
0
 40
10
 50
90
 51
180
  0
ARC
  8
1
 62
7
 10
-644.1654125845208
 20
-110
 30
0
 40
5
 50
90
 51
180
  0
ARC
  8
1
 62
7
 10
-654.1654125845208
 20
-102
 30
0
 40
5
 50
0
 51
90
  0
ARC
  8
1
 62
7
 10
-679.1654125845208
 20
-102
 30
0
 40
5
 50
90
 51
180
  0
ARC
  8
1
 62
7
 10
-182.7688336262861
 20
-12.99994768427311
 30
0
 40
1.000052315726975
 50
89.17117815923173
 51
270
  0
ARC
  8
1
 62
7
 10
-184.7687289948324
 20
-12.99994768427311
 30
0
 40
1.00005231572689
 50
270
 51
90.82882184075687
  0
ARC
  8
1
 62
7
 10
-182.768781310559
 20
-17
 30
0
 40
5.000020775162199
 50
0
 51
89.83483269278202
  0
ARC
  8
1
 62
7
 10
-184.7687813105593
 20
-17
 30
0
 40
5.000020775162257
 50
90.16516730721799
 51
180
  0
ARC
  8
1
 62
7
 10
-75.74295938799696
 20
-33.5000000000001
 30
0
 40
1.000000000000114
 50
0
 51
90
  0
CIRCLE
  8
1
 62
7
 10
-207.7687813105593
 20
-30
 30
0
 40
2.75
  0
CIRCLE
  8
1
 62
7
 10
-188.7687813105593
 20
-40
 30
0
 40
2.75
  0
CIRCLE
  8
1
 62
7
 10
-198.7687813105593
 20
-40
 30
0
 40
2.75
  0
CIRCLE
  8
1
 62
7
 10
-159.7687813105593
 20
-30
 30
0
 40
2.75
  0
CIRCLE
  8
1
 62
7
 10
-178.7687813105593
 20
-40
 30
0
 40
2.75
  0
CIRCLE
  8
1
 62
7
 10
-168.7687813105593
 20
-40
 30
0
 40
2.75
  0
CIRCLE
  8
1
 62
7
 10
-102.7429593879971
 20
234.5531470824139
 30
0
 40
5.500000000000028
  0
CIRCLE
  8
1
 62
7
 10
-264.7429593879973
 20
234.5531470824139
 30
0
 40
5.5
  0
CIRCLE
  8
1
 62
7
 10
-264.7429593879973
 20
234.5531470824139
 30
0
 40
5.5
  0
CIRCLE
  8
1
 62
7
 10
-102.7429593879971
 20
414.553147082414
 30
0
 40
5.500000000000028
  0
CIRCLE
  8
1
 62
7
 10
-264.7429593879973
 20
414.553147082414
 30
0
 40
5.5
  0
CIRCLE
  8
1
 62
3
 10
-579.1654125845208
 20
0
 30
0
 40
13.50000000000011
  0
CIRCLE
  8
1
 62
7
 10
-579.1654125845208
 20
0
 30
0
 40
15.00000000000011
  0
CIRCLE
  8
1
 62
7
 10
-579.1654125845208
 20
0
 30
0
 40
85.00000000000011
  0
CIRCLE
  8
1
 62
7
 10
-535.8641423952988
 20
-25.00000000000009
 30
0
 40
4.000000000000114
  0
CIRCLE
  8
1
 62
3
 10
-535.8641423952988
 20
-25.00000000000009
 30
0
 40
5.000000000000114
  0
CIRCLE
  8
1
 62
7
 10
-622.4666827737427
 20
-25
 30
0
 40
4.000000000000114
  0
CIRCLE
  8
1
 62
3
 10
-622.4666827737427
 20
-25
 30
0
 40
5.000000000000114
  0
CIRCLE
  8
1
 62
7
 10
-579.1654125845208
 20
50
 30
0
 40
4.000000000000114
  0
CIRCLE
  8
1
 62
3
 10
-579.1654125845208
 20
50
 30
0
 40
5.000000000000114
  0
CIRCLE
  8
1
 62
7
 10
-579.1654125845208
 20
0
 30
0
 40
89.00000000000011
  0
CIRCLE
  8
1
 62
7
 10
-579.1654125845208
 20
0
 30
0
 40
71.00000000000011
  0
CIRCLE
  8
1
 62
7
 10
-579.1654125845208
 20
0
 30
0
 40
37.50000000000011
  0
TEXT
  8
1
 62
7
 10
-196.9187813105593
 20
-32.5
 30
0
 40
3.5
  1
CL
 41
0.8910000000000004
  7
SIMPLEX
  0
TEXT
  8
1
 62
7
 10
-176.9187813105593
 20
-32.5
 30
0
 40
3.5
  1
BR
 41
0.8910000000000004
  7
SIMPLEX
  0
TEXT
  8
1
 62
7
 10
-619.6654125845208
 20
341.113532632837
 30
0
 40
12
  1
TMP 10
 41
0.9
  7
SIMPLEX
  0
TEXT
  8
1
 62
7
 10
-619.6654125845208
 20
318.613532632837
 30
0
 40
12
  1
DC1805
 41
0.9
  7
SIMPLEX
  0
ENDSEC
  0
EOF
