  0
SECTION
  2
HEADER
  9
$ACADVER
  1
AC1009
  9
$INSBASE
 10
0
 20
0
  9
$EXTMIN
 10
-816.2441739899957
 20
-179.9471764126497
  9
$EXTMAX
 10
30.40939137125926
 20
489.6520486649146
  9
$LIMMIN
 10
-816.2441739899957
 20
-179.9471764126497
  9
$LIMMAX
 10
30.40939137125926
 20
489.6520486649146
  9
$VIEWCTR
 10
10
 20
10
  9
$VIEWSIZE
 40
10
  9
$SNAPMODE
 70
0
  9
$SNAPUNIT
 10
1
 20
1
  9
$SNAPBASE
 10
0
 20
0
  9
$SNAPANG
 50
0
  9
$SNAPSTYLE
 70
0
  9
$SNAPISOPAIR
 70
0
  9
$GRIDMODE
 70
0
  9
$GRIDUNIT
 10
0
 20
0
  9
$ORTHOMODE
 70
0
  9
$REGENMODE
 70
1
  9
$FILLMODE
 70
1
  9
$QTEXTMODE
 70
0
  9
$DRAGMODE
 70
2
  9
$LTSCALE
 40
1
  9
$OSMODE
 70
0
  9
$ATTMODE
 70
1
  9
$TEXTSIZE
 40
3.5
  9
$TRACEWID
 40
0.5
  9
$TEXTSTYLE
  7
STANDARD
  9
$CLAYER
  8
0
  9
$CELTYPE
  6
BYLAYER
  9
$CECOLOR
 62
256
  9
$DIMSCALE
 40
1
  9
$DIMASZ
 40
0.18
  9
$DIMEXO
 40
0.0625
  9
$DIMDLI
 40
0.38
  9
$DIMRND
 40
0
  9
$DIMDLE
 40
0
  9
$DIMEXE
 40
0.18
  9
$DIMTP
 40
0
  9
$DIMTM
 40
0
  9
$DIMTXT
 40
0.18
  9
$DIMCEN
 40
0.09
  9
$DIMTSZ
 40
0
  9
$DIMTOL
 70
0
  9
$DIMLIM
 70
0
  9
$DIMTIH
 70
1
  9
$DIMTOH
 70
1
  9
$DIMSE1
 70
0
  9
$DIMSE2
 70
0
  9
$DIMTAD
 70
0
  9
$DIMZIN
 70
0
  9
$DIMBLK
  1

  9
$DIMASO
 70
1
  9
$DIMSHO
 70
1
  9
$DIMPOST
  1

  9
$DIMAPOST
  1

  9
$DIMALT
 70
0
  9
$DIMALTD
 70
2
  9
$DIMALTF
 40
25.4
  9
$DIMLFAC
 40
1
  9
$DIMTOFL
 70
0
  9
$DIMTVP
 40
0
  9
$DIMTIX
 70
0
  9
$DIMSOXD
 70
0
  9
$DIMSAH
 70
0
  9
$DIMBLK1
  1

  9
$DIMBLK2
  1

  9
$DIMSTYLE
  2
*UNNAMED
  9
$DIMCLRD
 70
0
  9
$DIMCLRE
 70
0
  9
$DIMCLRT
 70
0
  9
$DIMTFAC
 40
1
  9
$DIMGAP
 40
0.09
  9
$LUNITS
 70
2
  9
$LUPREC
 70
4
  9
$AXISMODE
 70
0
  9
$AXISUNIT
 10
0
 20
0
  9
$SKETCHINC
 40
0.1
  9
$FILLETRAD
 40
2
  9
$AUNITS
 70
0
  9
$AUPREC
 70
0
  9
$MENU
  1
ACAD
  9
$ELEVATION
 40
0
  9
$THICKNESS
 40
0
  9
$VIEWDIR
 10
0
 20
0
 30
1
  9
$LIMCHECK
 70
0
  9
$BLIPMODE
 70
1
  9
$CHAMFERA
 40
0
  9
$CHAMFERB
 40
0
  9
$FASTZOOM
 70
1
  9
$SKPOLY
 70
0
  9
$ANGBASE
 50
0
  9
$ANGDIR
 70
0
  9
$PDMODE
 70
0
  9
$PDSIZE
 40
0
  9
$PLINEWID
 40
0
  9
$COORDS
 70
2
  0
ENDSEC
  0
SECTION
  2
TABLES
  0
TABLE
  2
DIMSTYLE
 70
0
  0
ENDTAB
  0
TABLE
  2
LTYPE
 70
9
  0
LTYPE
  2
CONTINUOUS
 70
64
  3
Solid line
 72
65
 73
0
 40
0
  0
LTYPE
  2
BORDER
 70
64
  3
__ __ . __ __ .
 72
65
 73
6
 40
38.99062472058411
 49
11.14017849159546
 49
-5.57008924579773
 49
11.14017849159546
 49
-5.57008924579773
 49
0
 49
-5.57008924579773
  0
LTYPE
  2
CENTER
 70
64
  3
____ _ ____ _
 72
65
 73
4
 40
44.56071396638184
 49
27.85044622898865
 49
-5.57008924579773
 49
5.57008924579773
 49
-5.57008924579773
  0
LTYPE
  2
DASHDOT
 70
64
  3
__ . __ . __ .
 72
65
 73
4
 40
22.28035698319092
 49
11.14017849159546
 49
-5.57008924579773
 49
0
 49
-5.57008924579773
  0
LTYPE
  2
DASHED
 70
64
  3
__ __ __ __ __
 72
65
 73
2
 40
16.71026773739319
 49
11.14017849159546
 49
-5.57008924579773
  0
LTYPE
  2
DIVIDE
 70
64
  3
__ . . __ . . 
 72
65
 73
6
 40
27.85044622898865
 49
11.14017849159546
 49
-5.57008924579773
 49
0
 49
-5.57008924579773
 49
0
 49
-5.57008924579773
  0
LTYPE
  2
DOT
 70
64
  3
..............
 72
65
 73
4
 40
11.14017849159546
 49
0
 49
-5.57008924579773
 49
0
 49
-5.57008924579773
  0
LTYPE
  2
HIDDEN
 70
64
  3
_ _ _ _ _ _ _
 72
65
 73
2
 40
8.355133868696594
 49
5.57008924579773
 49
-2.785044622898865
  0
LTYPE
  2
PHANTOM
 70
64
  3
_____ _ _ _____ _ _ 
 72
65
 73
6
 40
55.7008924579773
 49
27.85044622898865
 49
-5.57008924579773
 49
5.57008924579773
 49
-5.57008924579773
 49
5.57008924579773
 49
-5.57008924579773
  0
ENDTAB
  0
TABLE
  2
LAYER
 70
3
  0
LAYER
  2
1
 70
0
 62
7
  6
CONTINUOUS
  0
LAYER
  2
0
 70
0
 62
7
  6
CONTINUOUS
  0
ENDTAB
  0
TABLE
  2
STYLE
 70
4
  0
STYLE
  2
STANDARD
 70
0
 40
0
 41
1
 50
0
 71
0
 42
3.5
  3
txt
  4

  0
STYLE
  2
SIMPLEX
 70
0
 40
0
 41
1
 50
0
 71
0
 42
3.5
  3
simplex
  4

  0
STYLE
  2
COMPLEX
 70
0
 40
0
 41
1
 50
0
 71
0
 42
3.5
  3
complex
  4

  0
STYLE
  2
ITALIC
 70
0
 40
0
 41
1
 50
0
 71
0
 42
3.5
  3
italic
  4

  0
ENDTAB
  0
TABLE
  2
VIEW
 70
0
  0
ENDTAB
  0
ENDSEC
  0
SECTION
  2
BLOCKS
  0
ENDSEC
  0
SECTION
  2
ENTITIES
  0
LINE
  8
1
 62
7
 10
-342.2530412459452
 20
39.76415874420962
 30
0
 11
-341.0530412459455
 21
39.76415874420962
 31
0
  0
LINE
  8
1
 62
7
 10
-342.2530412459452
 20
433.6520486649147
 30
0
 11
-341.0530412459455
 21
433.6520486649147
 31
0
  0
LINE
  8
1
 62
7
 10
-120.2530412459453
 20
254.6520486649147
 30
0
 11
-120.2530412459453
 21
454.6520486649146
 31
0
  0
LINE
  8
1
 62
7
 10
-123.2530412459453
 20
254.6520486649147
 30
0
 11
-117.2530412459453
 21
254.6520486649147
 31
0
  0
LINE
  8
1
 62
7
 10
-79.25304124594531
 20
433.6520486649147
 30
0
 11
-80.45304124594541
 21
433.6520486649147
 31
0
  0
LINE
  8
1
 62
7
 10
-63.75304124594543
 20
261.1520486649146
 30
0
 11
-72.75304124594544
 21
261.1520486649146
 31
0
  0
LINE
  8
1
 62
7
 10
-72.75304124594544
 20
261.1520486649146
 30
0
 11
-72.75304124594544
 21
448.1520486649147
 31
0
  0
LINE
  8
1
 62
7
 10
-63.75304124594543
 20
448.1520486649147
 30
0
 11
-63.75304124594543
 21
261.1520486649146
 31
0
  0
LINE
  8
1
 62
7
 10
-60.65304124594531
 20
384.3133100759426
 30
0
 11
-60.6530412459453
 21
324.9907872538868
 31
0
  0
LINE
  8
1
 62
7
 10
-210.2531666525619
 20
-76.2358412557905
 30
0
 11
-210.2531666525619
 21
-66.29260924409137
 31
0
  0
LINE
  8
1
 62
7
 10
-198.2531251022367
 20
-66.29260924409137
 30
0
 11
-198.2531251022367
 21
-76.2358412557905
 31
0
  0
LINE
  8
1
 62
3
  6
DASHDOT
 10
-681.2441739899957
 20
17.76583002257171
 30
0
 11
-681.2441739899957
 21
34.05873539058469
 31
0
  0
LINE
  8
1
 62
3
  6
DASHDOT
 10
-730.6090693752273
 20
-67.7366768949716
 30
0
 11
-744.7191393253823
 21
-75.88312957897807
 31
0
  0
LINE
  8
1
 62
3
  6
DASHDOT
 10
-631.8792786047643
 20
-67.73667689497162
 30
0
 11
-617.7692086546092
 21
-75.88312957897813
 31
0
  0
LINE
  8
1
 62
3
  6
DASHDOT
 10
-671.8952088544119
 20
-39.2358412557905
 30
0
 11
-690.5931391255797
 21
-39.2358412557905
 31
0
  0
LINE
  8
1
 62
3
  6
DASHDOT
 10
-681.2441739899957
 20
-29.8868761202066
 30
0
 11
-681.2441739899957
 21
-48.5848063913744
 31
0
  0
LINE
  8
1
 62
7
 10
-593.1253739238991
 20
48.88295881030611
 30
0
 11
-597.5867942105008
 21
50.07839277319692
 31
0
  0
LINE
  8
1
 62
7
 10
-597.5867942105008
 20
50.07839277319692
 30
0
 11
-600.8527805342117
 21
46.8124064494859
 31
0
  0
LINE
  8
1
 62
7
 10
-600.8527805342117
 20
46.8124064494859
 30
0
 11
-599.6573465713209
 21
42.3509861628843
 31
0
  0
LINE
  8
1
 62
7
 10
-599.6573465713209
 20
42.3509861628843
 30
0
 11
-595.1959262847194
 21
41.1555521999935
 31
0
  0
LINE
  8
1
 62
7
 10
-595.1959262847194
 20
41.1555521999935
 30
0
 11
-591.9299399610084
 21
44.42153852370452
 31
0
  0
LINE
  8
1
 62
7
 10
-591.9299399610084
 20
44.42153852370452
 30
0
 11
-593.1253739238991
 21
48.88295881030611
 31
0
  0
LINE
  8
1
 62
7
 10
-629.7053536697749
 20
60.7641587442095
 30
0
 11
-594.3174807364271
 21
60.7641587442095
 31
0
  0
LINE
  8
1
 62
7
 10
-581.2441739899957
 20
47.69085199777802
 30
0
 11
-581.2441739899957
 21
12.3029790644302
 31
0
  0
LINE
  8
1
 62
7
 10
-769.3629740560923
 20
48.88295881030611
 30
0
 11
-770.5584080189831
 21
44.42153852370452
 31
0
  0
LINE
  8
1
 62
7
 10
-770.5584080189831
 20
44.42153852370452
 30
0
 11
-767.2924216952722
 21
41.15555219999361
 31
0
  0
LINE
  8
1
 62
7
 10
-767.2924216952722
 20
41.15555219999361
 30
0
 11
-762.8310014086706
 21
42.3509861628843
 31
0
  0
LINE
  8
1
 62
7
 10
-762.8310014086706
 20
42.3509861628843
 30
0
 11
-761.6355674457798
 21
46.8124064494859
 31
0
  0
LINE
  8
1
 62
7
 10
-761.6355674457798
 20
46.8124064494859
 30
0
 11
-764.9015537694907
 21
50.07839277319692
 31
0
  0
LINE
  8
1
 62
7
 10
-764.9015537694907
 20
50.07839277319692
 30
0
 11
-769.3629740560923
 21
48.88295881030611
 31
0
  0
LINE
  8
1
 62
7
 10
-781.2441739899957
 20
12.3029790644303
 30
0
 11
-781.2441739899957
 21
47.6908519977781
 31
0
  0
LINE
  8
1
 62
7
 10
-768.1708672435643
 20
60.7641587442095
 30
0
 11
-732.7829943102165
 21
60.7641587442095
 31
0
  0
LINE
  8
1
 62
7
 10
-769.3629740560924
 20
-127.3546413218871
 30
0
 11
-764.9015537694908
 21
-128.5500752847778
 31
0
  0
LINE
  8
1
 62
7
 10
-764.9015537694908
 20
-128.5500752847778
 30
0
 11
-761.6355674457798
 21
-125.2840889610669
 31
0
  0
LINE
  8
1
 62
7
 10
-761.6355674457798
 20
-125.2840889610669
 30
0
 11
-762.8310014086706
 21
-120.8226686744653
 31
0
  0
LINE
  8
1
 62
7
 10
-762.8310014086706
 20
-120.8226686744653
 30
0
 11
-767.2924216952722
 21
-119.6272347115745
 31
0
  0
LINE
  8
1
 62
7
 10
-767.2924216952722
 20
-119.6272347115745
 30
0
 11
-770.5584080189831
 21
-122.8932210352854
 31
0
  0
LINE
  8
1
 62
7
 10
-770.5584080189831
 20
-122.8932210352854
 30
0
 11
-769.3629740560924
 21
-127.3546413218871
 31
0
  0
LINE
  8
1
 62
7
 10
-732.7829943102165
 20
-139.2358412557905
 30
0
 11
-768.1708672435643
 21
-139.2358412557905
 31
0
  0
LINE
  8
1
 62
7
 10
-781.2441739899957
 20
-126.162534509359
 30
0
 11
-781.2441739899957
 21
-90.77466157601123
 31
0
  0
LINE
  8
1
 62
7
 10
-593.1253739238991
 20
-127.3546413218872
 30
0
 11
-591.9299399610084
 21
-122.8932210352855
 31
0
  0
LINE
  8
1
 62
7
 10
-591.9299399610084
 20
-122.8932210352855
 30
0
 11
-595.1959262847194
 21
-119.6272347115746
 31
0
  0
LINE
  8
1
 62
7
 10
-595.1959262847194
 20
-119.6272347115746
 30
0
 11
-599.6573465713209
 21
-120.8226686744653
 31
0
  0
LINE
  8
1
 62
7
 10
-599.6573465713209
 20
-120.8226686744653
 30
0
 11
-600.8527805342118
 21
-125.2840889610669
 31
0
  0
LINE
  8
1
 62
7
 10
-600.8527805342118
 20
-125.2840889610669
 30
0
 11
-597.5867942105008
 21
-128.5500752847778
 31
0
  0
LINE
  8
1
 62
7
 10
-597.5867942105008
 20
-128.5500752847778
 30
0
 11
-593.1253739238991
 21
-127.3546413218872
 31
0
  0
LINE
  8
1
 62
7
 10
-581.2441739899957
 20
-90.77466157601127
 30
0
 11
-581.2441739899957
 21
-126.1625345093591
 31
0
  0
LINE
  8
1
 62
7
 10
-594.3174807364272
 20
-139.2358412557905
 30
0
 11
-629.705353669775
 21
-139.2358412557905
 31
0
  0
LINE
  8
1
 62
7
 10
-718.9303783624183
 20
66.76415874420951
 30
0
 11
-767.2441739899957
 21
66.76415874420951
 31
0
  0
LINE
  8
1
 62
7
 10
-787.2441739899957
 20
46.7641587442095
 30
0
 11
-787.2441739899957
 21
-1.549636883367967
 31
0
  0
LINE
  8
1
 62
7
 10
-787.2441739899957
 20
-76.92204562821303
 30
0
 11
-787.2441739899957
 21
-106.2358412557905
 31
0
  0
LINE
  8
1
 62
7
 10
-816.2441739899957
 20
-158.2358412557905
 30
0
 11
-816.2441739899957
 21
-171.2358412557905
 31
0
  0
LINE
  8
1
 62
7
 10
-771.2441739899957
 20
-158.2358412557905
 30
0
 11
-771.2441739899957
 21
-171.2358412557905
 31
0
  0
LINE
  8
1
 62
7
 10
-811.2441739899957
 20
-153.2358412557905
 30
0
 11
-776.2441739899957
 21
-153.2358412557905
 31
0
  0
LINE
  8
1
 62
7
 10
-816.2441739899957
 20
-171.2358412557905
 30
0
 11
-771.2441739899957
 21
-171.2358412557905
 31
0
  0
LINE
  8
1
 62
7
 10
-787.2441739899957
 20
-106.2358412557905
 30
0
 11
-815.046119965839
 21
-154.9885028384448
 31
0
  0
LINE
  8
1
 62
7
 10
-596.2441739899957
 20
-164.2358412557905
 30
0
 11
-766.2441739899957
 21
-164.2358412557905
 31
0
  0
LINE
  8
1
 62
7
 10
-595.2441739899957
 20
66.76415874420951
 30
0
 11
-643.5579696175732
 21
66.76415874420951
 31
0
  0
LINE
  8
1
 62
7
 10
-575.2441739899957
 20
-1.549636883367967
 30
0
 11
-575.2441739899957
 21
46.7641587442095
 31
0
  0
LINE
  8
1
 62
7
 10
-575.2441739899957
 20
-106.2358412557905
 30
0
 11
-575.2441739899957
 21
-76.92204562821303
 31
0
  0
LINE
  8
1
 62
7
 10
-547.4422280141524
 20
-154.9885028384448
 30
0
 11
-575.2441739899957
 21
-106.2358412557905
 31
0
  0
LINE
  8
1
 62
7
 10
-546.2441739899957
 20
-171.2358412557905
 30
0
 11
-546.2441739899957
 21
-158.2358412557905
 31
0
  0
LINE
  8
1
 62
7
 10
-591.2441739899957
 20
-171.2358412557905
 30
0
 11
-591.2441739899957
 21
-158.2358412557905
 31
0
  0
LINE
  8
1
 62
7
 10
-586.2441739899957
 20
-153.2358412557905
 30
0
 11
-551.2441739899957
 21
-153.2358412557905
 31
0
  0
LINE
  8
1
 62
7
 10
-591.2441739899957
 20
-171.2358412557905
 30
0
 11
-546.2441739899957
 21
-171.2358412557905
 31
0
  0
LINE
  8
1
 62
3
  6
DASHDOT
 10
-796.2441739899957
 20
-146.7428916155027
 30
0
 11
-796.2441739899957
 21
-179.0496542054308
 31
0
  0
LINE
  8
1
 62
3
  6
DASHDOT
 10
-566.2441739899957
 20
-179.0496542054308
 30
0
 11
-566.2441739899957
 21
-146.7428916155027
 31
0
  0
LINE
  8
1
 62
7
 10
-684.2441739899957
 20
-12.73584125579051
 30
0
 11
-678.2441739899957
 21
-12.73584125579051
 31
0
  0
LINE
  8
1
 62
7
 10
-684.2441739899957
 20
-10.39143105207859
 30
0
 11
-684.2441739899957
 21
-12.73584125579051
 31
0
  0
LINE
  8
1
 62
7
 10
-678.2441739899957
 20
-10.39143105207859
 30
0
 11
-678.2441739899957
 21
-12.73584125579051
 31
0
  0
LINE
  8
1
 62
7
 10
-707.7441739899957
 20
-42.2358412557905
 30
0
 11
-707.7441739899957
 21
-36.2358412557905
 31
0
  0
LINE
  8
1
 62
7
 10
-710.0885841937077
 20
-42.2358412557905
 30
0
 11
-707.7441739899957
 21
-42.2358412557905
 31
0
  0
LINE
  8
1
 62
7
 10
-710.0885841937077
 20
-36.2358412557905
 30
0
 11
-707.7441739899957
 21
-36.2358412557905
 31
0
  0
LINE
  8
1
 62
7
 10
-678.2441739899957
 20
-65.73584125579049
 30
0
 11
-684.2441739899957
 21
-65.73584125579049
 31
0
  0
LINE
  8
1
 62
7
 10
-678.2441739899957
 20
-68.08025145950242
 30
0
 11
-678.2441739899957
 21
-65.73584125579049
 31
0
  0
LINE
  8
1
 62
7
 10
-684.2441739899957
 20
-68.08025145950241
 30
0
 11
-684.2441739899957
 21
-65.73584125579049
 31
0
  0
LINE
  8
1
 62
7
 10
-654.7441739899957
 20
-36.23584125579051
 30
0
 11
-654.7441739899957
 21
-42.23584125579051
 31
0
  0
LINE
  8
1
 62
7
 10
-652.3997637862838
 20
-36.23584125579051
 30
0
 11
-654.7441739899957
 21
-36.23584125579051
 31
0
  0
LINE
  8
1
 62
7
 10
-652.3997637862839
 20
-42.23584125579051
 30
0
 11
-654.7441739899957
 21
-42.23584125579051
 31
0
  0
LINE
  8
1
 62
7
 10
-89.2530412459453
 20
-153.2358412557905
 30
0
 11
-319.2530412459454
 21
-153.2358412557905
 31
0
  0
LINE
  8
1
 62
7
 10
-324.2530412459454
 20
-158.2358412557905
 30
0
 11
-324.2530412459454
 21
-171.2358412557905
 31
0
  0
LINE
  8
1
 62
7
 10
-324.2530412459454
 20
-171.2358412557905
 30
0
 11
-264.2530412459454
 21
-171.2358412557905
 31
0
  0
LINE
  8
1
 62
7
 10
-264.2530412459454
 20
-171.2358412557905
 30
0
 11
-264.2530412459454
 21
-169.2358412557905
 31
0
  0
LINE
  8
1
 62
7
 10
-259.2530412459454
 20
-164.2358412557905
 30
0
 11
-149.2530412459453
 21
-164.2358412557905
 31
0
  0
LINE
  8
1
 62
7
 10
-282.2530412459454
 20
-145.2358412557905
 30
0
 11
-282.2530412459454
 21
63.7641587442095
 31
0
  0
LINE
  8
1
 62
3
  6
DASHDOT
 10
-304.2530412459454
 20
-145.4851348991917
 30
0
 11
-304.2530412459454
 21
-179.9471764126497
 31
0
  0
LINE
  8
1
 62
7
 10
-285.2530412459454
 20
60.7641587442095
 30
0
 11
-291.2530412459454
 21
60.7641587442096
 31
0
  0
LINE
  8
1
 62
7
 10
-291.2530412459454
 20
-139.2358412557905
 30
0
 11
-285.2530412459454
 21
-139.2358412557905
 31
0
  0
LINE
  8
1
 62
7
 10
-279.2530412459454
 20
66.76415874420951
 30
0
 11
-129.2530412459453
 21
66.76415874420951
 31
0
  0
LINE
  8
1
 62
7
 10
-294.2530412459454
 20
-146.2358412557905
 30
0
 11
-294.2530412459454
 21
67.7641587442096
 31
0
  0
LINE
  8
1
 62
7
 10
-329.7530412459454
 20
67.7641587442096
 30
0
 11
-329.7530412459454
 21
-146.2358412557905
 31
0
  0
LINE
  8
1
 62
7
 10
-326.5776147654024
 20
-151.7358412557905
 30
0
 11
-326.5776147654024
 21
73.2641587442096
 31
0
  0
LINE
  8
1
 62
7
 10
-294.2530412459454
 20
-146.2358412557905
 30
0
 11
-310.6530412459453
 21
-146.2358412557905
 31
0
  0
LINE
  8
1
 62
7
 10
-343.8530412459453
 20
-145.7358412557905
 30
0
 11
-343.8530412459453
 21
39.76415874420962
 31
0
  0
LINE
  8
1
 62
3
  6
DASHDOT
 10
-411.7530412459454
 20
-39.23584125579051
 30
0
 11
-420.483065684025
 21
-39.2358412557905
 31
0
  0
LINE
  8
1
 62
7
 10
-332.8530412459453
 20
68.2641587442096
 30
0
 11
-332.8530412459453
 21
-146.7358412557905
 31
0
  0
LINE
  8
1
 62
7
 10
-332.4530412459452
 20
67.7641587442096
 30
0
 11
-332.4530412459452
 21
-146.2358412557905
 31
0
  0
LINE
  8
1
 62
7
 10
-341.0530412459455
 20
-146.7358412557905
 30
0
 11
-341.0530412459455
 21
68.2641587442096
 31
0
  0
LINE
  8
1
 62
7
 10
-310.6530412459453
 20
-151.7358412557905
 30
0
 11
-310.6530412459453
 21
73.2641587442096
 31
0
  0
LINE
  8
1
 62
7
 10
-326.5776147654024
 20
73.2641587442096
 30
0
 11
-310.6530412459453
 21
73.2641587442096
 31
0
  0
LINE
  8
1
 62
7
 10
-329.7530412459454
 20
67.7641587442096
 30
0
 11
-326.5776147654024
 21
73.2641587442096
 31
0
  0
LINE
  8
1
 62
7
 10
-332.4530412459452
 20
67.7641587442096
 30
0
 11
-329.7530412459454
 21
67.7641587442096
 31
0
  0
LINE
  8
1
 62
7
 10
-329.7530412459454
 20
-146.2358412557905
 30
0
 11
-332.4530412459452
 21
-146.2358412557905
 31
0
  0
LINE
  8
1
 62
7
 10
-326.5776147654024
 20
-151.7358412557905
 30
0
 11
-329.7530412459454
 21
-146.2358412557905
 31
0
  0
LINE
  8
1
 62
7
 10
-310.6530412459453
 20
-151.7358412557905
 30
0
 11
-326.5776147654024
 21
-151.7358412557905
 31
0
  0
LINE
  8
1
 62
7
 10
-291.2530412459454
 20
64.7641587442096
 30
0
 11
-294.2530412459454
 21
67.7641587442096
 31
0
  0
LINE
  8
1
 62
7
 10
-294.2530412459454
 20
-146.2358412557905
 30
0
 11
-291.2530412459454
 21
-143.2358412557905
 31
0
  0
LINE
  8
1
 62
7
 10
-342.2530412459452
 20
-145.7358412557905
 30
0
 11
-342.2530412459452
 21
39.76415874420962
 31
0
  0
LINE
  8
1
 62
7
 10
-343.8530412459453
 20
-127.7358412557905
 30
0
 11
-348.7530412459454
 21
-127.7358412557905
 31
0
  0
LINE
  8
1
 62
7
 10
-348.7530412459454
 20
-108.7358412557905
 30
0
 11
-343.8530412459453
 21
-108.7358412557905
 31
0
  0
LINE
  8
1
 62
7
 10
-343.8530412459453
 20
-145.7358412557905
 30
0
 11
-342.2530412459452
 21
-145.7358412557905
 31
0
  0
LINE
  8
1
 62
7
 10
-332.8530412459453
 20
-146.7358412557905
 30
0
 11
-341.0530412459455
 21
-146.7358412557905
 31
0
  0
LINE
  8
1
 62
7
 10
-347.4530412459452
 20
49.76415874420962
 30
0
 11
-346.4530412459452
 21
48.76415874420962
 31
0
  0
LINE
  8
1
 62
7
 10
-346.4530412459452
 20
64.7641587442096
 30
0
 11
-347.4530412459452
 21
63.7641587442096
 31
0
  0
LINE
  8
1
 62
7
 10
-343.6530412459453
 20
48.76415874420962
 30
0
 11
-343.6530412459453
 21
64.7641587442096
 31
0
  0
LINE
  8
1
 62
7
 10
-346.4530412459452
 20
48.76415874420962
 30
0
 11
-342.6530412459453
 21
48.76415874420962
 31
0
  0
LINE
  8
1
 62
7
 10
-347.4530412459452
 20
49.76415874420962
 30
0
 11
-347.4530412459452
 21
63.7641587442096
 31
0
  0
LINE
  8
1
 62
7
 10
-346.4530412459452
 20
64.7641587442096
 30
0
 11
-342.6530412459453
 21
64.7641587442096
 31
0
  0
LINE
  8
1
 62
7
 10
-342.6530412459453
 20
44.39261295814972
 30
0
 11
-342.6530412459453
 21
67.2641587442096
 31
0
  0
LINE
  8
1
 62
7
 10
-343.8530412459453
 20
39.76415874420962
 30
0
 11
-342.6530412459453
 21
44.39261295814972
 31
0
  0
LINE
  8
1
 62
7
 10
-342.6530412459453
 20
67.2641587442096
 30
0
 11
-341.0530412459455
 21
67.2641587442096
 31
0
  0
LINE
  8
1
 62
7
 10
-342.2530412459452
 20
39.76415874420962
 30
0
 11
-341.0530412459455
 21
44.24261971329212
 31
0
  0
LINE
  8
1
 62
7
 10
-341.0530412459455
 20
68.2641587442096
 30
0
 11
-332.8530412459453
 21
68.2641587442096
 31
0
  0
LINE
  8
1
 62
7
 10
-348.7530412459454
 20
-132.7358412557905
 30
0
 11
-348.7530412459454
 21
54.2641587442095
 31
0
  0
LINE
  8
1
 62
7
 10
-363.7530412459454
 20
-132.7358412557905
 30
0
 11
-363.7530412459454
 21
54.2641587442095
 31
0
  0
LINE
  8
1
 62
7
 10
-399.7530412459454
 20
-86.73584125579049
 30
0
 11
-399.7530412459454
 21
8.264158744209496
 31
0
  0
LINE
  8
1
 62
7
 10
-399.7530412459454
 20
8.264158744209496
 30
0
 11
-363.7530412459454
 21
8.264158744209496
 31
0
  0
LINE
  8
1
 62
7
 10
-363.7530412459454
 20
54.2641587442095
 30
0
 11
-348.7530412459454
 21
54.2641587442095
 31
0
  0
LINE
  8
1
 62
7
 10
-363.7530412459454
 20
-86.73584125579049
 30
0
 11
-399.7530412459454
 21
-86.73584125579049
 31
0
  0
LINE
  8
1
 62
7
 10
-348.7530412459454
 20
-132.7358412557905
 30
0
 11
-363.7530412459454
 21
-132.7358412557905
 31
0
  0
LINE
  8
1
 62
7
 10
-399.7530412459454
 20
-14.23584125579051
 30
0
 11
-403.2171428610831
 21
-8.235841255790508
 31
0
  0
LINE
  8
1
 62
7
 10
-403.2171428610831
 20
-8.235841255790508
 30
0
 11
-404.2171428610831
 21
-8.235841255790508
 31
0
  0
LINE
  8
1
 62
7
 10
-404.2171428610831
 20
-8.235841255790508
 30
0
 11
-404.2171428610831
 21
-70.2358412557905
 31
0
  0
LINE
  8
1
 62
7
 10
-404.2171428610831
 20
-10.23584125579051
 30
0
 11
-409.7530412459454
 21
-10.23584125579051
 31
0
  0
LINE
  8
1
 62
7
 10
-409.7530412459454
 20
-10.23584125579051
 30
0
 11
-409.7530412459454
 21
-68.2358412557905
 31
0
  0
LINE
  8
1
 62
7
 10
-409.7530412459454
 20
-19.23584125579051
 30
0
 11
-411.7530412459454
 21
-19.23584125579051
 31
0
  0
LINE
  8
1
 62
7
 10
-409.7530412459454
 20
-20.48584125579051
 30
0
 11
-411.7530412459454
 21
-20.48584125579051
 31
0
  0
LINE
  8
1
 62
7
 10
-411.7530412459454
 20
-19.23584125579051
 30
0
 11
-411.7530412459454
 21
-59.2358412557905
 31
0
  0
LINE
  8
1
 62
7
 10
-403.2171428610831
 20
-70.2358412557905
 30
0
 11
-399.7530412459454
 21
-64.2358412557905
 31
0
  0
LINE
  8
1
 62
7
 10
-404.2171428610831
 20
-70.2358412557905
 30
0
 11
-403.2171428610831
 21
-70.2358412557905
 31
0
  0
LINE
  8
1
 62
7
 10
-409.7530412459454
 20
-68.2358412557905
 30
0
 11
-404.2171428610831
 21
-68.2358412557905
 31
0
  0
LINE
  8
1
 62
7
 10
-411.7530412459454
 20
-59.2358412557905
 30
0
 11
-409.7530412459454
 21
-59.2358412557905
 31
0
  0
LINE
  8
1
 62
7
 10
-411.7530412459454
 20
-57.9858412557905
 30
0
 11
-409.7530412459454
 21
-57.9858412557905
 31
0
  0
LINE
  8
1
 62
7
 10
-117.2530412459453
 20
60.7641587442095
 30
0
 11
-123.2530412459453
 21
60.7641587442095
 31
0
  0
LINE
  8
1
 62
7
 10
-120.2530412459453
 20
-139.2358412557905
 30
0
 11
-120.2530412459453
 21
60.7641587442095
 31
0
  0
LINE
  8
1
 62
7
 10
-84.2530412459453
 20
-171.2358412557905
 30
0
 11
-84.2530412459453
 21
-158.2358412557905
 31
0
  0
LINE
  8
1
 62
7
 10
-144.2530412459453
 20
-171.2358412557905
 30
0
 11
-84.2530412459453
 21
-171.2358412557905
 31
0
  0
LINE
  8
1
 62
3
  6
DASHDOT
 10
-104.2530412459453
 20
-179.9471764126497
 30
0
 11
-104.2530412459453
 21
-145.4851348991917
 31
0
  0
LINE
  8
1
 62
7
 10
-144.2530412459453
 20
-171.2358412557905
 30
0
 11
-84.2530412459453
 21
-171.2358412557905
 31
0
  0
LINE
  8
1
 62
7
 10
-144.2530412459453
 20
-169.2358412557905
 30
0
 11
-144.2530412459453
 21
-171.2358412557905
 31
0
  0
LINE
  8
1
 62
7
 10
-88.65304124594539
 20
68.26415874420951
 30
0
 11
-88.65304124594539
 21
-146.7358412557905
 31
0
  0
LINE
  8
1
 62
7
 10
-63.75304124594543
 20
-132.7358412557905
 30
0
 11
-72.75304124594544
 21
-132.7358412557905
 31
0
  0
LINE
  8
1
 62
7
 10
-63.75304124594543
 20
-132.7358412557905
 30
0
 11
-72.75304124594544
 21
-132.7358412557905
 31
0
  0
LINE
  8
1
 62
7
 10
-63.75304124594543
 20
-132.7358412557905
 30
0
 11
-72.75304124594544
 21
-132.7358412557905
 31
0
  0
LINE
  8
1
 62
7
 10
-63.75304124594543
 20
-132.7358412557905
 30
0
 11
-63.75304124594543
 21
54.2641587442095
 31
0
  0
LINE
  8
1
 62
7
 10
-72.75304124594544
 20
54.2641587442095
 30
0
 11
-63.75304124594543
 21
54.2641587442095
 31
0
  0
LINE
  8
1
 62
7
 10
-88.65304124594539
 20
68.26415874420951
 30
0
 11
-80.45304124594539
 21
68.26415874420951
 31
0
  0
LINE
  8
1
 62
7
 10
-79.25304124594531
 20
39.7641587442095
 30
0
 11
-79.25304124594531
 21
-145.7358412557905
 31
0
  0
LINE
  8
1
 62
7
 10
-80.45304124594541
 20
67.26415874420951
 30
0
 11
-78.85304124594551
 21
67.26415874420951
 31
0
  0
LINE
  8
1
 62
7
 10
-80.45304124594541
 20
44.24261971329212
 30
0
 11
-79.25304124594531
 21
39.7641587442095
 31
0
  0
LINE
  8
1
 62
7
 10
-78.85304124594551
 20
67.26415874420951
 30
0
 11
-78.85304124594551
 21
44.39261295814971
 31
0
  0
LINE
  8
1
 62
7
 10
-78.85304124594551
 20
44.39261295814971
 30
0
 11
-77.6530412459454
 21
39.7641587442095
 31
0
  0
LINE
  8
1
 62
7
 10
-78.85304124594551
 20
64.76415874420951
 30
0
 11
-75.05304124594531
 21
64.76415874420951
 31
0
  0
LINE
  8
1
 62
7
 10
-74.05304124594531
 20
63.7641587442095
 30
0
 11
-74.05304124594531
 21
49.7641587442095
 31
0
  0
LINE
  8
1
 62
7
 10
-78.85304124594551
 20
48.7641587442095
 30
0
 11
-75.05304124594531
 21
48.7641587442095
 31
0
  0
LINE
  8
1
 62
7
 10
-77.85304124594551
 20
64.76415874420951
 30
0
 11
-77.85304124594551
 21
48.7641587442095
 31
0
  0
LINE
  8
1
 62
7
 10
-74.05304124594531
 20
63.7641587442095
 30
0
 11
-75.05304124594531
 21
64.76415874420951
 31
0
  0
LINE
  8
1
 62
7
 10
-75.05304124594531
 20
48.7641587442095
 30
0
 11
-74.05304124594531
 21
49.7641587442095
 31
0
  0
LINE
  8
1
 62
7
 10
-80.45304124594541
 20
-146.7358412557905
 30
0
 11
-88.65304124594539
 21
-146.7358412557905
 31
0
  0
LINE
  8
1
 62
7
 10
-79.25304124594531
 20
-145.7358412557905
 30
0
 11
-77.6530412459454
 21
-145.7358412557905
 31
0
  0
LINE
  8
1
 62
7
 10
-77.6530412459454
 20
-108.7358412557905
 30
0
 11
-72.75304124594544
 21
-108.7358412557905
 31
0
  0
LINE
  8
1
 62
7
 10
-72.75304124594544
 20
-127.7358412557905
 30
0
 11
-77.6530412459454
 21
-127.7358412557905
 31
0
  0
LINE
  8
1
 62
7
 10
-77.6530412459454
 20
-145.7358412557905
 30
0
 11
-77.6530412459454
 21
39.7641587442095
 31
0
  0
LINE
  8
1
 62
7
 10
-114.2530412459453
 20
67.76415874420951
 30
0
 11
-89.0530412459453
 21
67.76415874420951
 31
0
  0
LINE
  8
1
 62
7
 10
-117.2530412459453
 20
-143.2358412557905
 30
0
 11
-117.2530412459453
 21
64.76415874420951
 31
0
  0
LINE
  8
1
 62
7
 10
-114.2530412459453
 20
-146.2358412557905
 30
0
 11
-117.2530412459453
 21
-143.2358412557905
 31
0
  0
LINE
  8
1
 62
7
 10
-114.2530412459453
 20
-146.2358412557905
 30
0
 11
-89.0530412459453
 21
-146.2358412557905
 31
0
  0
LINE
  8
1
 62
7
 10
-89.0530412459453
 20
67.76415874420951
 30
0
 11
-89.0530412459453
 21
-146.2358412557905
 31
0
  0
LINE
  8
1
 62
7
 10
-117.2530412459453
 20
64.76415874420951
 30
0
 11
-114.2530412459453
 21
67.76415874420951
 31
0
  0
LINE
  8
1
 62
7
 10
-80.45304124594541
 20
-146.7358412557905
 30
0
 11
-80.45304124594539
 21
68.26415874420951
 31
0
  0
LINE
  8
1
 62
3
  6
DASHDOT
 10
23.2469587540547
 20
-39.2358412557905
 30
0
 11
30.40939137125926
 21
-39.2358412557905
 31
0
  0
LINE
  8
1
 62
7
 10
-73.75304124594544
 20
0.7641587442094959
 30
0
 11
-77.6530412459454
 21
0.7641587442094959
 31
0
  0
LINE
  8
1
 62
7
 10
-73.75304124594544
 20
-79.23584125579049
 30
0
 11
-77.6530412459454
 21
-79.23584125579049
 31
0
  0
LINE
  8
1
 62
7
 10
-63.75304124594543
 20
-9.574579844762596
 30
0
 11
-60.6530412459453
 21
-9.574579844762596
 31
0
  0
LINE
  8
1
 62
7
 10
-60.6530412459453
 20
-9.574579844762596
 30
0
 11
-60.6530412459453
 21
-68.8971026668184
 31
0
  0
LINE
  8
1
 62
7
 10
-58.7530412459453
 20
-15.23584125579051
 30
0
 11
-58.7530412459453
 21
-63.2358412557905
 31
0
  0
LINE
  8
1
 62
7
 10
-60.6530412459453
 20
-15.23584125579051
 30
0
 11
-58.7530412459453
 21
-15.23584125579051
 31
0
  0
LINE
  8
1
 62
7
 10
-58.7530412459453
 20
-19.23584125579051
 30
0
 11
23.2469587540547
 21
-19.23584125579051
 31
0
  0
LINE
  8
1
 62
7
 10
23.2469587540547
 20
-15.73584125579049
 30
0
 11
23.2469587540547
 21
-59.23584125579049
 31
0
  0
LINE
  8
1
 62
7
 10
-60.6530412459453
 20
-68.8971026668184
 30
0
 11
-63.75304124594543
 21
-68.8971026668184
 31
0
  0
LINE
  8
1
 62
7
 10
-58.7530412459453
 20
-63.2358412557905
 30
0
 11
-60.6530412459453
 21
-63.2358412557905
 31
0
  0
LINE
  8
1
 62
7
 10
23.2469587540547
 20
-59.23584125579049
 30
0
 11
-58.7530412459453
 21
-59.23584125579049
 31
0
  0
LINE
  8
1
 62
7
 10
-46.7530412459453
 20
-19.23584125579051
 30
0
 11
-46.7530412459453
 21
-15.73584125579049
 31
0
  0
LINE
  8
1
 62
7
 10
-46.7530412459453
 20
-15.73584125579049
 30
0
 11
23.2469587540547
 21
-15.73584125579049
 31
0
  0
LINE
  8
1
 62
3
  6
DASHED
 10
23.2469587540547
 20
-43.2358412557905
 30
0
 11
-4.753041245945301
 21
-43.23584125579049
 31
0
  0
LINE
  8
1
 62
3
  6
DASHED
 10
-4.753041245945301
 20
-43.23584125579049
 30
0
 11
-4.753041245945301
 21
-35.23584125579049
 31
0
  0
LINE
  8
1
 62
3
  6
DASHED
 10
-4.753041245945301
 20
-35.23584125579049
 30
0
 11
23.2469587540547
 21
-35.2358412557905
 31
0
  0
LINE
  8
1
 62
3
  6
DASHED
 10
-4.753041245945301
 20
-43.23584125579049
 30
0
 11
-7.639792591893443
 21
-39.23584125579049
 31
0
  0
LINE
  8
1
 62
3
  6
DASHED
 10
-7.639792591893443
 20
-39.23584125579049
 30
0
 11
-4.753041245945301
 21
-35.23584125579049
 31
0
  0
LINE
  8
1
 62
3
  6
DASHED
 10
23.2469587540547
 20
-44.2358412557905
 30
0
 11
3.246958754054699
 21
-44.2358412557905
 31
0
  0
LINE
  8
1
 62
3
  6
DASHED
 10
3.246958754054699
 20
-44.2358412557905
 30
0
 11
3.246958754054699
 21
-34.2358412557905
 31
0
  0
LINE
  8
1
 62
3
  6
DASHED
 10
3.246958754054699
 20
-34.2358412557905
 30
0
 11
23.2469587540547
 21
-34.2358412557905
 31
0
  0
LINE
  8
1
 62
3
  6
DASHED
 10
3.246958754054699
 20
-44.2358412557905
 30
0
 11
1.514907946485859
 21
-43.2358412557905
 31
0
  0
LINE
  8
1
 62
3
  6
DASHED
 10
3.246958754054699
 20
-34.2358412557905
 30
0
 11
1.514907946485859
 21
-35.2358412557905
 31
0
  0
LINE
  8
1
 62
3
  6
DASHDOT
 10
26.2469587540547
 20
-39.2358412557905
 30
0
 11
-12.0624423227039
 21
-39.23584125579049
 31
0
  0
LINE
  8
1
 62
7
 10
-558.2441739899957
 20
-76.23584125579049
 30
0
 11
-558.2441739899957
 21
-96.2358412557905
 31
0
  0
LINE
  8
1
 62
7
 10
-556.2441739899957
 20
-78.73584125579049
 30
0
 11
-556.2441739899957
 21
-83.73584125579049
 31
0
  0
LINE
  8
1
 62
7
 10
-575.2441739899957
 20
-96.2358412557905
 30
0
 11
-558.2441739899957
 21
-96.2358412557905
 31
0
  0
LINE
  8
1
 62
7
 10
-559.2441739899957
 20
-76.23584125579049
 30
0
 11
-559.2441739899957
 21
-96.2358412557905
 31
0
  0
LINE
  8
1
 62
7
 10
-556.2441739899957
 20
-78.73584125579049
 30
0
 11
-558.2441739899957
 21
-78.73584125579049
 31
0
  0
LINE
  8
1
 62
7
 10
-556.2441739899957
 20
-83.73584125579049
 30
0
 11
-558.2441739899957
 21
-83.73584125579049
 31
0
  0
LINE
  8
1
 62
7
 10
-185.2531458773993
 20
-96.2358412557905
 30
0
 11
-185.2531458773993
 21
-87.2358412557905
 31
0
  0
LINE
  8
1
 62
7
 10
-185.2531458773993
 20
-87.2358412557905
 30
0
 11
-193.2531458773993
 21
-87.2358412557905
 31
0
  0
LINE
  8
1
 62
7
 10
-193.2531458773993
 20
-87.2358412557905
 30
0
 11
-193.2531458773993
 21
-96.2358412557905
 31
0
  0
LINE
  8
1
 62
7
 10
-203.2531458773993
 20
-96.2358412557905
 30
0
 11
-203.2531458773993
 21
-87.2358412557905
 31
0
  0
LINE
  8
1
 62
7
 10
-203.2531458773993
 20
-87.2358412557905
 30
0
 11
-195.2531458773993
 21
-87.2358412557905
 31
0
  0
LINE
  8
1
 62
7
 10
-195.2531458773993
 20
-87.2358412557905
 30
0
 11
-195.2531458773993
 21
-95.8726379724326
 31
0
  0
LINE
  8
1
 62
7
 10
-190.6761982745373
 20
-92.28766259280549
 30
0
 11
-190.3049672144141
 21
-92.6588936529284
 31
0
  0
LINE
  8
1
 62
7
 10
-188.2013245403842
 20
-92.6588936529284
 30
0
 11
-187.8300934802612
 21
-92.28766259280549
 31
0
  0
LINE
  8
1
 62
7
 10
-187.8300934802612
 20
-90.18401991877552
 30
0
 11
-188.2013245403842
 21
-89.81278885865261
 31
0
  0
LINE
  8
1
 62
7
 10
-190.3049672144141
 20
-89.81278885865261
 30
0
 11
-190.6761982745373
 21
-90.18401991877552
 31
0
  0
LINE
  8
1
 62
7
 10
-200.6761982745373
 20
-92.28766259280549
 30
0
 11
-200.3049672144141
 21
-92.6588936529284
 31
0
  0
LINE
  8
1
 62
7
 10
-198.2013245403842
 20
-92.6588936529284
 30
0
 11
-197.8300934802612
 21
-92.28766259280549
 31
0
  0
LINE
  8
1
 62
7
 10
-197.8300934802612
 20
-90.18401991877552
 30
0
 11
-198.2013245403842
 21
-89.81278885865261
 31
0
  0
LINE
  8
1
 62
7
 10
-200.3049672144141
 20
-89.81278885865261
 30
0
 11
-200.6761982745373
 21
-90.18401991877552
 31
0
  0
LINE
  8
1
 62
7
 10
-182.0031458773993
 20
-80.97334125579052
 30
0
 11
-182.0031458773993
 21
-81.49834125579048
 31
0
  0
LINE
  8
1
 62
7
 10
-180.5156458773993
 20
-82.9858412557905
 30
0
 11
-179.9906458773992
 21
-82.9858412557905
 31
0
  0
LINE
  8
1
 62
7
 10
-178.5031458773993
 20
-81.49834125579048
 30
0
 11
-178.5031458773993
 21
-80.97334125579052
 31
0
  0
LINE
  8
1
 62
7
 10
-179.9906458773992
 20
-79.4858412557905
 30
0
 11
-180.5156458773993
 21
-79.4858412557905
 31
0
  0
LINE
  8
1
 62
7
 10
-232.2531458773991
 20
-76.2358412557905
 30
0
 11
-176.2531458773993
 21
-76.2358412557905
 31
0
  0
LINE
  8
1
 62
7
 10
-176.2531458773993
 20
-76.2358412557905
 30
0
 11
-176.2531458773993
 21
-96.2358412557905
 31
0
  0
LINE
  8
1
 62
7
 10
-176.2531458773993
 20
-96.2358412557905
 30
0
 11
-232.2531458773991
 21
-96.2358412557905
 31
0
  0
LINE
  8
1
 62
7
 10
-223.2531458773993
 20
-87.2358412557905
 30
0
 11
-223.2531458773993
 21
-96.2358412557905
 31
0
  0
LINE
  8
1
 62
7
 10
-215.2531458773993
 20
-87.2358412557905
 30
0
 11
-223.2531458773993
 21
-87.2358412557905
 31
0
  0
LINE
  8
1
 62
7
 10
-215.2531458773993
 20
-96.2358412557905
 30
0
 11
-215.2531458773993
 21
-87.2358412557905
 31
0
  0
LINE
  8
1
 62
7
 10
-205.2531458773993
 20
-87.2358412557905
 30
0
 11
-205.2531458773993
 21
-96.2358412557905
 31
0
  0
LINE
  8
1
 62
7
 10
-213.2531458773993
 20
-87.2358412557905
 30
0
 11
-205.2531458773993
 21
-87.2358412557905
 31
0
  0
LINE
  8
1
 62
7
 10
-213.2531458773993
 20
-95.8726379724326
 30
0
 11
-213.2531458773993
 21
-87.2358412557905
 31
0
  0
LINE
  8
1
 62
7
 10
-218.2013245403842
 20
-92.6588936529284
 30
0
 11
-217.8300934802615
 21
-92.28766259280549
 31
0
  0
LINE
  8
1
 62
7
 10
-220.6761982745374
 20
-92.28766259280549
 30
0
 11
-220.3049672144142
 21
-92.6588936529284
 31
0
  0
LINE
  8
1
 62
7
 10
-220.3049672144142
 20
-89.81278885865261
 30
0
 11
-220.6761982745374
 21
-90.18401991877552
 31
0
  0
LINE
  8
1
 62
7
 10
-217.8300934802615
 20
-90.18401991877552
 30
0
 11
-218.2013245403842
 21
-89.81278885865261
 31
0
  0
LINE
  8
1
 62
7
 10
-208.2013245403842
 20
-92.6588936529284
 30
0
 11
-207.8300934802615
 21
-92.28766259280549
 31
0
  0
LINE
  8
1
 62
7
 10
-210.6761982745373
 20
-92.28766259280549
 30
0
 11
-210.3049672144143
 21
-92.6588936529284
 31
0
  0
LINE
  8
1
 62
7
 10
-210.3049672144143
 20
-89.81278885865261
 30
0
 11
-210.6761982745373
 21
-90.18401991877552
 31
0
  0
LINE
  8
1
 62
7
 10
-207.8300934802615
 20
-90.18401991877552
 30
0
 11
-208.2013245403842
 21
-89.81278885865261
 31
0
  0
LINE
  8
1
 62
7
 10
-226.5031458773993
 20
-81.49834125579048
 30
0
 11
-226.5031458773993
 21
-80.97334125579052
 31
0
  0
LINE
  8
1
 62
7
 10
-228.5156458773994
 20
-82.9858412557905
 30
0
 11
-227.9906458773991
 21
-82.9858412557905
 31
0
  0
LINE
  8
1
 62
7
 10
-230.0031458773993
 20
-80.97334125579052
 30
0
 11
-230.0031458773993
 21
-81.49834125579048
 31
0
  0
LINE
  8
1
 62
7
 10
-227.9906458773991
 20
-79.4858412557905
 30
0
 11
-228.5156458773994
 21
-79.4858412557905
 31
0
  0
LINE
  8
1
 62
7
 10
-232.2531458773991
 20
-96.2358412557905
 30
0
 11
-232.2531458773991
 21
-76.2358412557905
 31
0
  0
LINE
  8
1
 62
7
 10
-208.2531458773993
 20
-76.2358412557905
 30
0
 11
-208.2531458773993
 21
-66.29260924409137
 31
0
  0
LINE
  8
1
 62
7
 10
-205.2507949643589
 20
-63.29260924409137
 30
0
 11
-205.2531458773993
 21
-63.29260924409137
 31
0
  0
LINE
  8
1
 62
7
 10
-205.2675594839632
 20
-61.29260924409137
 30
0
 11
-211.2531458773993
 21
-61.29260924409137
 31
0
  0
LINE
  8
1
 62
7
 10
-205.2530935616724
 20
-59.29260924409137
 30
0
 11
-211.2531458773993
 21
-59.29260924409137
 31
0
  0
LINE
  8
1
 62
7
 10
-218.2531458773993
 20
-68.29260924409137
 30
0
 11
-218.2531458773993
 21
-76.2358412557905
 31
0
  0
LINE
  8
1
 62
7
 10
-220.2531458773993
 20
-68.29260924409137
 30
0
 11
-220.2531458773993
 21
-76.2358412557905
 31
0
  0
LINE
  8
1
 62
7
 10
-200.253145877399
 20
-66.29260924409137
 30
0
 11
-200.253145877399
 21
-76.2358412557905
 31
0
  0
LINE
  8
1
 62
7
 10
-203.253145877399
 20
-63.29260924409137
 30
0
 11
-203.2554967904396
 21
-63.29260924409137
 31
0
  0
LINE
  8
1
 62
7
 10
-197.253145877399
 20
-61.29260924409137
 30
0
 11
-203.2387322708351
 21
-61.29260924409137
 31
0
  0
LINE
  8
1
 62
7
 10
-197.253145877399
 20
-59.29260924409137
 30
0
 11
-203.2531981931261
 21
-59.29260924409137
 31
0
  0
LINE
  8
1
 62
7
 10
-190.253145877399
 20
-76.2358412557905
 30
0
 11
-190.253145877399
 21
-68.29260924409137
 31
0
  0
LINE
  8
1
 62
7
 10
-188.253145877399
 20
-76.2358412557905
 30
0
 11
-188.253145877399
 21
-68.29260924409137
 31
0
  0
LINE
  8
1
 62
7
 10
-232.2531458773991
 20
248.6520486649147
 30
0
 11
-232.2531458773991
 21
231.7941428710518
 31
0
  0
LINE
  8
1
 62
7
 10
-176.2531458773993
 20
248.6520486649147
 30
0
 11
-176.2531458773993
 21
231.7941428710518
 31
0
  0
LINE
  8
1
 62
7
 10
-232.2531458773991
 20
231.7941428710518
 30
0
 11
-176.2531458773993
 21
231.7941428710518
 31
0
  0
LINE
  8
1
 62
7
 10
-558.2441739899957
 20
-76.23584125579049
 30
0
 11
-575.0027037441449
 21
-76.23584125579045
 31
0
  0
LINE
  8
1
 62
7
 10
-285.2530412459454
 20
454.6520486649146
 30
0
 11
-291.2530412459454
 21
454.6520486649146
 31
0
  0
LINE
  8
1
 62
7
 10
-291.2530412459454
 20
254.6520486649147
 30
0
 11
-285.2530412459454
 21
254.6520486649147
 31
0
  0
LINE
  8
1
 62
7
 10
-279.2530412459454
 20
460.6520486649146
 30
0
 11
-129.2530412459453
 21
460.6520486649146
 31
0
  0
LINE
  8
1
 62
7
 10
-282.2530412459454
 20
227.6520486649147
 30
0
 11
-282.2530412459454
 21
481.6520486649146
 31
0
  0
LINE
  8
1
 62
7
 10
-294.2530412459454
 20
247.6520486649147
 30
0
 11
-294.2530412459454
 21
461.6520486649146
 31
0
  0
LINE
  8
1
 62
7
 10
-329.7530412459454
 20
461.6520486649146
 30
0
 11
-329.7530412459454
 21
247.6520486649147
 31
0
  0
LINE
  8
1
 62
7
 10
-326.5776147654024
 20
242.1520486649147
 30
0
 11
-326.5776147654024
 21
467.1520486649146
 31
0
  0
LINE
  8
1
 62
7
 10
-294.2530412459454
 20
247.6520486649147
 30
0
 11
-310.6530412459453
 21
247.6520486649147
 31
0
  0
LINE
  8
1
 62
7
 10
-343.8530412459453
 20
248.1520486649147
 30
0
 11
-343.8530412459453
 21
433.6520486649147
 31
0
  0
LINE
  8
1
 62
3
  6
DASHDOT
 10
-411.7530412459454
 20
354.6520486649147
 30
0
 11
-420.483065684025
 21
354.6520486649147
 31
0
  0
LINE
  8
1
 62
7
 10
-332.8530412459453
 20
462.1520486649146
 30
0
 11
-332.8530412459453
 21
247.1520486649147
 31
0
  0
LINE
  8
1
 62
7
 10
-332.4530412459452
 20
461.6520486649146
 30
0
 11
-332.4530412459452
 21
247.6520486649147
 31
0
  0
LINE
  8
1
 62
7
 10
-341.0530412459455
 20
247.1520486649147
 30
0
 11
-341.0530412459455
 21
462.1520486649146
 31
0
  0
LINE
  8
1
 62
7
 10
-310.6530412459453
 20
242.1520486649147
 30
0
 11
-310.6530412459453
 21
467.1520486649146
 31
0
  0
LINE
  8
1
 62
7
 10
-326.5776147654024
 20
467.1520486649146
 30
0
 11
-310.6530412459453
 21
467.1520486649146
 31
0
  0
LINE
  8
1
 62
7
 10
-329.7530412459454
 20
461.6520486649146
 30
0
 11
-326.5776147654024
 21
467.1520486649146
 31
0
  0
LINE
  8
1
 62
7
 10
-332.4530412459452
 20
461.6520486649146
 30
0
 11
-329.7530412459454
 21
461.6520486649146
 31
0
  0
LINE
  8
1
 62
7
 10
-329.7530412459454
 20
247.6520486649147
 30
0
 11
-332.4530412459452
 21
247.6520486649147
 31
0
  0
LINE
  8
1
 62
7
 10
-326.5776147654024
 20
242.1520486649147
 30
0
 11
-329.7530412459454
 21
247.6520486649147
 31
0
  0
LINE
  8
1
 62
7
 10
-310.6530412459453
 20
242.1520486649147
 30
0
 11
-326.5776147654024
 21
242.1520486649147
 31
0
  0
LINE
  8
1
 62
7
 10
-291.2530412459454
 20
458.6520486649146
 30
0
 11
-294.2530412459454
 21
461.6520486649146
 31
0
  0
LINE
  8
1
 62
7
 10
-294.2530412459454
 20
247.6520486649147
 30
0
 11
-291.2530412459454
 21
250.6520486649147
 31
0
  0
LINE
  8
1
 62
7
 10
-342.2530412459452
 20
248.1520486649147
 30
0
 11
-342.2530412459452
 21
433.6520486649147
 31
0
  0
LINE
  8
1
 62
7
 10
-343.8530412459453
 20
266.1520486649147
 30
0
 11
-348.7530412459454
 21
266.1520486649147
 31
0
  0
LINE
  8
1
 62
7
 10
-348.7530412459454
 20
285.1520486649147
 30
0
 11
-343.8530412459453
 21
285.1520486649147
 31
0
  0
LINE
  8
1
 62
7
 10
-343.8530412459453
 20
248.1520486649147
 30
0
 11
-342.2530412459452
 21
248.1520486649147
 31
0
  0
LINE
  8
1
 62
7
 10
-332.8530412459453
 20
247.1520486649147
 30
0
 11
-341.0530412459455
 21
247.1520486649147
 31
0
  0
LINE
  8
1
 62
7
 10
-347.4530412459452
 20
443.6520486649147
 30
0
 11
-346.4530412459452
 21
442.6520486649147
 31
0
  0
LINE
  8
1
 62
7
 10
-346.4530412459452
 20
458.6520486649146
 30
0
 11
-347.4530412459452
 21
457.6520486649146
 31
0
  0
LINE
  8
1
 62
7
 10
-343.6530412459453
 20
442.6520486649147
 30
0
 11
-343.6530412459453
 21
458.6520486649146
 31
0
  0
LINE
  8
1
 62
7
 10
-346.4530412459452
 20
442.6520486649147
 30
0
 11
-342.6530412459453
 21
442.6520486649147
 31
0
  0
LINE
  8
1
 62
7
 10
-347.4530412459452
 20
443.6520486649147
 30
0
 11
-347.4530412459452
 21
457.6520486649146
 31
0
  0
LINE
  8
1
 62
7
 10
-346.4530412459452
 20
458.6520486649146
 30
0
 11
-342.6530412459453
 21
458.6520486649146
 31
0
  0
LINE
  8
1
 62
7
 10
-342.6530412459453
 20
438.2805028788549
 30
0
 11
-342.6530412459453
 21
461.1520486649146
 31
0
  0
LINE
  8
1
 62
7
 10
-343.8530412459453
 20
433.6520486649147
 30
0
 11
-342.6530412459453
 21
438.2805028788549
 31
0
  0
LINE
  8
1
 62
7
 10
-342.6530412459453
 20
461.1520486649146
 30
0
 11
-341.0530412459455
 21
461.1520486649146
 31
0
  0
LINE
  8
1
 62
7
 10
-342.2530412459452
 20
433.6520486649147
 30
0
 11
-341.0530412459455
 21
438.1305096339973
 31
0
  0
LINE
  8
1
 62
7
 10
-341.0530412459455
 20
462.1520486649146
 30
0
 11
-332.8530412459453
 21
462.1520486649146
 31
0
  0
LINE
  8
1
 62
7
 10
-348.7530412459454
 20
261.1520486649147
 30
0
 11
-348.7530412459454
 21
448.1520486649147
 31
0
  0
LINE
  8
1
 62
7
 10
-363.7530412459454
 20
261.1520486649147
 30
0
 11
-363.7530412459454
 21
448.1520486649147
 31
0
  0
LINE
  8
1
 62
7
 10
-399.7530412459454
 20
307.1520486649147
 30
0
 11
-399.7530412459454
 21
402.1520486649147
 31
0
  0
LINE
  8
1
 62
7
 10
-399.7530412459454
 20
402.1520486649147
 30
0
 11
-363.7530412459454
 21
402.1520486649147
 31
0
  0
LINE
  8
1
 62
7
 10
-363.7530412459454
 20
448.1520486649147
 30
0
 11
-348.7530412459454
 21
448.1520486649147
 31
0
  0
LINE
  8
1
 62
7
 10
-363.7530412459454
 20
307.1520486649147
 30
0
 11
-399.7530412459454
 21
307.1520486649147
 31
0
  0
LINE
  8
1
 62
7
 10
-348.7530412459454
 20
261.1520486649147
 30
0
 11
-363.7530412459454
 21
261.1520486649147
 31
0
  0
LINE
  8
1
 62
7
 10
-399.7530412459454
 20
379.6520486649147
 30
0
 11
-403.2171428610831
 21
385.6520486649147
 31
0
  0
LINE
  8
1
 62
7
 10
-403.2171428610831
 20
385.6520486649147
 30
0
 11
-404.2171428610831
 21
385.6520486649147
 31
0
  0
LINE
  8
1
 62
7
 10
-404.2171428610831
 20
385.6520486649147
 30
0
 11
-404.2171428610831
 21
323.6520486649147
 31
0
  0
LINE
  8
1
 62
7
 10
-404.2171428610831
 20
383.6520486649147
 30
0
 11
-409.7530412459454
 21
383.6520486649147
 31
0
  0
LINE
  8
1
 62
7
 10
-409.7530412459454
 20
383.6520486649147
 30
0
 11
-409.7530412459454
 21
325.6520486649147
 31
0
  0
LINE
  8
1
 62
7
 10
-409.7530412459454
 20
374.6520486649147
 30
0
 11
-411.7530412459454
 21
374.6520486649147
 31
0
  0
LINE
  8
1
 62
7
 10
-409.7530412459454
 20
373.4020486649147
 30
0
 11
-411.7530412459454
 21
373.4020486649147
 31
0
  0
LINE
  8
1
 62
7
 10
-411.7530412459454
 20
374.6520486649147
 30
0
 11
-411.7530412459454
 21
334.6520486649147
 31
0
  0
LINE
  8
1
 62
7
 10
-403.2171428610831
 20
323.6520486649147
 30
0
 11
-399.7530412459454
 21
329.6520486649147
 31
0
  0
LINE
  8
1
 62
7
 10
-404.2171428610831
 20
323.6520486649147
 30
0
 11
-403.2171428610831
 21
323.6520486649147
 31
0
  0
LINE
  8
1
 62
7
 10
-409.7530412459454
 20
325.6520486649147
 30
0
 11
-404.2171428610831
 21
325.6520486649147
 31
0
  0
LINE
  8
1
 62
7
 10
-411.7530412459454
 20
334.6520486649147
 30
0
 11
-409.7530412459454
 21
334.6520486649147
 31
0
  0
LINE
  8
1
 62
7
 10
-411.7530412459454
 20
335.9020486649147
 30
0
 11
-409.7530412459454
 21
335.9020486649147
 31
0
  0
LINE
  8
1
 62
7
 10
-126.2530412459451
 20
481.6520486649147
 30
0
 11
-126.2530412459451
 21
227.6520486649147
 31
0
  0
LINE
  8
1
 62
7
 10
-117.2530412459453
 20
454.6520486649146
 30
0
 11
-123.2530412459453
 21
454.6520486649146
 31
0
  0
LINE
  8
1
 62
7
 10
-88.65304124594539
 20
462.1520486649146
 30
0
 11
-88.65304124594539
 21
247.1520486649147
 31
0
  0
LINE
  8
1
 62
7
 10
-72.75304124594544
 20
448.1520486649147
 30
0
 11
-63.75304124594543
 21
448.1520486649147
 31
0
  0
LINE
  8
1
 62
7
 10
-88.65304124594539
 20
462.1520486649146
 30
0
 11
-80.45304124594541
 21
462.1520486649146
 31
0
  0
LINE
  8
1
 62
7
 10
-79.25304124594531
 20
433.6520486649147
 30
0
 11
-79.25304124594531
 21
248.1520486649147
 31
0
  0
LINE
  8
1
 62
7
 10
-80.45304124594541
 20
461.1520486649146
 30
0
 11
-78.85304124594551
 21
461.1520486649146
 31
0
  0
LINE
  8
1
 62
7
 10
-80.45304124594541
 20
438.1305096339973
 30
0
 11
-79.25304124594531
 21
433.6520486649147
 31
0
  0
LINE
  8
1
 62
7
 10
-78.85304124594551
 20
461.1520486649146
 30
0
 11
-78.85304124594551
 21
438.2805028788549
 31
0
  0
LINE
  8
1
 62
7
 10
-78.85304124594551
 20
438.2805028788549
 30
0
 11
-77.65304124594542
 21
433.6520486649147
 31
0
  0
LINE
  8
1
 62
7
 10
-78.85304124594551
 20
458.6520486649146
 30
0
 11
-75.05304124594531
 21
458.6520486649146
 31
0
  0
LINE
  8
1
 62
7
 10
-74.05304124594531
 20
457.6520486649146
 30
0
 11
-74.05304124594531
 21
443.6520486649147
 31
0
  0
LINE
  8
1
 62
7
 10
-78.85304124594551
 20
442.6520486649147
 30
0
 11
-75.05304124594531
 21
442.6520486649147
 31
0
  0
LINE
  8
1
 62
7
 10
-77.85304124594551
 20
458.6520486649146
 30
0
 11
-77.85304124594551
 21
442.6520486649147
 31
0
  0
LINE
  8
1
 62
7
 10
-74.05304124594531
 20
457.6520486649146
 30
0
 11
-75.05304124594531
 21
458.6520486649146
 31
0
  0
LINE
  8
1
 62
7
 10
-75.05304124594531
 20
442.6520486649147
 30
0
 11
-74.05304124594531
 21
443.6520486649147
 31
0
  0
LINE
  8
1
 62
7
 10
-80.45304124594541
 20
247.1520486649147
 30
0
 11
-88.65304124594539
 21
247.1520486649147
 31
0
  0
LINE
  8
1
 62
7
 10
-79.25304124594531
 20
248.1520486649147
 30
0
 11
-77.6530412459454
 21
248.1520486649147
 31
0
  0
LINE
  8
1
 62
7
 10
-77.6530412459454
 20
285.1520486649147
 30
0
 11
-72.75304124594544
 21
285.1520486649147
 31
0
  0
LINE
  8
1
 62
7
 10
-72.75304124594544
 20
266.1520486649147
 30
0
 11
-77.6530412459454
 21
266.1520486649147
 31
0
  0
LINE
  8
1
 62
7
 10
-77.6530412459454
 20
248.1520486649147
 30
0
 11
-77.65304124594542
 21
433.6520486649147
 31
0
  0
LINE
  8
1
 62
7
 10
-114.2530412459453
 20
461.6520486649146
 30
0
 11
-89.0530412459453
 21
461.6520486649146
 31
0
  0
LINE
  8
1
 62
7
 10
-117.2530412459453
 20
250.6520486649146
 30
0
 11
-117.2530412459453
 21
458.6520486649146
 31
0
  0
LINE
  8
1
 62
7
 10
-114.2530412459453
 20
247.6520486649146
 30
0
 11
-117.2530412459453
 21
250.6520486649146
 31
0
  0
LINE
  8
1
 62
7
 10
-114.2530412459453
 20
247.6520486649146
 30
0
 11
-89.0530412459453
 21
247.6520486649146
 31
0
  0
LINE
  8
1
 62
7
 10
-89.0530412459453
 20
461.6520486649146
 30
0
 11
-89.0530412459453
 21
247.6520486649146
 31
0
  0
LINE
  8
1
 62
7
 10
-117.2530412459453
 20
458.6520486649146
 30
0
 11
-114.2530412459453
 21
461.6520486649146
 31
0
  0
LINE
  8
1
 62
7
 10
-80.45304124594541
 20
247.1520486649147
 30
0
 11
-80.45304124594541
 21
462.1520486649146
 31
0
  0
LINE
  8
1
 62
3
  6
DASHDOT
 10
23.2469587540547
 20
354.6520486649147
 30
0
 11
30.40939137125926
 21
354.6520486649147
 31
0
  0
LINE
  8
1
 62
7
 10
-73.75304124594544
 20
394.6520486649147
 30
0
 11
-77.6530412459454
 21
394.6520486649147
 31
0
  0
LINE
  8
1
 62
7
 10
-73.7479623397216
 20
314.6520486649147
 30
0
 11
-77.6530412459454
 21
314.6520486649147
 31
0
  0
LINE
  8
1
 62
7
 10
-63.85304124594543
 20
384.3133100759426
 30
0
 11
-60.65304124594531
 21
384.3133100759426
 31
0
  0
LINE
  8
1
 62
7
 10
-58.7530412459453
 20
378.6520486649147
 30
0
 11
-58.7530412459453
 21
330.6520486649147
 31
0
  0
LINE
  8
1
 62
7
 10
-60.6530412459453
 20
378.6520486649147
 30
0
 11
-58.7530412459453
 21
378.6520486649147
 31
0
  0
LINE
  8
1
 62
7
 10
-58.7530412459453
 20
374.6520486649147
 30
0
 11
23.2469587540547
 21
374.6520486649147
 31
0
  0
LINE
  8
1
 62
7
 10
23.2469587540547
 20
374.6520486649147
 30
0
 11
23.2469587540547
 21
334.6520486649147
 31
0
  0
LINE
  8
1
 62
7
 10
-60.6530412459453
 20
324.9907872538868
 30
0
 11
-63.85304124594543
 21
324.9907872538868
 31
0
  0
LINE
  8
1
 62
7
 10
-58.7530412459453
 20
330.6520486649147
 30
0
 11
-60.6530412459453
 21
330.6520486649147
 31
0
  0
LINE
  8
1
 62
7
 10
23.2469587540547
 20
334.6520486649147
 30
0
 11
-58.7530412459453
 21
334.6520486649147
 31
0
  0
LINE
  8
1
 62
7
 10
-129.2530412459453
 20
248.6520486649147
 30
0
 11
-279.2530412459454
 21
248.6520486649147
 31
0
  0
LINE
  8
1
 62
7
 10
-319.2530412459454
 20
219.6520486649147
 30
0
 11
-89.2530412459453
 21
219.6520486649147
 31
0
  0
LINE
  8
1
 62
7
 10
-324.2530412459454
 20
224.6520486649147
 30
0
 11
-324.2530412459454
 21
242.1520486649147
 31
0
  0
LINE
  8
1
 62
7
 10
-84.2530412459453
 20
224.6520486649147
 30
0
 11
-84.2530412459453
 21
247.1520486649147
 31
0
  0
LINE
  8
1
 62
3
  6
DASHDOT
 10
-293.5311763932093
 20
239.6520486649147
 30
0
 11
-314.9749060986814
 21
239.6520486649147
 31
0
  0
LINE
  8
1
 62
3
  6
DASHDOT
 10
-304.2530412459454
 20
250.3739135176506
 30
0
 11
-304.2530412459454
 21
228.9301838121787
 31
0
  0
LINE
  8
1
 62
3
  6
DASHDOT
 10
-93.53117639320929
 20
239.6520486649147
 30
0
 11
-114.9749060986813
 21
239.6520486649147
 31
0
  0
LINE
  8
1
 62
3
  6
DASHDOT
 10
-104.2530412459453
 20
250.3739135176506
 30
0
 11
-104.2530412459453
 21
228.9301838121787
 31
0
  0
LINE
  8
1
 62
7
 10
-89.2530412459453
 20
489.6520486649145
 30
0
 11
-319.2530412459454
 21
489.6520486649145
 31
0
  0
LINE
  8
1
 62
7
 10
-324.2530412459454
 20
467.1520486649144
 30
0
 11
-324.2530412459454
 21
484.6520486649144
 31
0
  0
LINE
  8
1
 62
7
 10
-84.2530412459453
 20
462.1520486649144
 30
0
 11
-84.2530412459453
 21
484.6520486649145
 31
0
  0
LINE
  8
1
 62
3
  6
DASHDOT
 10
-104.2530412459453
 20
480.3739135176504
 30
0
 11
-104.2530412459453
 21
458.9301838121784
 31
0
  0
LINE
  8
1
 62
3
  6
DASHDOT
 10
-114.9749060986813
 20
469.6520486649144
 30
0
 11
-93.53117639320929
 21
469.6520486649144
 31
0
  0
LINE
  8
1
 62
3
  6
DASHDOT
 10
-304.2530412459454
 20
480.3739135176504
 30
0
 11
-304.2530412459454
 21
458.9301838121784
 31
0
  0
LINE
  8
1
 62
3
  6
DASHDOT
 10
-314.9749060986814
 20
469.6520486649144
 30
0
 11
-293.5311763932093
 21
469.6520486649144
 31
0
  0
LINE
  8
1
 62
7
 10
23.2469587540547
 20
359.6520486649147
 30
0
 11
-41.7530412459453
 21
359.6520486649147
 31
0
  0
LINE
  8
1
 62
7
 10
-41.7530412459453
 20
349.6520486649147
 30
0
 11
23.2469587540547
 21
349.6520486649147
 31
0
  0
LINE
  8
1
 62
7
 10
-79.25304124594531
 20
39.7641587442095
 30
0
 11
-80.45304124594539
 21
39.76415874420951
 31
0
  0
LINE
  8
1
 62
7
 10
-72.75304124594544
 20
54.2641587442095
 30
0
 11
-72.75304124594544
 21
-132.7358412557905
 31
0
  0
LINE
  8
1
 62
7
 10
-123.2530412459453
 20
-139.2358412557905
 30
0
 11
-117.2530412459453
 21
-139.2358412557905
 31
0
  0
LINE
  8
1
 62
7
 10
-126.2530412459453
 20
63.7641587442095
 30
0
 11
-126.2530412459453
 21
-145.2358412557905
 31
0
  0
LINE
  8
1
 62
7
 10
-288.2530412459454
 20
60.7641587442095
 30
0
 11
-288.2530412459454
 21
-139.2358412557905
 31
0
  0
LINE
  8
1
 62
7
 10
-294.2530412459454
 20
67.7641587442096
 30
0
 11
-310.6530412459453
 21
67.7641587442096
 31
0
  0
LINE
  8
1
 62
7
 10
-291.2530412459454
 20
-143.2358412557905
 30
0
 11
-291.2530412459454
 21
64.7641587442096
 31
0
  0
LINE
  8
1
 62
7
 10
-288.2530412459454
 20
454.6520486649146
 30
0
 11
-288.2530412459454
 21
254.6520486649147
 31
0
  0
LINE
  8
1
 62
7
 10
-291.2530412459454
 20
458.6520486649146
 30
0
 11
-291.2530412459454
 21
250.6520486649147
 31
0
  0
LINE
  8
1
 62
7
 10
-294.2530412459454
 20
461.6520486649146
 30
0
 11
-310.6530412459453
 21
461.6520486649146
 31
0
  0
LINE
  8
1
 62
7
 10
-348.7530412459454
 20
8.264158744209386
 30
0
 11
-343.8530412459453
 21
8.264158744209396
 31
0
  0
LINE
  8
1
 62
7
 10
-348.7530412459454
 20
-86.73584125579062
 30
0
 11
-343.8530412459453
 21
-86.73584125579062
 31
0
  0
LINE
  8
1
 62
7
 10
-348.7530412459454
 20
402.1520486649146
 30
0
 11
-343.8530412459453
 21
402.1520486649146
 31
0
  0
LINE
  8
1
 62
7
 10
-348.7530412459454
 20
307.1520486649146
 30
0
 11
-343.8530412459453
 21
307.1520486649146
 31
0
  0
ARC
  8
1
 62
7
 10
-205.2531458773993
 20
-66.29260924409137
 30
0
 40
5.00002077516225
 50
90.16516730721764
 51
180
  0
ARC
  8
1
 62
7
 10
-203.253145877399
 20
-66.29260924409137
 30
0
 40
5.000020775162284
 50
0
 51
89.83483269278234
  0
ARC
  8
1
 62
7
 10
-205.2530935616724
 20
-62.29255692836447
 30
0
 40
1.000052315726904
 50
270
 51
90.82882184075689
  0
ARC
  8
1
 62
7
 10
-203.2531981931261
 20
-62.29255692836447
 30
0
 40
1.000052315726961
 50
89.17117815923172
 51
270
  0
ARC
  8
1
 62
7
 10
-811.2441739899957
 20
-158.2358412557905
 30
0
 40
5
 50
90
 51
180
  0
ARC
  8
1
 62
7
 10
-776.2441739899957
 20
-158.2358412557905
 30
0
 40
5
 50
0
 51
90
  0
ARC
  8
1
 62
7
 10
-766.2441739899957
 20
-169.2358412557905
 30
0
 40
5
 50
90
 51
180
  0
ARC
  8
1
 62
7
 10
-767.2441739899957
 20
46.7641587442095
 30
0
 40
20.00000000000001
 50
90
 51
180
  0
ARC
  8
1
 62
7
 10
-595.2441739899957
 20
46.7641587442095
 30
0
 40
20
 50
0
 51
90
  0
ARC
  8
1
 62
7
 10
-551.2441739899957
 20
-158.2358412557905
 30
0
 40
5
 50
0
 51
90
  0
ARC
  8
1
 62
7
 10
-586.2441739899957
 20
-158.2358412557905
 30
0
 40
5
 50
90
 51
180
  0
ARC
  8
1
 62
7
 10
-596.2441739899957
 20
-169.2358412557905
 30
0
 40
5
 50
0
 51
90
  0
ARC
  8
1
 62
7
 10
-259.2530412459454
 20
-169.2358412557905
 30
0
 40
5
 50
90
 51
180
  0
ARC
  8
1
 62
7
 10
-319.2530412459454
 20
-158.2358412557905
 30
0
 40
5
 50
90
 51
180
  0
ARC
  8
1
 62
7
 10
-290.2530412459454
 20
-145.2358412557905
 30
0
 40
8
 50
270
 51
0
  0
ARC
  8
1
 62
7
 10
-279.2530412459454
 20
63.7641587442095
 30
0
 40
3.000000000000007
 50
90
 51
180
  0
ARC
  8
1
 62
7
 10
-285.2530412459454
 20
-142.2358412557905
 30
0
 40
3
 50
0
 51
90
  0
ARC
  8
1
 62
7
 10
-285.2530412459454
 20
63.7641587442095
 30
0
 40
3
 50
270
 51
0
  0
ARC
  8
1
 62
7
 10
-123.2530412459453
 20
63.7641587442095
 30
0
 40
3
 50
180
 51
270
  0
ARC
  8
1
 62
7
 10
-129.2530412459453
 20
63.7641587442095
 30
0
 40
3
 50
0
 51
90
  0
ARC
  8
1
 62
7
 10
-123.2530412459453
 20
63.7641587442095
 30
0
 40
3
 50
180
 51
270
  0
ARC
  8
1
 62
7
 10
-118.2530412459453
 20
-145.2358412557905
 30
0
 40
8
 50
180
 51
270
  0
ARC
  8
1
 62
7
 10
-123.2530412459453
 20
-142.2358412557905
 30
0
 40
3
 50
90
 51
180
  0
ARC
  8
1
 62
7
 10
-89.2530412459453
 20
-158.2358412557905
 30
0
 40
5
 50
0
 51
90
  0
ARC
  8
1
 62
7
 10
-149.2530412459453
 20
-169.2358412557905
 30
0
 40
5
 50
0
 51
90
  0
ARC
  8
1
 62
7
 10
-73.75558069905736
 20
-80.23330180267857
 30
0
 40
0.997463779502981
 50
359.8541299385953
 51
89.85412993859528
  0
ARC
  8
1
 62
7
 10
-73.75304124594544
 20
1.764158744209496
 30
0
 40
1
 50
270
 51
0
  0
ARC
  8
1
 62
7
 10
-205.2531458773993
 20
-66.29260924409137
 30
0
 40
2.999999999999993
 50
90
 51
180
  0
ARC
  8
1
 62
7
 10
-211.2531458773993
 20
-68.29260924409137
 30
0
 40
6.999999999999993
 50
90
 51
180
  0
ARC
  8
1
 62
7
 10
-211.2531458773993
 20
-68.29260924409137
 30
0
 40
8.999999999999993
 50
90
 51
180
  0
ARC
  8
1
 62
7
 10
-203.253145877399
 20
-66.29260924409137
 30
0
 40
3
 50
0
 51
90
  0
ARC
  8
1
 62
7
 10
-197.253145877399
 20
-68.29260924409137
 30
0
 40
7
 50
0
 51
90
  0
ARC
  8
1
 62
7
 10
-197.253145877399
 20
-68.29260924409137
 30
0
 40
9
 50
0
 51
90
  0
ARC
  8
1
 62
7
 10
-279.2530412459454
 20
457.6520486649146
 30
0
 40
3
 50
90
 51
180
  0
ARC
  8
1
 62
7
 10
-285.2530412459454
 20
457.6520486649146
 30
0
 40
3
 50
270
 51
0
  0
ARC
  8
1
 62
7
 10
-123.2530412459453
 20
457.6520486649146
 30
0
 40
3
 50
180
 51
270
  0
ARC
  8
1
 62
7
 10
-129.2530412459453
 20
457.6520486649146
 30
0
 40
3
 50
0
 51
90
  0
ARC
  8
1
 62
7
 10
-123.2530412459453
 20
457.6520486649146
 30
0
 40
3
 50
180
 51
270
  0
ARC
  8
1
 62
7
 10
-123.2530412459453
 20
251.6520486649147
 30
0
 40
3
 50
90
 51
180
  0
ARC
  8
1
 62
7
 10
-123.2530412459453
 20
251.6520486649147
 30
0
 40
3
 50
90
 51
180
  0
ARC
  8
1
 62
7
 10
-73.7479623397216
 20
313.6520486649147
 30
0
 40
1
 50
0
 51
90
  0
ARC
  8
1
 62
7
 10
-73.75304124594544
 20
395.6520486649147
 30
0
 40
1
 50
270
 51
0
  0
ARC
  8
1
 62
7
 10
-123.2530412459453
 20
251.6520486649147
 30
0
 40
3
 50
90
 51
180
  0
ARC
  8
1
 62
7
 10
-129.2530412459453
 20
251.6520486649147
 30
0
 40
3
 50
270
 51
0
  0
ARC
  8
1
 62
7
 10
-123.2530412459453
 20
251.6520486649147
 30
0
 40
3
 50
90
 51
180
  0
ARC
  8
1
 62
7
 10
-279.2530412459454
 20
251.6520486649147
 30
0
 40
3
 50
180
 51
270
  0
ARC
  8
1
 62
7
 10
-285.2530412459454
 20
251.6520486649147
 30
0
 40
3
 50
0
 51
90
  0
ARC
  8
1
 62
7
 10
-319.2530412459454
 20
224.6520486649147
 30
0
 40
5
 50
180
 51
270
  0
ARC
  8
1
 62
7
 10
-89.2530412459453
 20
224.6520486649147
 30
0
 40
5
 50
270
 51
0
  0
ARC
  8
1
 62
7
 10
-319.2530412459454
 20
484.6520486649144
 30
0
 40
5.000000000000114
 50
90
 51
180
  0
ARC
  8
1
 62
7
 10
-89.2530412459453
 20
484.6520486649144
 30
0
 40
5
 50
0
 51
90
  0
ARC
  8
1
 62
7
 10
-290.2530412459454
 20
227.6520486649147
 30
0
 40
8
 50
270
 51
0
  0
ARC
  8
1
 62
7
 10
-290.2530412459454
 20
481.6520486649146
 30
0
 40
8
 50
0
 51
90
  0
ARC
  8
1
 62
7
 10
-118.2530412459451
 20
227.6520486649147
 30
0
 40
8
 50
180
 51
270
  0
ARC
  8
1
 62
7
 10
-118.2530412459451
 20
481.6520486649146
 30
0
 40
8
 50
90
 51
180
  0
ARC
  8
1
 62
7
 10
-41.7530412459453
 20
354.6520486649147
 30
0
 40
5
 50
90
 51
270
  0
ARC
  8
1
 62
3
  6
DASHDOT
 10
-681.2441739899957
 20
-39.2358412557905
 30
0
 40
64.99999999999997
 50
81.69986305257727
 51
97.841856212983
  0
ARC
  8
1
 62
3
  6
DASHDOT
 10
-681.2441739899957
 20
-39.2358412557905
 30
0
 40
64.99999999999999
 50
201.6998630525772
 51
217.8418562129829
  0
ARC
  8
1
 62
3
  6
DASHDOT
 10
-681.2441739899957
 20
-39.2358412557905
 30
0
 40
64.99999999999996
 50
321.6998630525772
 51
337.8418562129828
  0
ARC
  8
1
 62
7
 10
-596.39136024761
 20
45.61697248659521
 30
0
 40
7.999999999999955
 50
244.6887936769296
 51
205.3112063230703
  0
ARC
  8
1
 62
7
 10
-681.2441739899957
 20
-39.2358412557905
 30
0
 40
132.5
 50
40.99935365020466
 51
49.00064634979532
  0
ARC
  8
1
 62
7
 10
-766.0969877323814
 20
45.61697248659521
 30
0
 40
7.999999999999937
 50
334.6887936769299
 51
295.3112063230703
  0
ARC
  8
1
 62
7
 10
-681.2441739899957
 20
-39.2358412557905
 30
0
 40
132.5
 50
130.9993536502047
 51
139.0006463497953
  0
ARC
  8
1
 62
7
 10
-766.0969877323814
 20
-124.0886549981762
 30
0
 40
7.999999999999975
 50
64.68879367692959
 51
25.31120632306974
  0
ARC
  8
1
 62
7
 10
-681.2441739899957
 20
-39.2358412557905
 30
0
 40
132.5
 50
220.9993536502047
 51
229.0006463497953
  0
ARC
  8
1
 62
7
 10
-596.39136024761
 20
-124.0886549981762
 30
0
 40
8.000000000000039
 50
154.6887936769303
 51
115.3112063230704
  0
ARC
  8
1
 62
7
 10
-681.2441739899957
 20
-39.2358412557905
 30
0
 40
132.4999999999999
 50
310.9993536502047
 51
319.0006463497953
  0
ARC
  8
1
 62
7
 10
-681.2441739899957
 20
-39.2358412557905
 30
0
 40
29.00000000000004
 50
5.937772451605392
 51
84.06222754839457
  0
ARC
  8
1
 62
7
 10
-681.2441739899957
 20
-39.2358412557905
 30
0
 40
29.00000000000001
 50
275.9377724516054
 51
354.0622275483946
  0
ARC
  8
1
 62
7
 10
-681.2441739899957
 20
-39.2358412557905
 30
0
 40
29.00000000000005
 50
185.9377724516054
 51
264.0622275483946
  0
ARC
  8
1
 62
7
 10
-681.2441739899957
 20
-39.2358412557905
 30
0
 40
29
 50
95.93777245160543
 51
174.0622275483946
  0
ARC
  8
1
 62
7
 10
-189.2531458773993
 20
-93.71071498994338
 30
0
 40
1.487500000000074
 50
44.9999999999969
 51
134.9999999999946
  0
ARC
  8
1
 62
7
 10
-186.7782721432464
 20
-91.2358412557905
 30
0
 40
1.487499999999873
 50
134.9999999999953
 51
225.0000000000047
  0
ARC
  8
1
 62
7
 10
-189.2531458773993
 20
-88.76096752163763
 30
0
 40
1.487499999999853
 50
225.0000000000054
 51
315.0000000000031
  0
ARC
  8
1
 62
7
 10
-191.7280196115521
 20
-91.2358412557905
 30
0
 40
1.487499999999853
 50
314.9999999999945
 51
45.00000000000542
  0
ARC
  8
1
 62
7
 10
-199.2531458773993
 20
-93.71071498994338
 30
0
 40
1.487500000000074
 50
44.9999999999969
 51
134.9999999999946
  0
ARC
  8
1
 62
7
 10
-196.7782721432464
 20
-91.2358412557905
 30
0
 40
1.487499999999873
 50
134.9999999999953
 51
225.0000000000047
  0
ARC
  8
1
 62
7
 10
-199.2531458773993
 20
-88.76096752163763
 30
0
 40
1.487499999999853
 50
225.0000000000054
 51
315.0000000000031
  0
ARC
  8
1
 62
7
 10
-201.7280196115524
 20
-91.2358412557905
 30
0
 40
1.487500000000074
 50
315.0000000000031
 51
44.9999999999969
  0
ARC
  8
1
 62
7
 10
-182.0031458773993
 20
-82.9858412557905
 30
0
 40
1.487500000000011
 50
0
 51
90
  0
ARC
  8
1
 62
7
 10
-178.5031458773993
 20
-82.9858412557905
 30
0
 40
1.487500000000026
 50
90
 51
180
  0
ARC
  8
1
 62
7
 10
-178.5031458773993
 20
-79.4858412557905
 30
0
 40
1.487499999999898
 50
180
 51
270
  0
ARC
  8
1
 62
7
 10
-182.0031458773993
 20
-79.4858412557905
 30
0
 40
1.487500000000011
 50
270
 51
0
  0
ARC
  8
1
 62
7
 10
-219.2531458773993
 20
-93.71071498994338
 30
0
 40
1.487500000000074
 50
44.9999999999969
 51
134.9999999999977
  0
ARC
  8
1
 62
7
 10
-221.7280196115522
 20
-91.2358412557905
 30
0
 40
1.487499999999873
 50
314.9999999999954
 51
45.00000000000464
  0
ARC
  8
1
 62
7
 10
-219.2531458773993
 20
-88.76096752163763
 30
0
 40
1.487499999999933
 50
225.0000000000023
 51
315.0000000000031
  0
ARC
  8
1
 62
7
 10
-216.7782721432464
 20
-91.2358412557905
 30
0
 40
1.487500000000074
 50
135.0000000000031
 51
224.9999999999969
  0
ARC
  8
1
 62
7
 10
-209.2531458773993
 20
-93.71071498994338
 30
0
 40
1.487500000000074
 50
44.9999999999969
 51
135
  0
ARC
  8
1
 62
7
 10
-211.7280196115522
 20
-91.2358412557905
 30
0
 40
1.487499999999933
 50
314.9999999999977
 51
45.00000000000232
  0
ARC
  8
1
 62
7
 10
-209.2531458773993
 20
-88.76096752163763
 30
0
 40
1.487499999999994
 50
225
 51
315.0000000000031
  0
ARC
  8
1
 62
7
 10
-206.7782721432464
 20
-91.2358412557905
 30
0
 40
1.487500000000074
 50
135.0000000000031
 51
224.9999999999969
  0
ARC
  8
1
 62
7
 10
-226.5031458773993
 20
-82.9858412557905
 30
0
 40
1.487500000000026
 50
90
 51
180
  0
ARC
  8
1
 62
7
 10
-230.0031458773993
 20
-82.9858412557905
 30
0
 40
1.487499999999898
 50
0
 51
90
  0
ARC
  8
1
 62
7
 10
-230.0031458773993
 20
-79.4858412557905
 30
0
 40
1.487500000000011
 50
270
 51
0
  0
ARC
  8
1
 62
7
 10
-226.5031458773993
 20
-79.4858412557905
 30
0
 40
1.487499999999784
 50
180
 51
270
  0
ARC
  8
1
 62
7
 10
-204.2531458773993
 20
-61.29260924409137
 30
0
 40
5.000000000000152
 50
23.57817847820107
 51
156.4218215217982
  0
ARC
  8
1
 62
7
 10
-204.2531458773993
 20
-61.29260924409137
 30
0
 40
5
 50
180
 51
198.8078095517093
  0
ARC
  8
1
 62
7
 10
-205.2530935616724
 20
-60.29266155981828
 30
0
 40
1.000052315726958
 50
269.1711781592431
 51
90
  0
ARC
  8
1
 62
7
 10
-204.2531458773993
 20
-61.29260924409137
 30
0
 40
4.99999999999998
 50
224.1457432463727
 51
315.8542567536279
  0
ARC
  8
1
 62
7
 10
-204.2531458773993
 20
-61.29260924409137
 30
0
 40
5.000000000000227
 50
341.1921904482919
 51
0
  0
ARC
  8
1
 62
7
 10
-203.2531981931261
 20
-60.29266155981828
 30
0
 40
1.000052315726904
 50
90
 51
270.8288218407683
  0
ARC
  8
1
 62
7
 10
-204.2531458773993
 20
-61.29260924409137
 30
0
 40
2.499999999999961
 50
234.4649085793103
 51
305.5350914206919
  0
ARC
  8
1
 62
7
 10
-204.2531458773993
 20
-61.29260924409137
 30
0
 40
2.5
 50
53.13010235415598
 51
126.869897645844
  0
CIRCLE
  8
1
 62
7
 10
-681.2441739899957
 20
-39.2358412557905
 30
0
 40
93.5
  0
CIRCLE
  8
1
 62
7
 10
-681.2441739899957
 20
-39.2358412557905
 30
0
 40
47.5
  0
CIRCLE
  8
1
 62
7
 10
-681.2441739899957
 20
25.7641587442095
 30
0
 40
6
  0
CIRCLE
  8
1
 62
3
 10
-681.2441739899957
 20
25.7641587442095
 30
0
 40
5
  0
CIRCLE
  8
1
 62
7
 10
-737.5358252359843
 20
-71.73584125579049
 30
0
 40
6
  0
CIRCLE
  8
1
 62
3
 10
-737.5358252359843
 20
-71.73584125579049
 30
0
 40
5
  0
CIRCLE
  8
1
 62
7
 10
-624.9525227440072
 20
-71.73584125579052
 30
0
 40
6
  0
CIRCLE
  8
1
 62
3
 10
-624.9525227440072
 20
-71.73584125579052
 30
0
 40
5
  0
CIRCLE
  8
1
 62
7
 10
-681.2441739899957
 20
-39.2358412557905
 30
0
 40
20
  0
CIRCLE
  8
1
 62
3
 10
-681.2441739899957
 20
-39.2358412557905
 30
0
 40
18.75
  0
CIRCLE
  8
1
 62
7
 10
-681.2441739899957
 20
-39.2358412557905
 30
0
 40
112.5
  0
CIRCLE
  8
1
 62
7
 10
-681.2441739899957
 20
-39.2358412557905
 30
0
 40
107.5
  0
CIRCLE
  8
1
 62
7
 10
-189.2531458773993
 20
-91.2358412557905
 30
0
 40
2.75
  0
CIRCLE
  8
1
 62
7
 10
-199.2531458773993
 20
-91.2358412557905
 30
0
 40
2.75
  0
CIRCLE
  8
1
 62
7
 10
-180.2531458773993
 20
-81.2358412557905
 30
0
 40
2.75
  0
CIRCLE
  8
1
 62
7
 10
-219.2531458773993
 20
-91.2358412557905
 30
0
 40
2.75
  0
CIRCLE
  8
1
 62
7
 10
-209.2531458773993
 20
-91.2358412557905
 30
0
 40
2.75
  0
CIRCLE
  8
1
 62
7
 10
-228.2531458773993
 20
-81.2358412557905
 30
0
 40
2.75
  0
CIRCLE
  8
1
 62
7
 10
-304.2530412459454
 20
239.6520486649147
 30
0
 40
6.5
  0
CIRCLE
  8
1
 62
7
 10
-104.2530412459453
 20
239.6520486649147
 30
0
 40
6.5
  0
CIRCLE
  8
1
 62
7
 10
-104.2530412459453
 20
469.6520486649145
 30
0
 40
6.5
  0
CIRCLE
  8
1
 62
7
 10
-304.2530412459454
 20
469.6520486649144
 30
0
 40
6.5
  0
TEXT
  8
1
 62
7
 10
-197.4031458773993
 20
-83.7358412557905
 30
0
 40
3.5
  1
BR
 41
0.8910000000000004
  7
SIMPLEX
  0
TEXT
  8
1
 62
7
 10
-217.4031458773993
 20
-83.7358412557905
 30
0
 40
3.5
  1
CL
 41
0.8910000000000004
  7
SIMPLEX
  0
TEXT
  8
1
 62
7
 10
-722.6839509041198
 20
350.8929410084166
 30
0
 40
15
  1
DC1806
 41
0.9
  7
SIMPLEX
  0
TEXT
  8
1
 62
7
 10
-721.7441739899957
 20
377.1520486649146
 30
0
 40
15
  1
TMP 20
 41
0.9
  7
SIMPLEX
  0
ENDSEC
  0
EOF
