  0
SECTION
  2
HEADER
  9
$ACADVER
  1
AC1009
  9
$INSBASE
 10
0
 20
0
  9
$EXTMIN
 10
-230.3846065735866
 20
-45.00000000000001
  9
$EXTMAX
 10
183.299880697634
 20
132.4039743433908
  9
$LIMMIN
 10
-230.3846065735866
 20
-45.00000000000001
  9
$LIMMAX
 10
183.299880697634
 20
132.4039743433908
  9
$VIEWCTR
 10
10
 20
10
  9
$VIEWSIZE
 40
10
  9
$SNAPMODE
 70
0
  9
$SNAPUNIT
 10
1
 20
1
  9
$SNAPBASE
 10
0
 20
0
  9
$SNAPANG
 50
0
  9
$SNAPSTYLE
 70
0
  9
$SNAPISOPAIR
 70
0
  9
$GRIDMODE
 70
0
  9
$GRIDUNIT
 10
0
 20
0
  9
$ORTHOMODE
 70
0
  9
$REGENMODE
 70
1
  9
$FILLMODE
 70
1
  9
$QTEXTMODE
 70
0
  9
$DRAGMODE
 70
2
  9
$LTSCALE
 40
1
  9
$OSMODE
 70
0
  9
$ATTMODE
 70
1
  9
$TEXTSIZE
 40
3.5
  9
$TRACEWID
 40
0.5
  9
$TEXTSTYLE
  7
STANDARD
  9
$CLAYER
  8
0
  9
$CELTYPE
  6
BYLAYER
  9
$CECOLOR
 62
256
  9
$DIMSCALE
 40
1
  9
$DIMASZ
 40
0.18
  9
$DIMEXO
 40
0.0625
  9
$DIMDLI
 40
0.38
  9
$DIMRND
 40
0
  9
$DIMDLE
 40
0
  9
$DIMEXE
 40
0.18
  9
$DIMTP
 40
0
  9
$DIMTM
 40
0
  9
$DIMTXT
 40
0.18
  9
$DIMCEN
 40
0.09
  9
$DIMTSZ
 40
0
  9
$DIMTOL
 70
0
  9
$DIMLIM
 70
0
  9
$DIMTIH
 70
1
  9
$DIMTOH
 70
1
  9
$DIMSE1
 70
0
  9
$DIMSE2
 70
0
  9
$DIMTAD
 70
0
  9
$DIMZIN
 70
0
  9
$DIMBLK
  1

  9
$DIMASO
 70
1
  9
$DIMSHO
 70
1
  9
$DIMPOST
  1

  9
$DIMAPOST
  1

  9
$DIMALT
 70
0
  9
$DIMALTD
 70
2
  9
$DIMALTF
 40
25.4
  9
$DIMLFAC
 40
1
  9
$DIMTOFL
 70
0
  9
$DIMTVP
 40
0
  9
$DIMTIX
 70
0
  9
$DIMSOXD
 70
0
  9
$DIMSAH
 70
0
  9
$DIMBLK1
  1

  9
$DIMBLK2
  1

  9
$DIMSTYLE
  2
*UNNAMED
  9
$DIMCLRD
 70
0
  9
$DIMCLRE
 70
0
  9
$DIMCLRT
 70
0
  9
$DIMTFAC
 40
1
  9
$DIMGAP
 40
0.09
  9
$LUNITS
 70
2
  9
$LUPREC
 70
4
  9
$AXISMODE
 70
0
  9
$AXISUNIT
 10
0
 20
0
  9
$SKETCHINC
 40
0.1
  9
$FILLETRAD
 40
2
  9
$AUNITS
 70
0
  9
$AUPREC
 70
0
  9
$MENU
  1
ACAD
  9
$ELEVATION
 40
0
  9
$THICKNESS
 40
0
  9
$VIEWDIR
 10
0
 20
0
 30
1
  9
$LIMCHECK
 70
0
  9
$BLIPMODE
 70
1
  9
$CHAMFERA
 40
0
  9
$CHAMFERB
 40
0
  9
$FASTZOOM
 70
1
  9
$SKPOLY
 70
0
  9
$ANGBASE
 50
0
  9
$ANGDIR
 70
0
  9
$PDMODE
 70
0
  9
$PDSIZE
 40
0
  9
$PLINEWID
 40
0
  9
$COORDS
 70
2
  0
ENDSEC
  0
SECTION
  2
TABLES
  0
TABLE
  2
DIMSTYLE
 70
0
  0
ENDTAB
  0
TABLE
  2
LTYPE
 70
9
  0
LTYPE
  2
CONTINUOUS
 70
64
  3
Solid line
 72
65
 73
0
 40
0
  0
LTYPE
  2
BORDER
 70
64
  3
__ __ . __ __ .
 72
65
 73
6
 40
19.05125928222727
 49
5.443216937779219
 49
-2.72160846888961
 49
5.443216937779219
 49
-2.72160846888961
 49
0
 49
-2.72160846888961
  0
LTYPE
  2
CENTER
 70
64
  3
____ _ ____ _
 72
65
 73
4
 40
21.77286775111688
 49
13.60804234444805
 49
-2.72160846888961
 49
2.72160846888961
 49
-2.72160846888961
  0
LTYPE
  2
DASHDOT
 70
64
  3
__ . __ . __ .
 72
65
 73
4
 40
10.88643387555844
 49
5.443216937779219
 49
-2.72160846888961
 49
0
 49
-2.72160846888961
  0
LTYPE
  2
DASHED
 70
64
  3
__ __ __ __ __
 72
65
 73
2
 40
8.164825406668829
 49
5.443216937779219
 49
-2.72160846888961
  0
LTYPE
  2
DIVIDE
 70
64
  3
__ . . __ . . 
 72
65
 73
6
 40
13.60804234444805
 49
5.443216937779219
 49
-2.72160846888961
 49
0
 49
-2.72160846888961
 49
0
 49
-2.72160846888961
  0
LTYPE
  2
DOT
 70
64
  3
..............
 72
65
 73
4
 40
5.443216937779219
 49
0
 49
-2.72160846888961
 49
0
 49
-2.72160846888961
  0
LTYPE
  2
HIDDEN
 70
64
  3
_ _ _ _ _ _ _
 72
65
 73
2
 40
4.082412703334414
 49
2.72160846888961
 49
-1.360804234444805
  0
LTYPE
  2
PHANTOM
 70
64
  3
_____ _ _ _____ _ _ 
 72
65
 73
6
 40
27.2160846888961
 49
13.60804234444805
 49
-2.72160846888961
 49
2.72160846888961
 49
-2.72160846888961
 49
2.72160846888961
 49
-2.72160846888961
  0
ENDTAB
  0
TABLE
  2
LAYER
 70
3
  0
LAYER
  2
1
 70
0
 62
7
  6
CONTINUOUS
  0
LAYER
  2
0
 70
0
 62
7
  6
CONTINUOUS
  0
ENDTAB
  0
TABLE
  2
STYLE
 70
4
  0
STYLE
  2
STANDARD
 70
0
 40
0
 41
1
 50
0
 71
0
 42
3.5
  3
txt
  4

  0
STYLE
  2
SIMPLEX
 70
0
 40
0
 41
1
 50
0
 71
0
 42
3.5
  3
simplex
  4

  0
STYLE
  2
COMPLEX
 70
0
 40
0
 41
1
 50
0
 71
0
 42
3.5
  3
complex
  4

  0
STYLE
  2
ITALIC
 70
0
 40
0
 41
1
 50
0
 71
0
 42
3.5
  3
italic
  4

  0
ENDTAB
  0
TABLE
  2
VIEW
 70
0
  0
ENDTAB
  0
ENDSEC
  0
SECTION
  2
BLOCKS
  0
ENDSEC
  0
SECTION
  2
ENTITIES
  0
LINE
  8
1
 62
7
 10
-62.30000000000001
 20
-42.75000000000011
 30
0
 11
-66.40000000000002
 21
-42.75000000000015
 31
0
  0
LINE
  8
1
 62
7
 10
-66.40000000000002
 20
-42.75000000000015
 30
0
 11
-66.40000000000002
 21
42.74999999999989
 31
0
  0
LINE
  8
1
 62
7
 10
-62.30000000000001
 20
42.74999999999989
 30
0
 11
-66.40000000000002
 21
42.74999999999989
 31
0
  0
LINE
  8
1
 62
7
 10
137.299880697634
 20
-31.73205080756894
 30
0
 11
137.299880697634
 21
-35.40832691319603
 31
0
  0
LINE
  8
1
 62
7
 10
137.299880697634
 20
-24.59167308680405
 30
0
 11
137.2998806976341
 21
-28.26794919243115
 31
0
  0
LINE
  8
1
 62
7
 10
139.299880697634
 20
-28.26794919243115
 30
0
 11
139.299880697634
 21
-24.59167308680405
 31
0
  0
LINE
  8
1
 62
7
 10
139.299880697634
 20
-35.40832691319603
 30
0
 11
139.299880697634
 21
-31.73205080756894
 31
0
  0
LINE
  8
1
 62
7
 10
111.3191185841008
 20
16.73205080756891
 30
0
 11
108.135370085302
 21
18.57018886038243
 31
0
  0
LINE
  8
1
 62
7
 10
117.5028670828996
 20
13.16186194718644
 30
0
 11
114.3191185841008
 21
15.00000000000001
 31
0
  0
LINE
  8
1
 62
7
 10
113.3191185841008
 20
13.26794919243117
 30
0
 11
116.5028670828997
 21
11.4298111396176
 31
0
  0
LINE
  8
1
 62
7
 10
107.1353700853021
 20
16.83813805281359
 30
0
 11
110.3191185841008
 21
15.00000000000001
 31
0
  0
LINE
  8
1
 62
7
 10
166.2806428111672
 20
15.00000000000001
 30
0
 11
169.4643913099659
 21
16.83813805281359
 31
0
  0
LINE
  8
1
 62
7
 10
160.0968943123684
 20
11.4298111396176
 30
0
 11
163.2806428111672
 21
13.26794919243117
 31
0
  0
LINE
  8
1
 62
7
 10
162.2806428111672
 20
15.00000000000001
 30
0
 11
159.0968943123684
 21
13.16186194718644
 31
0
  0
LINE
  8
1
 62
7
 10
168.4643913099659
 20
18.57018886038243
 30
0
 11
165.2806428111672
 21
16.73205080756891
 31
0
  0
LINE
  8
1
 62
7
 10
-177.3846065735866
 20
60.00000000000003
 30
0
 11
-177.3846065735866
 21
39.91240408695023
 31
0
  0
LINE
  8
1
 62
7
 10
-199.1782905613418
 20
42.83379836117675
 30
0
 11
-206.6167238867146
 21
70.59440946018214
 31
0
  0
LINE
  8
1
 62
7
 10
-196.7776836125806
 20
43.53386952228747
 30
0
 11
-204.201909320992
 21
71.24145707293843
 31
0
  0
LINE
  8
1
 62
7
 10
-203.8893889881682
 20
76.50157754578733
 30
0
 11
-202.5851400931505
 21
71.67466908188604
 31
0
  0
LINE
  8
1
 62
7
 10
-204.4037949585338
 20
76.36374288144613
 30
0
 11
-203.0812556544235
 21
71.54173531789053
 31
0
  0
LINE
  8
1
 62
7
 10
-204.986461664925
 20
76.20761780801205
 30
0
 11
-203.6822127699076
 21
71.38070934411073
 31
0
  0
LINE
  8
1
 62
7
 10
-205.8186785488334
 20
70.80824506399084
 30
0
 11
-207.1026201048412
 21
75.64059486298022
 31
0
  0
LINE
  8
1
 62
7
 10
-205.3225629875606
 20
70.94117882798643
 30
0
 11
-206.5882141344756
 21
75.77842952732142
 31
0
  0
LINE
  8
1
 62
7
 10
-204.7216058720765
 20
71.10220480176614
 30
0
 11
-206.0055474280841
 21
75.93455460075553
 31
0
  0
LINE
  8
1
 62
7
 10
-191.3846065735866
 20
62.00000000000003
 30
0
 11
-179.3846065735866
 21
62.00000000000003
 31
0
  0
LINE
  8
1
 62
7
 10
-194.3410999520192
 20
44.09967376707105
 30
0
 11
-201.7870947552693
 21
71.88850468569473
 31
0
  0
LINE
  8
1
 62
7
 10
-206.6167238867146
 20
70.59440946018214
 30
0
 11
-201.7870947552693
 21
71.88850468569473
 31
0
  0
LINE
  8
1
 62
7
 10
-193.3846065735866
 20
60.00000000000003
 30
0
 11
-193.3846065735866
 21
39.91240408695023
 31
0
  0
LINE
  8
1
 62
7
 10
-69.14337567297406
 20
45.00000000000003
 30
0
 11
-69.14337567297406
 21
-45.00000000000001
 31
0
  0
LINE
  8
1
 62
7
 10
-67.70000000000002
 20
42.5
 30
0
 11
-67.70000000000002
 21
-42.51908048645167
 31
0
  0
LINE
  8
1
 62
7
 10
-92.40000000000002
 20
62.00000000000003
 30
0
 11
-92.40000000000002
 21
-35.00000000000001
 31
0
  0
LINE
  8
1
 62
7
 10
-93.40000000000002
 20
-14.70000000000002
 30
0
 11
-93.10000000000004
 21
-15.00000000000001
 31
0
  0
LINE
  8
1
 62
7
 10
-93.40000000000002
 20
14.7
 30
0
 11
-93.10000000000004
 21
15
 31
0
  0
LINE
  8
1
 62
7
 10
-93.40000000000002
 20
14.7
 30
0
 11
-93.40000000000002
 21
-14.70000000000002
 31
0
  0
LINE
  8
1
 62
7
 10
-66.80000000000003
 20
42.5
 30
0
 11
-66.80000000000003
 21
-42.50000000000001
 31
0
  0
LINE
  8
1
 62
7
 10
-78.70000000000002
 20
-42.34999999999999
 30
0
 11
-79.61746588725974
 21
-42.34999999999999
 31
0
  0
LINE
  8
1
 62
7
 10
-78.70000000000002
 20
45.00000000000003
 30
0
 11
-78.70000000000002
 21
-45.00000000000001
 31
0
  0
LINE
  8
1
 62
3
  6
DASHDOT
 10
-93.40000000000002
 20
0
 30
0
 11
-98.40000000000002
 21
0
 31
0
  0
LINE
  8
1
 62
7
 10
-83.65000000000002
 20
71.07634471265233
 30
0
 11
-83.65000000000002
 21
42.5
 31
0
  0
LINE
  8
1
 62
7
 10
-79.61746588725974
 20
42.5
 30
0
 11
-84.41746588725975
 21
42.5
 31
0
  0
LINE
  8
1
 62
7
 10
-79.61746588725974
 20
42.5
 30
0
 11
-79.61746588725974
 21
42.35000000000001
 31
0
  0
LINE
  8
1
 62
7
 10
-79.61746588725974
 20
42.35000000000001
 30
0
 11
-78.70000000000002
 21
42.35000000000001
 31
0
  0
LINE
  8
1
 62
7
 10
-79.61746588725974
 20
-42.34999999999999
 30
0
 11
-79.61746588725974
 21
-42.5
 31
0
  0
LINE
  8
1
 62
7
 10
-84.41746588725975
 20
-42.5
 30
0
 11
-79.61746588725974
 21
-42.5
 31
0
  0
LINE
  8
1
 62
7
 10
-90.40000000000002
 20
-35.00000000000001
 30
0
 11
-92.40000000000002
 21
-35.00000000000001
 31
0
  0
LINE
  8
1
 62
7
 10
-92.40000000000002
 20
62.00000000000003
 30
0
 11
-90.40000000000001
 21
62.00000000000003
 31
0
  0
LINE
  8
1
 62
7
 10
-81.15000000000002
 20
42.5
 30
0
 11
-81.15000000000002
 21
71.07634471265233
 31
0
  0
LINE
  8
1
 62
7
 10
-67.70000000000002
 20
-42.50000000000001
 30
0
 11
-66.80000000000003
 21
-42.50000000000001
 31
0
  0
LINE
  8
1
 62
7
 10
-69.14337567297406
 20
-45.00000000000001
 30
0
 11
-67.70000000000002
 21
-42.50000000000001
 31
0
  0
LINE
  8
1
 62
7
 10
-78.70000000000002
 20
-45.00000000000001
 30
0
 11
-69.14337567297406
 21
-45.00000000000001
 31
0
  0
LINE
  8
1
 62
7
 10
-69.14337567297406
 20
45.00000000000003
 30
0
 11
-78.70000000000002
 21
45.00000000000003
 31
0
  0
LINE
  8
1
 62
7
 10
-67.70000000000002
 20
42.5
 30
0
 11
-69.14337567297406
 21
45.00000000000003
 31
0
  0
LINE
  8
1
 62
7
 10
-66.80000000000003
 20
42.5
 30
0
 11
-67.70000000000002
 21
42.5
 31
0
  0
LINE
  8
1
 62
7
 10
-83.15224463930224
 20
74.37959179022703
 30
0
 11
-83.15224463930224
 21
71.07634471265233
 31
0
  0
LINE
  8
1
 62
7
 10
-82.72300964573519
 20
74.37959179022703
 30
0
 11
-82.72300964573519
 21
71.07634471265233
 31
0
  0
LINE
  8
1
 62
7
 10
-82.13096137874614
 20
74.37959179022703
 30
0
 11
-82.13096137874614
 21
71.07634471265233
 31
0
  0
LINE
  8
1
 62
7
 10
-81.64252155848017
 20
74.37959179022703
 30
0
 11
-81.64252155848017
 21
71.07634471265233
 31
0
  0
LINE
  8
1
 62
7
 10
-83.65000000000002
 20
71.07634471265233
 30
0
 11
-81.15000000000002
 21
71.07634471265233
 31
0
  0
LINE
  8
1
 62
7
 10
159.5319980107621
 20
70.59440946018214
 30
0
 11
152.0935646853892
 21
42.83379836117675
 31
0
  0
LINE
  8
1
 62
7
 10
157.1171834450395
 20
71.24145707293843
 30
0
 11
149.6929577366279
 21
43.53386952228749
 31
0
  0
LINE
  8
1
 62
7
 10
155.500414217198
 20
71.67466908188604
 30
0
 11
156.8046631122155
 21
76.50157754578733
 31
0
  0
LINE
  8
1
 62
7
 10
155.9965297784709
 20
71.54173531789053
 30
0
 11
157.3190690825812
 21
76.36374288144613
 31
0
  0
LINE
  8
1
 62
7
 10
156.5974868939551
 20
71.38070934411073
 30
0
 11
157.9017357889725
 21
76.20761780801205
 31
0
  0
LINE
  8
1
 62
7
 10
160.0178942288887
 20
75.64059486298022
 30
0
 11
158.7339526728809
 21
70.80824506399084
 31
0
  0
LINE
  8
1
 62
7
 10
159.503488258523
 20
75.77842952732142
 30
0
 11
158.2378371116081
 21
70.94117882798643
 31
0
  0
LINE
  8
1
 62
7
 10
158.9208215521316
 20
75.93455460075553
 30
0
 11
157.6368799961239
 21
71.10220480176614
 31
0
  0
LINE
  8
1
 62
7
 10
132.299880697634
 20
62.00000000000003
 30
0
 11
144.299880697634
 21
62.00000000000003
 31
0
  0
LINE
  8
1
 62
7
 10
154.7023688793168
 20
71.88850468569473
 30
0
 11
147.2563740760666
 21
44.09967376707105
 31
0
  0
LINE
  8
1
 62
7
 10
154.7023688793168
 20
71.88850468569473
 30
0
 11
159.5319980107621
 21
70.59440946018214
 31
0
  0
LINE
  8
1
 62
7
 10
130.299880697634
 20
44.28317965096908
 30
0
 11
130.299880697634
 21
60.00000000000003
 31
0
  0
LINE
  8
1
 62
7
 10
146.299880697634
 20
44.28317965096908
 30
0
 11
146.299880697634
 21
60.00000000000003
 31
0
  0
LINE
  8
1
 62
7
 10
-92.40000000000002
 20
15
 30
0
 11
-93.10000000000004
 21
15
 31
0
  0
LINE
  8
1
 62
7
 10
-92.40000000000002
 20
-15.00000000000001
 30
0
 11
-93.10000000000004
 21
-15.00000000000001
 31
0
  0
LINE
  8
1
 62
3
  6
DASHDOT
 10
-95.40000000000002
 20
56.00000000000003
 30
0
 11
-87.40000000000001
 21
56.00000000000003
 31
0
  0
LINE
  8
1
 62
7
 10
-61.30000000000001
 20
30.06582624879368
 30
0
 11
-61.30000000000001
 21
-42
 31
0
  0
LINE
  8
1
 62
7
 10
-61.80000000000001
 20
30
 30
0
 11
-61.80000000000001
 21
-42
 31
0
  0
LINE
  8
1
 62
7
 10
-62.30000000000001
 20
42.74999999999989
 30
0
 11
-62.30000000000001
 21
-42.75000000000011
 31
0
  0
LINE
  8
1
 62
7
 10
-61.80000000000001
 20
-42
 30
0
 11
-61.30000000000001
 21
-42
 31
0
  0
LINE
  8
1
 62
7
 10
-60.40000000000001
 20
33.90000000000001
 30
0
 11
-59.90000000000001
 21
34.40000000000001
 31
0
  0
LINE
  8
1
 62
7
 10
-59.90000000000001
 20
40.59999999999999
 30
0
 11
-60.40000000000001
 21
41.09999999999999
 31
0
  0
LINE
  8
1
 62
7
 10
-61.30000000000001
 20
41.09999999999999
 30
0
 11
-61.30000000000001
 21
33.90000000000001
 31
0
  0
LINE
  8
1
 62
7
 10
-61.80000000000001
 20
33.90000000000001
 30
0
 11
-60.40000000000001
 21
33.90000000000001
 31
0
  0
LINE
  8
1
 62
7
 10
-59.90000000000001
 20
40.59999999999999
 30
0
 11
-59.90000000000001
 21
34.40000000000001
 31
0
  0
LINE
  8
1
 62
7
 10
-61.80000000000001
 20
41.09999999999999
 30
0
 11
-60.40000000000001
 21
41.09999999999999
 31
0
  0
LINE
  8
1
 62
7
 10
-62.30000000000001
 20
31.86602540378443
 30
0
 11
-61.80000000000001
 21
30
 31
0
  0
LINE
  8
1
 62
7
 10
-61.80000000000001
 20
31.93185165257813
 30
0
 11
-61.30000000000001
 21
30.06582624879368
 31
0
  0
LINE
  8
1
 62
7
 10
-61.80000000000001
 20
42
 30
0
 11
-61.80000000000001
 21
31.93185165257813
 31
0
  0
LINE
  8
1
 62
7
 10
-62.30000000000001
 20
42
 30
0
 11
-61.80000000000001
 21
42
 31
0
  0
LINE
  8
1
 62
7
 10
-62.30000000000001
 20
30
 30
0
 11
-61.80000000000001
 21
30
 31
0
  0
LINE
  8
1
 62
7
 10
-61.30000000000001
 20
-24.99999999999998
 30
0
 11
-60.30000000000001
 21
-24.99999999999998
 31
0
  0
LINE
  8
1
 62
7
 10
-60.30000000000001
 20
-34.99999999999997
 30
0
 11
-61.30000000000001
 21
-34.99999999999997
 31
0
  0
LINE
  8
1
 62
7
 10
-56.40000000000002
 20
-20.49999999999998
 30
0
 11
-59.30000000000001
 21
-20.49999999999998
 31
0
  0
LINE
  8
1
 62
7
 10
-60.30000000000001
 20
-21.49999999999998
 30
0
 11
-60.30000000000001
 21
-38.49999999999997
 31
0
  0
LINE
  8
1
 62
7
 10
-59.30000000000001
 20
-39.49999999999998
 30
0
 11
-56.40000000000002
 21
-39.49999999999998
 31
0
  0
LINE
  8
1
 62
7
 10
-56.40000000000002
 20
28.00000000000001
 30
0
 11
-56.40000000000002
 21
-39.99999999999998
 31
0
  0
LINE
  8
1
 62
7
 10
-55.90000000000002
 20
-40.49999999999998
 30
0
 11
-51.10000000000002
 21
-40.49999999999998
 31
0
  0
LINE
  8
1
 62
7
 10
-50.60000000000002
 20
-39.99999999999998
 30
0
 11
-50.60000000000002
 21
-39.49999999999998
 31
0
  0
LINE
  8
1
 62
7
 10
-50.60000000000002
 20
-39.49999999999998
 30
0
 11
-49.60000000000002
 21
-39.49999999999998
 31
0
  0
LINE
  8
1
 62
7
 10
-47.60000000000002
 20
-37.49999999999997
 30
0
 11
-47.60000000000002
 21
-20.49999999999998
 31
0
  0
LINE
  8
1
 62
7
 10
-47.60000000000002
 20
-20.49999999999998
 30
0
 11
-47.40000000000002
 21
-20.49999999999998
 31
0
  0
LINE
  8
1
 62
7
 10
-47.40000000000002
 20
-20.49999999999998
 30
0
 11
-47.40000000000002
 21
28
 31
0
  0
LINE
  8
1
 62
7
 10
-54.40000000000002
 20
30.00000000000001
 30
0
 11
-49.40000000000002
 21
30
 31
0
  0
LINE
  8
1
 62
7
 10
-56.40000000000002
 20
24.50000000000001
 30
0
 11
-59.30000000000001
 21
24.50000000000001
 31
0
  0
LINE
  8
1
 62
7
 10
-60.30000000000001
 20
20.00000000000001
 30
0
 11
-61.30000000000001
 21
20.00000000000001
 31
0
  0
LINE
  8
1
 62
3
  6
DASHDOT
 10
-47.40000000000002
 20
0
 30
0
 11
-42.80000000000004
 21
2.131628207280301e-014
 31
0
  0
LINE
  8
1
 62
7
 10
-61.80000000000001
 20
-29.99999999999998
 30
0
 11
-62.30000000000003
 21
-29.99999999999998
 31
0
  0
LINE
  8
1
 62
7
 10
-56.40000000000002
 20
-9.999999999999979
 30
0
 11
-61.30000000000001
 21
-9.999999999999979
 31
0
  0
LINE
  8
1
 62
7
 10
-50.60000000000002
 20
-39.99999999999998
 30
0
 11
-50.60000000000002
 21
-39.49999999999998
 31
0
  0
LINE
  8
1
 62
7
 10
-60.3
 20
6.500000000000014
 30
0
 11
-60.30000000000001
 21
23.50000000000001
 31
0
  0
LINE
  8
1
 62
7
 10
-59.3
 20
5.500000000000014
 30
0
 11
-56.40000000000001
 21
5.500000000000014
 31
0
  0
LINE
  8
1
 62
7
 10
-60.30000000000001
 20
10.00000000000001
 30
0
 11
-61.3
 21
10.00000000000001
 31
0
  0
LINE
  8
1
 62
7
 10
-187.8846065735866
 20
7.07106781186549
 30
0
 11
-187.8846065735866
 21
9.500000000000014
 31
0
  0
LINE
  8
1
 62
7
 10
-187.8846065735866
 20
9.500000000000014
 30
0
 11
-182.8846065735866
 21
9.500000000000014
 31
0
  0
LINE
  8
1
 62
7
 10
-182.8846065735866
 20
9.500000000000014
 30
0
 11
-182.8846065735866
 21
7.07106781186549
 31
0
  0
LINE
  8
1
 62
7
 10
-90.40000000000001
 20
-36.5
 30
0
 11
-90.40000000000001
 21
62.00000000000003
 31
0
  0
LINE
  8
1
 62
7
 10
3
 20
62.00000000000003
 30
0
 11
3.000000000000002
 21
14.3
 31
0
  0
LINE
  8
1
 62
7
 10
32.10000000000001
 20
-24.99999999999998
 30
0
 11
33.10000000000001
 21
-24.99999999999998
 31
0
  0
LINE
  8
1
 62
7
 10
31.60000000000001
 20
-9.999999999999979
 30
0
 11
31.60000000000001
 21
-42
 31
0
  0
LINE
  8
1
 62
7
 10
27
 20
10.00000000000001
 30
0
 11
27
 21
42.75000000000057
 31
0
  0
LINE
  8
1
 62
7
 10
32.10000000000001
 20
10.00000000000001
 30
0
 11
32.10000000000001
 21
30.06582624879368
 31
0
  0
LINE
  8
1
 62
7
 10
37
 20
10.00000000000001
 30
0
 11
37
 21
28.00000000000001
 31
0
  0
LINE
  8
1
 62
3
  6
DASHDOT
 10
34
 20
24
 30
0
 11
49
 21
24
 31
0
  0
LINE
  8
1
 62
7
 10
46
 20
21.59999999999999
 30
0
 11
37
 21
21.59999999999999
 31
0
  0
LINE
  8
1
 62
7
 10
37
 20
26.40000000000001
 30
0
 11
46
 21
26.40000000000001
 31
0
  0
LINE
  8
1
 62
3
 10
46
 20
21
 30
0
 11
37
 21
21
 31
0
  0
LINE
  8
1
 62
3
 10
37
 20
27
 30
0
 11
46
 21
27
 31
0
  0
LINE
  8
1
 62
7
 10
37
 20
-13.5
 30
0
 11
43
 21
-13.5
 31
0
  0
LINE
  8
1
 62
7
 10
43
 20
13.5
 30
0
 11
37
 21
13.5
 31
0
  0
LINE
  8
1
 62
3
  6
DASHDOT
 10
46
 20
0
 30
0
 11
51
 21
2.131628207280301e-014
 31
0
  0
LINE
  8
1
 62
7
 10
43
 20
-16
 30
0
 11
46
 21
-16
 31
0
  0
LINE
  8
1
 62
7
 10
43
 20
16
 30
0
 11
43
 21
-16
 31
0
  0
LINE
  8
1
 62
7
 10
46
 20
16
 30
0
 11
43
 21
16
 31
0
  0
LINE
  8
1
 62
7
 10
32.10000000000001
 20
-9.999999999999979
 30
0
 11
32.10000000000001
 21
-42
 31
0
  0
LINE
  8
1
 62
7
 10
33.10000000000001
 20
22.50000000000001
 30
0
 11
32.10000000000001
 21
22.50000000000001
 31
0
  0
LINE
  8
1
 62
7
 10
33.10000000000001
 20
23.50000000000001
 30
0
 11
33.10000000000001
 21
10
 31
0
  0
LINE
  8
1
 62
7
 10
37
 20
24.50000000000001
 30
0
 11
34.10000000000001
 21
24.50000000000001
 31
0
  0
LINE
  8
1
 62
7
 10
46
 20
28
 30
0
 11
46
 21
-20.49999999999998
 31
0
  0
LINE
  8
1
 62
7
 10
39
 20
30.00000000000001
 30
0
 11
44
 21
30
 31
0
  0
LINE
  8
1
 62
7
 10
37
 20
-20.49999999999998
 30
0
 11
37
 21
-9.999999999999979
 31
0
  0
LINE
  8
1
 62
7
 10
45.8
 20
-20.49999999999998
 30
0
 11
46
 21
-20.49999999999998
 31
0
  0
LINE
  8
1
 62
7
 10
45.8
 20
-37.49999999999997
 30
0
 11
45.8
 21
-20.49999999999998
 31
0
  0
LINE
  8
1
 62
7
 10
42.8
 20
-39.49999999999998
 30
0
 11
43.8
 21
-39.49999999999998
 31
0
  0
LINE
  8
1
 62
7
 10
42.8
 20
-39.99999999999998
 30
0
 11
42.8
 21
-39.49999999999998
 31
0
  0
LINE
  8
1
 62
7
 10
37.5
 20
-40.49999999999998
 30
0
 11
42.3
 21
-40.49999999999998
 31
0
  0
LINE
  8
1
 62
7
 10
37
 20
-39.49999999999998
 30
0
 11
37
 21
-39.99999999999998
 31
0
  0
LINE
  8
1
 62
7
 10
37
 20
-39.49999999999998
 30
0
 11
34.10000000000001
 21
-39.49999999999998
 31
0
  0
LINE
  8
1
 62
7
 10
33.10000000000001
 20
-21.49999999999998
 30
0
 11
33.10000000000001
 21
-38.49999999999997
 31
0
  0
LINE
  8
1
 62
7
 10
37
 20
-20.49999999999998
 30
0
 11
34.10000000000001
 21
-20.49999999999998
 31
0
  0
LINE
  8
1
 62
7
 10
33.10000000000001
 20
-34.99999999999997
 30
0
 11
32.10000000000001
 21
-34.99999999999997
 31
0
  0
LINE
  8
1
 62
7
 10
31.10000000000001
 20
30
 30
0
 11
31.60000000000001
 21
30
 31
0
  0
LINE
  8
1
 62
7
 10
31.60000000000001
 20
30
 30
0
 11
31.60000000000001
 21
10.00000000000001
 31
0
  0
LINE
  8
1
 62
7
 10
31.60000000000001
 20
22.5
 30
0
 11
27
 21
22.5
 31
0
  0
LINE
  8
1
 62
7
 10
31.60000000000001
 20
-22.50000000000001
 30
0
 11
27.00000000000001
 21
-22.50000000000001
 31
0
  0
LINE
  8
1
 62
7
 10
9.75
 20
71.07634471265233
 30
0
 11
9.75
 21
42.5
 31
0
  0
LINE
  8
1
 62
7
 10
12.25
 20
71.07634471265233
 30
0
 11
12.25
 21
42.5
 31
0
  0
LINE
  8
1
 62
7
 10
9.75
 20
71.07634471265233
 30
0
 11
12.25
 21
71.07634471265233
 31
0
  0
LINE
  8
1
 62
7
 10
11.75747844151985
 20
74.37959179022703
 30
0
 11
11.75747844151985
 21
71.07634471265233
 31
0
  0
LINE
  8
1
 62
7
 10
11.26903862125388
 20
74.37959179022703
 30
0
 11
11.26903862125388
 21
71.07634471265233
 31
0
  0
LINE
  8
1
 62
7
 10
10.67699035426484
 20
74.37959179022703
 30
0
 11
10.67699035426484
 21
71.07634471265233
 31
0
  0
LINE
  8
1
 62
7
 10
10.24775536069778
 20
74.37959179022703
 30
0
 11
10.24775536069778
 21
71.07634471265233
 31
0
  0
LINE
  8
1
 62
7
 10
31.10000000000001
 20
42
 30
0
 11
31.60000000000001
 21
42
 31
0
  0
LINE
  8
1
 62
7
 10
31.60000000000001
 20
42
 30
0
 11
31.60000000000001
 21
31.93185165257813
 31
0
  0
LINE
  8
1
 62
7
 10
31.60000000000001
 20
31.93185165257813
 30
0
 11
32.10000000000001
 21
30.06582624879368
 31
0
  0
LINE
  8
1
 62
7
 10
31.10000000000001
 20
31.86602540378443
 30
0
 11
31.60000000000001
 21
30
 31
0
  0
LINE
  8
1
 62
7
 10
31.10000000000001
 20
33
 30
0
 11
31.60000000000001
 21
33
 31
0
  0
LINE
  8
1
 62
7
 10
31.10000000000001
 20
42.75000000000057
 30
0
 11
31.10000000000001
 21
30
 31
0
  0
LINE
  8
1
 62
7
 10
31.60000000000001
 20
41.09999999999999
 30
0
 11
33.00000000000001
 21
41.09999999999999
 31
0
  0
LINE
  8
1
 62
7
 10
33.50000000000001
 20
40.59999999999999
 30
0
 11
33.50000000000001
 21
34.40000000000001
 31
0
  0
LINE
  8
1
 62
7
 10
31.60000000000001
 20
33.90000000000001
 30
0
 11
33.00000000000001
 21
33.90000000000001
 31
0
  0
LINE
  8
1
 62
7
 10
32.10000000000001
 20
41.09999999999999
 30
0
 11
32.10000000000001
 21
33.90000000000001
 31
0
  0
LINE
  8
1
 62
7
 10
33.50000000000001
 20
40.59999999999999
 30
0
 11
33.00000000000001
 21
41.09999999999999
 31
0
  0
LINE
  8
1
 62
7
 10
33.00000000000001
 20
33.90000000000001
 30
0
 11
33.50000000000001
 21
34.40000000000001
 31
0
  0
LINE
  8
1
 62
7
 10
31.60000000000001
 20
-42
 30
0
 11
32.10000000000001
 21
-42
 31
0
  0
LINE
  8
1
 62
7
 10
31.60000000000001
 20
-37.00000000000001
 30
0
 11
32.10000000000001
 21
-37.00000000000001
 31
0
  0
LINE
  8
1
 62
7
 10
31.60000000000001
 20
-23.75
 30
0
 11
32.10000000000001
 21
-23.75
 31
0
  0
LINE
  8
1
 62
7
 10
0
 20
-14.70000000000002
 30
0
 11
0
 21
14.7
 31
0
  0
LINE
  8
1
 62
7
 10
14.70000000000001
 20
17.5
 30
0
 11
12.5
 21
17.5
 31
0
  0
LINE
  8
1
 62
7
 10
14.70000000000001
 20
45.00000000000003
 30
0
 11
14.70000000000001
 21
43.14999999999999
 31
0
  0
LINE
  8
1
 62
7
 10
26.6
 20
42.5
 30
0
 11
25.70000000000001
 21
42.5
 31
0
  0
LINE
  8
1
 62
7
 10
25.70000000000001
 20
42.5
 30
0
 11
24.25662432702594
 21
45.00000000000003
 31
0
  0
LINE
  8
1
 62
7
 10
24.25662432702594
 20
45.00000000000003
 30
0
 11
14.70000000000001
 21
45.00000000000003
 31
0
  0
LINE
  8
1
 62
7
 10
12.5
 20
17.5
 30
0
 11
12
 21
17
 31
0
  0
LINE
  8
1
 62
7
 10
0
 20
14.7
 30
0
 11
0.2999999999999972
 21
15
 31
0
  0
LINE
  8
1
 62
7
 10
26.6
 20
42.5
 30
0
 11
26.6
 21
23
 31
0
  0
LINE
  8
1
 62
7
 10
26.6
 20
23
 30
0
 11
25.70000000000001
 21
23
 31
0
  0
LINE
  8
1
 62
7
 10
25.70000000000001
 20
23
 30
0
 11
25.70000000000001
 21
20
 31
0
  0
LINE
  8
1
 62
7
 10
26.5
 20
20
 30
0
 11
26.5
 21
-20
 31
0
  0
LINE
  8
1
 62
7
 10
22.70000000000001
 20
43.14999999999999
 30
0
 11
22.70000000000001
 21
22.5
 31
0
  0
LINE
  8
1
 62
7
 10
26.6
 20
-23.00000000000001
 30
0
 11
26.6
 21
-42.50000000000001
 31
0
  0
LINE
  8
1
 62
7
 10
25.70000000000001
 20
-23.00000000000001
 30
0
 11
26.6
 21
-23.00000000000001
 31
0
  0
LINE
  8
1
 62
7
 10
0.2999999999999972
 20
-15.00000000000001
 30
0
 11
0
 21
-14.70000000000002
 31
0
  0
LINE
  8
1
 62
7
 10
12
 20
-17.00000000000001
 30
0
 11
12.5
 21
-17.50000000000001
 31
0
  0
LINE
  8
1
 62
7
 10
14.70000000000001
 20
-45.00000000000001
 30
0
 11
24.25662432702594
 21
-45.00000000000001
 31
0
  0
LINE
  8
1
 62
7
 10
24.25662432702594
 20
-45.00000000000001
 30
0
 11
25.70000000000001
 21
-42.50000000000001
 31
0
  0
LINE
  8
1
 62
7
 10
25.70000000000001
 20
-42.50000000000001
 30
0
 11
26.6
 21
-42.50000000000001
 31
0
  0
LINE
  8
1
 62
7
 10
12.5
 20
-17.50000000000001
 30
0
 11
14.70000000000001
 21
-17.50000000000001
 31
0
  0
LINE
  8
1
 62
7
 10
14.70000000000001
 20
22.5
 30
0
 11
14.70000000000001
 21
17.5
 31
0
  0
LINE
  8
1
 62
7
 10
1.000000000000002
 20
53.25000000000002
 30
0
 11
3
 21
53.25000000000002
 31
0
  0
LINE
  8
1
 62
7
 10
1.000000000000002
 20
58.75000000000003
 30
0
 11
3
 21
58.75000000000003
 31
0
  0
LINE
  8
1
 62
3
  6
DASHDOT
 10
-1.999999999999998
 20
56.00000000000003
 30
0
 11
5.999999999999999
 21
56.00000000000003
 31
0
  0
LINE
  8
1
 62
7
 10
1.000000000000002
 20
20.75
 30
0
 11
3
 21
20.75
 31
0
  0
LINE
  8
1
 62
7
 10
1.000000000000002
 20
62.00000000000003
 30
0
 11
3
 21
62.00000000000003
 31
0
  0
LINE
  8
1
 62
7
 10
2.982534112740261
 20
-35.00000000000001
 30
0
 11
1.000000000000002
 21
-35.00000000000001
 31
0
  0
LINE
  8
1
 62
7
 10
13.79999999999995
 20
-23.49999999999999
 30
0
 11
21.48253411274026
 21
-23.49999999999999
 31
0
  0
LINE
  8
1
 62
7
 10
11.83253411274029
 20
24.75
 30
0
 11
13.79999999999995
 21
24.75
 31
0
  0
LINE
  8
1
 62
7
 10
21.48253411274026
 20
-42.14999999999998
 30
0
 11
21.48253411274026
 21
-23.49999999999999
 31
0
  0
LINE
  8
1
 62
7
 10
8.982534112740261
 20
-42.5
 30
0
 11
13.78253411274026
 21
-42.5
 31
0
  0
LINE
  8
1
 62
7
 10
13.78253411274026
 20
-42.14999999999998
 30
0
 11
13.78253411274026
 21
-42.5
 31
0
  0
LINE
  8
1
 62
7
 10
21.48253411274026
 20
-42.14999999999998
 30
0
 11
13.78253411274026
 21
-42.14999999999998
 31
0
  0
LINE
  8
1
 62
7
 10
21.48253411274026
 20
23.5
 30
0
 11
13.79999999999995
 21
23.5
 31
0
  0
LINE
  8
1
 62
7
 10
13.78253411274026
 20
42.15000000000001
 30
0
 11
21.48253411274026
 21
42.15000000000001
 31
0
  0
LINE
  8
1
 62
7
 10
13.78253411274026
 20
42.5
 30
0
 11
13.78253411274026
 21
42.15000000000001
 31
0
  0
LINE
  8
1
 62
7
 10
13.78253411274026
 20
42.5
 30
0
 11
8.982534112740261
 21
42.5
 31
0
  0
LINE
  8
1
 62
7
 10
1.000000000000002
 20
20.75
 30
0
 11
1.000000000000002
 21
62.00000000000003
 31
0
  0
LINE
  8
1
 62
7
 10
11.83253411274029
 20
24.75
 30
0
 11
11.83253411274029
 21
23.5
 31
0
  0
LINE
  8
1
 62
7
 10
12
 20
24.75
 30
0
 11
12
 21
15
 31
0
  0
LINE
  8
1
 62
7
 10
12
 20
23.5
 30
0
 11
3
 21
23.5
 31
0
  0
LINE
  8
1
 62
7
 10
8.775000000000002
 20
21.45836477965032
 30
0
 11
12
 21
21.45836477965031
 31
0
  0
LINE
  8
1
 62
7
 10
6.224999999999991
 20
21.45836477965032
 30
0
 11
3
 21
21.45836477965031
 31
0
  0
LINE
  8
1
 62
7
 10
6.224999999999991
 20
17.04163522034968
 30
0
 11
3
 21
17.04163522034969
 31
0
  0
LINE
  8
1
 62
7
 10
8.775000000000002
 20
17.04163522034968
 30
0
 11
12
 21
17.04163522034969
 31
0
  0
LINE
  8
1
 62
7
 10
11.09999999999999
 20
16.7
 30
0
 11
11.09999999999999
 21
21.8
 31
0
  0
LINE
  8
1
 62
7
 10
3.899999999999981
 20
16.7
 30
0
 11
3.899999999999981
 21
21.8
 31
0
  0
LINE
  8
1
 62
7
 10
13.79999999999995
 20
24.75
 30
0
 11
13.79999999999995
 21
20.75
 31
0
  0
LINE
  8
1
 62
7
 10
13.79999999999995
 20
20.75
 30
0
 11
12
 21
20.75
 31
0
  0
LINE
  8
1
 62
7
 10
1.400000000000002
 20
14.3
 30
0
 11
3.150000000000002
 21
14.3
 31
0
  0
LINE
  8
1
 62
7
 10
3.150000000000002
 20
14.3
 30
0
 11
3.150000000000002
 21
15
 31
0
  0
LINE
  8
1
 62
7
 10
3.150000000000002
 20
15
 30
0
 11
12
 21
15
 31
0
  0
LINE
  8
1
 62
7
 10
1.400000000000002
 20
16.91140716424984
 30
0
 11
3.000000000000002
 21
16.91140716424984
 31
0
  0
LINE
  8
1
 62
7
 10
1.400000000000002
 20
16.91140716424984
 30
0
 11
1.400000000000002
 21
14.3
 31
0
  0
LINE
  8
1
 62
7
 10
1.400000000000002
 20
15
 30
0
 11
0.2999999999999972
 21
15
 31
0
  0
LINE
  8
1
 62
7
 10
1.000000000000002
 20
-35.00000000000001
 30
0
 11
1.000000000000002
 21
-20.75
 31
0
  0
LINE
  8
1
 62
7
 10
21.48253411274026
 20
23.5
 30
0
 11
21.48253411274026
 21
42.15000000000001
 31
0
  0
LINE
  8
1
 62
7
 10
0.2999999999999972
 20
-15.00000000000001
 30
0
 11
1.400000000000002
 21
-15.00000000000001
 31
0
  0
LINE
  8
1
 62
7
 10
1.400000000000002
 20
-14.3
 30
0
 11
1.400000000000002
 21
-16.91140716424984
 31
0
  0
LINE
  8
1
 62
7
 10
3.000000000000002
 20
-16.91140716424984
 30
0
 11
1.400000000000002
 21
-16.91140716424984
 31
0
  0
LINE
  8
1
 62
7
 10
12
 20
-24.75000000000002
 30
0
 11
12
 21
-15.00000000000001
 31
0
  0
LINE
  8
1
 62
7
 10
12
 20
-20.75000000000001
 30
0
 11
13.79999999999995
 21
-20.75000000000001
 31
0
  0
LINE
  8
1
 62
7
 10
13.79999999999995
 20
-20.75000000000001
 30
0
 11
13.79999999999995
 21
-24.74999999999999
 31
0
  0
LINE
  8
1
 62
7
 10
3.899999999999981
 20
-21.8
 30
0
 11
3.899999999999981
 21
-16.70000000000002
 31
0
  0
LINE
  8
1
 62
7
 10
11.09999999999999
 20
-21.8
 30
0
 11
11.09999999999999
 21
-16.70000000000002
 31
0
  0
LINE
  8
1
 62
7
 10
12
 20
-15.00000000000001
 30
0
 11
3.000000000000002
 21
-15.00000000000001
 31
0
  0
LINE
  8
1
 62
7
 10
12
 20
-23.50000000000002
 30
0
 11
3.000000000000002
 21
-23.50000000000002
 31
0
  0
LINE
  8
1
 62
7
 10
12
 20
-17.0416352203497
 30
0
 11
8.775000000000002
 21
-17.04163522034969
 31
0
  0
LINE
  8
1
 62
7
 10
3.000000000000002
 20
-17.0416352203497
 30
0
 11
6.224999999999991
 21
-17.04163522034969
 31
0
  0
LINE
  8
1
 62
7
 10
3.000000000000002
 20
-21.45836477965032
 30
0
 11
6.224999999999991
 21
-21.45836477965034
 31
0
  0
LINE
  8
1
 62
7
 10
12
 20
-21.45836477965032
 30
0
 11
8.775000000000002
 21
-21.45836477965034
 31
0
  0
LINE
  8
1
 62
7
 10
13.79999999999995
 20
-24.74999999999999
 30
0
 11
12
 21
-24.75000000000002
 31
0
  0
LINE
  8
1
 62
7
 10
3.000000000000002
 20
-20.75
 30
0
 11
1.000000000000002
 21
-20.75
 31
0
  0
LINE
  8
1
 62
7
 10
0.2999999999999972
 20
-15.00000000000001
 30
0
 11
0
 21
-14.70000000000002
 31
0
  0
LINE
  8
1
 62
7
 10
12.5
 20
-17.50000000000001
 30
0
 11
14.70000000000001
 21
-17.50000000000001
 31
0
  0
LINE
  8
1
 62
7
 10
26.5
 20
20
 30
0
 11
25.70000000000001
 21
20
 31
0
  0
LINE
  8
1
 62
7
 10
14.70000000000001
 20
22.5
 30
0
 11
22.70000000000001
 21
22.5
 31
0
  0
LINE
  8
1
 62
7
 10
14.70000000000001
 20
43.14999999999999
 30
0
 11
22.70000000000001
 21
43.14999999999999
 31
0
  0
LINE
  8
1
 62
7
 10
22.70000000000001
 20
-22.50000000000001
 30
0
 11
14.70000000000001
 21
-22.50000000000001
 31
0
  0
LINE
  8
1
 62
7
 10
22.70000000000001
 20
-43.14999999999998
 30
0
 11
14.70000000000001
 21
-43.14999999999998
 31
0
  0
LINE
  8
1
 62
7
 10
25.70000000000001
 20
-20
 30
0
 11
26.5
 21
-20
 31
0
  0
LINE
  8
1
 62
7
 10
25.70000000000001
 20
-20
 30
0
 11
25.70000000000001
 21
-23.00000000000001
 31
0
  0
LINE
  8
1
 62
7
 10
14.70000000000001
 20
-43.14999999999998
 30
0
 11
14.70000000000001
 21
-45.00000000000001
 31
0
  0
LINE
  8
1
 62
7
 10
22.70000000000001
 20
-43.14999999999998
 30
0
 11
22.70000000000001
 21
-22.50000000000001
 31
0
  0
LINE
  8
1
 62
7
 10
14.70000000000001
 20
-17.50000000000001
 30
0
 11
14.70000000000001
 21
-22.50000000000001
 31
0
  0
LINE
  8
1
 62
7
 10
3.000000000000002
 20
-14.3
 30
0
 11
1.400000000000002
 21
-14.3
 31
0
  0
LINE
  8
1
 62
3
  6
DASHDOT
 10
0
 20
0
 30
0
 11
-5
 21
0
 31
0
  0
LINE
  8
1
 62
7
 10
0
 20
9.5
 30
0
 11
26.5
 21
9.5
 31
0
  0
LINE
  8
1
 62
7
 10
0
 20
7.5
 30
0
 11
42.99999999999999
 21
7.500000000000021
 31
0
  0
LINE
  8
1
 62
7
 10
0
 20
-7.500000000000014
 30
0
 11
42.99999999999999
 21
-7.499999999999979
 31
0
  0
LINE
  8
1
 62
7
 10
26.5
 20
10
 30
0
 11
42.99999999999999
 21
10
 31
0
  0
LINE
  8
1
 62
7
 10
26.5
 20
-9.999999999999979
 30
0
 11
42.99999999999999
 21
-9.999999999999979
 31
0
  0
LINE
  8
1
 62
7
 10
31.60000000000001
 20
-29.99999999999998
 30
0
 11
31.10000000000001
 21
-29.99999999999998
 31
0
  0
LINE
  8
1
 62
7
 10
31.10000000000001
 20
-29.99999999999998
 30
0
 11
31.10000000000001
 21
-42.74999999999942
 31
0
  0
LINE
  8
1
 62
7
 10
31.10000000000001
 20
-42.74999999999942
 30
0
 11
27.00000000000001
 21
-42.74999999999942
 31
0
  0
LINE
  8
1
 62
7
 10
27.00000000000001
 20
-42.74999999999942
 30
0
 11
27
 21
-9.999999999999979
 31
0
  0
LINE
  8
1
 62
7
 10
31.10000000000001
 20
42.75000000000057
 30
0
 11
27
 21
42.75000000000057
 31
0
  0
LINE
  8
1
 62
3
  6
DASHDOT
 10
141.299880697634
 20
1.4210854715202e-014
 30
0
 11
135.299880697634
 21
1.4210854715202e-014
 31
0
  0
LINE
  8
1
 62
3
  6
DASHDOT
 10
138.299880697634
 20
3.000000000000021
 30
0
 11
138.299880697634
 21
-2.999999999999986
 31
0
  0
LINE
  8
1
 62
3
  6
DASHDOT
 10
138.299880697634
 20
60.75000000000003
 30
0
 11
138.299880697634
 21
51.25000000000003
 31
0
  0
LINE
  8
1
 62
3
  6
DASHDOT
 10
133.549880697634
 20
56.00000000000001
 30
0
 11
143.049880697634
 21
56.00000000000003
 31
0
  0
LINE
  8
1
 62
3
  6
DASHDOT
 10
156.2998806976339
 20
2.131628207280301e-014
 30
0
 11
168.299880697634
 21
2.131628207280301e-014
 31
0
  0
LINE
  8
1
 62
3
  6
DASHDOT
 10
147.2998806976339
 20
15.5884572681198
 30
0
 11
153.299880697634
 21
25.98076211353315
 31
0
  0
LINE
  8
1
 62
3
  6
DASHDOT
 10
129.2998806976341
 20
15.58845726811981
 30
0
 11
123.299880697634
 21
25.98076211353319
 31
0
  0
LINE
  8
1
 62
3
  6
DASHDOT
 10
120.2998806976341
 20
2.520756741583237e-014
 30
0
 11
108.299880697634
 21
2.987050411925806e-014
 31
0
  0
LINE
  8
1
 62
3
  6
DASHDOT
 10
129.299880697634
 20
-15.58845726811977
 30
0
 11
123.299880697634
 21
-25.98076211353312
 31
0
  0
LINE
  8
1
 62
3
  6
DASHDOT
 10
147.2998806976339
 20
-15.58845726811983
 30
0
 11
153.299880697634
 21
-25.9807621135332
 31
0
  0
LINE
  8
1
 62
3
  6
DASHDOT
 10
-185.3846065735866
 20
3.000000000000021
 30
0
 11
-185.3846065735866
 21
-2.999999999999986
 31
0
  0
LINE
  8
1
 62
3
  6
DASHDOT
 10
-182.3846065735866
 20
1.4210854715202e-014
 30
0
 11
-188.3846065735866
 21
1.4210854715202e-014
 31
0
  0
LINE
  8
1
 62
3
  6
DASHDOT
 10
-185.3846065735867
 20
60.75000000000003
 30
0
 11
-185.3846065735867
 21
51.25000000000003
 31
0
  0
LINE
  8
1
 62
3
  6
DASHDOT
 10
-190.1346065735866
 20
56.00000000000001
 30
0
 11
-180.6346065735866
 21
56.00000000000003
 31
0
  0
LINE
  8
1
 62
7
 10
3.000000000000002
 20
-14.3
 30
0
 11
3.000000000000002
 21
-36.5
 31
0
  0
ARC
  8
1
 62
7
 10
117.1681842737782
 20
-33.96250000000002
 30
0
 40
9.999999999999986
 50
10.62045918564167
 51
58.10984766571451
  0
ARC
  8
1
 62
7
 10
125.9786936888448
 20
-20.59583333333335
 30
0
 40
6.000000000000006
 50
239.1105803057442
 51
322.6472553903839
  0
ARC
  8
1
 62
7
 10
150.6210677064232
 20
-20.59583333333335
 30
0
 40
5.999999999999974
 50
217.3527446096167
 51
300.8894196942548
  0
ARC
  8
1
 62
7
 10
159.4315771214898
 20
-33.96250000000002
 30
0
 40
10.00000000000004
 50
121.8901523342858
 51
169.3795408143587
  0
ARC
  8
1
 62
7
 10
119.4533411335329
 20
35.28183592811992
 30
0
 40
9.999999999999954
 50
250.6204591856418
 51
298.1098476657145
  0
ARC
  8
1
 62
7
 10
126.6239593232516
 20
20.96837762105692
 30
0
 40
6.000000000000016
 50
119.110580305744
 51
202.6472553903842
  0
ARC
  8
1
 62
7
 10
114.3027723144624
 20
-0.3725442877235281
 30
0
 40
5.999999999999981
 50
97.35274460961647
 51
180.8894196942559
  0
ARC
  8
1
 62
7
 10
98.32164470967707
 20
-1.319335928119855
 30
0
 40
10
 50
1.890152334285648
 51
49.37954081435856
  0
ARC
  8
1
 62
7
 10
178.2781166855909
 20
-1.319335928119919
 30
0
 40
10.00000000000003
 50
130.6204591856417
 51
178.1098476657142
  0
ARC
  8
1
 62
7
 10
162.2969890808056
 20
-0.3725442877235849
 30
0
 40
6.000000000000006
 50
359.1105803057444
 51
82.64725539038352
  0
ARC
  8
1
 62
7
 10
149.9758020720164
 20
20.96837762105692
 30
0
 40
6.000000000000001
 50
337.3527446096162
 51
60.88941969425576
  0
ARC
  8
1
 62
7
 10
157.146420261735
 20
35.28183592811992
 30
0
 40
9.999999999999941
 50
241.890152334286
 51
289.3795408143593
  0
ARC
  8
1
 62
7
 10
-169.3846065735866
 20
39.91240408695023
 30
0
 40
8
 50
180
 51
248.1552425142375
  0
ARC
  8
1
 62
7
 10
-201.3846065735866
 20
39.91240408695023
 30
0
 40
8.000000000000021
 50
291.8447574857639
 51
0
  0
ARC
  8
1
 62
7
 10
-84.40873294362989
 20
36.50873294362987
 30
0
 40
5.991273420989097
 50
90.08351496497295
 51
180.083514964973
  0
ARC
  8
1
 62
7
 10
-84.40873294362987
 20
-36.50873294362987
 30
0
 40
5.991273420989105
 50
179.916485035027
 51
269.9164850350269
  0
ARC
  8
1
 62
7
 10
-49.40000000000002
 20
28
 30
0
 40
2
 50
0
 51
90
  0
ARC
  8
1
 62
7
 10
-54.40000000000002
 20
28.00000000000001
 30
0
 40
2
 50
90
 51
180
  0
ARC
  8
1
 62
7
 10
-49.60000000000002
 20
-37.49999999999997
 30
0
 40
2.000000000000007
 50
270
 51
0
  0
ARC
  8
1
 62
7
 10
-59.30000000000001
 20
23.50000000000001
 30
0
 40
1
 50
90
 51
180
  0
ARC
  8
1
 62
7
 10
-59.30000000000001
 20
-38.49999999999997
 30
0
 40
1
 50
180
 51
270
  0
ARC
  8
1
 62
7
 10
-59.30000000000001
 20
-21.49999999999998
 30
0
 40
1
 50
90
 51
180
  0
ARC
  8
1
 62
7
 10
-55.90000000000002
 20
-39.99999999999998
 30
0
 40
0.5
 50
180
 51
270
  0
ARC
  8
1
 62
7
 10
-51.10000000000002
 20
-39.99999999999998
 30
0
 40
0.5
 50
270
 51
0
  0
ARC
  8
1
 62
7
 10
-59.3
 20
6.500000000000014
 30
0
 40
1
 50
180
 51
270
  0
ARC
  8
1
 62
7
 10
128.5796606775979
 20
20.84507910184298
 30
0
 40
9.999999999999995
 50
115.0000000000001
 51
153.6526431029454
  0
ARC
  8
1
 62
7
 10
127.299880697634
 20
19.05255888325767
 30
0
 40
20.00000000000001
 50
120
 51
160.1520394506769
  0
ARC
  8
1
 62
7
 10
127.2998806976339
 20
-19.05255888325762
 30
0
 40
20.00000000000001
 50
240
 51
280.1520394506766
  0
ARC
  8
1
 62
7
 10
125.1076226615598
 20
-18.84049701864679
 30
0
 40
9.999999999999934
 50
235.0000000000002
 51
273.6526431029459
  0
ARC
  8
1
 62
7
 10
161.2123587537441
 20
-2.004582083196134
 30
0
 40
9.999999999999938
 50
354.9999999999998
 51
33.65264310294481
  0
ARC
  8
1
 62
7
 10
160.299880697634
 20
0
 30
0
 40
20
 50
359.9999999999997
 51
40.15203945067655
  0
ARC
  8
1
 62
7
 10
138.299880697634
 20
1.118549697309845e-012
 30
0
 40
29.99999999999998
 50
0.889419694253587
 51
1.890152334283536
  0
ARC
  8
1
 62
7
 10
138.2998806976329
 20
-6.501466032204917e-013
 30
0
 40
30.00000000000001
 50
300.889419694258
 51
301.8901523342881
  0
ARC
  8
1
 62
7
 10
138.2998806976361
 20
-1.097788526749355e-012
 30
0
 40
30.00000000000005
 50
240.8894196942513
 51
241.890152334281
  0
ARC
  8
1
 62
7
 10
138.299880697634
 20
-1.117550496587683e-012
 30
0
 40
29.99999999999998
 50
180.8894196942536
 51
181.8901523342835
  0
ARC
  8
1
 62
7
 10
138.299880697634
 20
-1.117550496587683e-012
 30
0
 40
30.00000000000099
 50
120.8894196942547
 51
121.8901523342846
  0
ARC
  8
1
 62
7
 10
138.299880697634
 20
2.131628207280301e-014
 30
0
 40
30.00000000000002
 50
181.8901523342857
 51
238.1098476657143
  0
ARC
  8
1
 62
7
 10
138.299880697634
 20
2.131628207280301e-014
 30
0
 40
30.00000000000002
 50
60.88941969425581
 51
119.1105803057442
  0
ARC
  8
1
 62
7
 10
138.299880697634
 20
2.131628207280301e-014
 30
0
 40
30.00000000000003
 50
300.8894196942556
 51
0
  0
ARC
  8
1
 62
7
 10
138.2998806976339
 20
-29.99999999999998
 30
0
 40
11.49999999999994
 50
190.6204591856416
 51
241.7825414127082
  0
ARC
  8
1
 62
7
 10
138.299880697634
 20
2.131628207280301e-014
 30
0
 40
40.50000000000009
 50
262.2843230440967
 51
277.7156769559034
  0
ARC
  8
1
 62
7
 10
138.2998806976339
 20
-29.99999999999998
 30
0
 40
9.500000000000075
 50
37.35274460961512
 51
142.6472553903839
  0
ARC
  8
1
 62
7
 10
138.2998806976326
 20
9.059419880941277e-013
 30
0
 40
30.00000000000008
 50
238.1098476657174
 51
239.1105803057474
  0
ARC
  8
1
 62
7
 10
138.2998806976339
 20
-29.99999999999998
 30
0
 40
11.50000000000014
 50
298.2174585872927
 51
349.3795408143583
  0
ARC
  8
1
 62
7
 10
138.2998806976329
 20
-6.501466032204917e-013
 30
0
 40
30.00000000000001
 50
300.889419694258
 51
301.8901523342881
  0
ARC
  8
1
 62
7
 10
112.3191185841008
 20
15.00000000000001
 30
0
 40
11.50000000000006
 50
70.62045918564107
 51
121.7825414127075
  0
ARC
  8
1
 62
7
 10
138.299880697634
 20
2.131628207280301e-014
 30
0
 40
40.49999999999996
 50
142.2843230440967
 51
157.7156769559033
  0
ARC
  8
1
 62
7
 10
112.3191185841008
 20
15.00000000000001
 30
0
 40
9.499999999999991
 50
277.352744609616
 51
22.64725539038378
  0
ARC
  8
1
 62
7
 10
138.299880697634
 20
2.131628207280301e-014
 30
0
 40
30.00000000000002
 50
118.1098476657142
 51
119.1105803057442
  0
ARC
  8
1
 62
7
 10
112.3191185841008
 20
15.00000000000001
 30
0
 40
11.49999999999999
 50
178.2174585872923
 51
229.3795408143584
  0
ARC
  8
1
 62
7
 10
138.299880697634
 20
-1.117550496587683e-012
 30
0
 40
29.99999999999998
 50
180.8894196942536
 51
181.8901523342835
  0
ARC
  8
1
 62
7
 10
164.2806428111672
 20
15.00000000000001
 30
0
 40
11.49999999999996
 50
310.620459185641
 51
1.782541412707728
  0
ARC
  8
1
 62
7
 10
138.299880697634
 20
2.131628207280301e-014
 30
0
 40
40.49999999999999
 50
22.28432304409669
 51
37.71567695590323
  0
ARC
  8
1
 62
7
 10
164.2806428111672
 20
15.00000000000001
 30
0
 40
9.50000000000006
 50
157.3527446096161
 51
262.6472553903839
  0
ARC
  8
1
 62
7
 10
138.299880697634
 20
-1.117550496587683e-012
 30
0
 40
29.99999999999999
 50
358.1098476657164
 51
359.1105803057463
  0
ARC
  8
1
 62
7
 10
164.2806428111672
 20
15.00000000000001
 30
0
 40
11.50000000000003
 50
58.21745858729226
 51
109.3795408143586
  0
ARC
  8
1
 62
7
 10
138.299880697634
 20
2.131628207280301e-014
 30
0
 40
30.00000000000002
 50
60.88941969425581
 51
61.89015233428577
  0
ARC
  8
1
 62
7
 10
-185.3846065735866
 20
2.131628207280301e-014
 30
0
 40
45.00000000000001
 50
100.2403483211862
 51
79.75965167881378
  0
ARC
  8
1
 62
7
 10
-185.3846065735866
 20
2.131628207280301e-014
 30
0
 40
34.99999999999998
 50
111.8447574857631
 51
68.15524251423655
  0
ARC
  8
1
 62
7
 10
-179.3846065735866
 20
60.00000000000003
 30
0
 40
2
 50
0
 51
90
  0
ARC
  8
1
 62
7
 10
-191.3846065735866
 20
60.00000000000003
 30
0
 40
2
 50
90
 51
180
  0
ARC
  8
1
 62
7
 10
132.299880697634
 20
60.00000000000003
 30
0
 40
2
 50
90
 51
180
  0
ARC
  8
1
 62
7
 10
144.299880697634
 20
60.00000000000003
 30
0
 40
2
 50
0
 51
90
  0
ARC
  8
1
 62
7
 10
149.299880697634
 20
19.05255888325767
 30
0
 40
20.00000000000003
 50
19.84796054932324
 51
60.00000000000002
  0
ARC
  8
1
 62
7
 10
138.299880697634
 20
2.131628207280301e-014
 30
0
 40
42.00000000000001
 50
60.00000000000001
 51
120
  0
ARC
  8
1
 62
7
 10
138.299880697634
 20
2.131628207280301e-014
 30
0
 40
32.99999999999995
 50
65.0000000000001
 51
115
  0
ARC
  8
1
 62
7
 10
148.0201007176699
 20
20.84507910184296
 30
0
 40
10.00000000000004
 50
26.34735689705487
 51
64.99999999999933
  0
ARC
  8
1
 62
7
 10
138.299880697634
 20
2.131628207280301e-014
 30
0
 40
42.00000000000003
 50
299.9999999999999
 51
359.9999999999999
  0
ARC
  8
1
 62
7
 10
138.299880697634
 20
2.131628207280301e-014
 30
0
 40
32.99999999999999
 50
304.9999999999999
 51
354.9999999999999
  0
ARC
  8
1
 62
7
 10
149.299880697634
 20
-19.05255888325762
 30
0
 40
20.00000000000003
 50
259.8479605493234
 51
299.9999999999999
  0
ARC
  8
1
 62
7
 10
151.492138733708
 20
-18.84049701864679
 30
0
 40
10.00000000000003
 50
266.3473568970551
 51
305.0000000000002
  0
ARC
  8
1
 62
7
 10
138.299880697634
 20
2.131628207280301e-014
 30
0
 40
42.00000000000006
 50
180
 51
239.9999999999999
  0
ARC
  8
1
 62
7
 10
138.299880697634
 20
2.131628207280301e-014
 30
0
 40
33.00000000000009
 50
185
 51
234.9999999999999
  0
ARC
  8
1
 62
7
 10
116.299880697634
 20
0
 30
0
 40
20.00000000000007
 50
139.8479605493229
 51
180
  0
ARC
  8
1
 62
7
 10
115.3874026415238
 20
-2.004582083196119
 30
0
 40
10.00000000000003
 50
146.3473568970545
 51
184.9999999999999
  0
ARC
  8
1
 62
7
 10
-185.3846065735866
 20
2.131628207280301e-014
 30
0
 40
7.499999999999994
 50
109.4712206344907
 51
70.52877936550928
  0
ARC
  8
1
 62
7
 10
42.3
 20
-39.99999999999998
 30
0
 40
0.5
 50
270
 51
0
  0
ARC
  8
1
 62
7
 10
37.5
 20
-39.99999999999998
 30
0
 40
0.5
 50
180
 51
270
  0
ARC
  8
1
 62
7
 10
34.10000000000001
 20
-21.49999999999998
 30
0
 40
1
 50
90
 51
180
  0
ARC
  8
1
 62
7
 10
34.10000000000001
 20
-38.49999999999997
 30
0
 40
1
 50
180
 51
270
  0
ARC
  8
1
 62
7
 10
34.10000000000001
 20
23.50000000000001
 30
0
 40
1
 50
90
 51
180
  0
ARC
  8
1
 62
7
 10
43.8
 20
-37.49999999999997
 30
0
 40
2.000000000000007
 50
270
 51
0
  0
ARC
  8
1
 62
7
 10
39
 20
28.00000000000001
 30
0
 40
2
 50
90
 51
180
  0
ARC
  8
1
 62
7
 10
44
 20
28
 30
0
 40
2
 50
0
 51
90
  0
ARC
  8
1
 62
7
 10
8.991267056370132
 20
-36.50873294362987
 30
0
 40
5.991273420989101
 50
179.916485035027
 51
269.916485035027
  0
ARC
  8
1
 62
7
 10
7.991267056370131
 20
-28.49126705637012
 30
0
 40
4.991274696138271
 50
90.10024715097181
 51
180.1002471509718
  0
ARC
  8
1
 62
7
 10
7.991267056370132
 20
28.49126705637013
 30
0
 40
4.991274696138271
 50
179.8997528490282
 51
269.8997528490282
  0
ARC
  8
1
 62
7
 10
8.991267056370131
 20
36.50873294362987
 30
0
 40
5.991273420989097
 50
90.08351496497298
 51
180.0835149649731
  0
ARC
  8
1
 62
3
  6
DASHDOT
 10
138.299880697634
 20
2.131628207280301e-014
 30
0
 40
23.99999999999998
 50
344.9999999999999
 51
15.00000000000001
  0
ARC
  8
1
 62
3
  6
DASHDOT
 10
138.299880697634
 20
2.131628207280301e-014
 30
0
 40
23.99999999999997
 50
45.00000000000004
 51
74.99999999999999
  0
ARC
  8
1
 62
3
  6
DASHDOT
 10
138.299880697634
 20
2.131628207280301e-014
 30
0
 40
23.99999999999995
 50
104.9999999999998
 51
134.9999999999999
  0
ARC
  8
1
 62
3
  6
DASHDOT
 10
138.299880697634
 20
2.131628207280301e-014
 30
0
 40
23.99999999999996
 50
165
 51
195
  0
ARC
  8
1
 62
3
  6
DASHDOT
 10
138.299880697634
 20
2.131628207280301e-014
 30
0
 40
24.00000000000004
 50
224.9999999999999
 51
255
  0
ARC
  8
1
 62
3
  6
DASHDOT
 10
138.299880697634
 20
2.131628207280301e-014
 30
0
 40
24.00000000000003
 50
284.9999999999997
 51
314.9999999999998
  0
ARC
  8
1
 62
7
 10
-185.3846065735866
 20
2.131628207280301e-014
 30
0
 40
42.50000000000001
 50
100.8498158629969
 51
79.1501841370031
  0
CIRCLE
  8
1
 62
7
 10
138.299880697634
 20
2.131628207280301e-014
 30
0
 40
42.75
  0
CIRCLE
  8
1
 62
3
 10
162.299880697634
 20
2.131628207280301e-014
 30
0
 40
3.000000000000114
  0
CIRCLE
  8
1
 62
7
 10
162.299880697634
 20
2.131628207280301e-014
 30
0
 40
2.400000000000006
  0
CIRCLE
  8
1
 62
3
 10
150.299880697634
 20
-20.78460969082651
 30
0
 40
3
  0
CIRCLE
  8
1
 62
7
 10
150.299880697634
 20
-20.78460969082651
 30
0
 40
2.400000000000006
  0
CIRCLE
  8
1
 62
3
 10
126.299880697634
 20
-20.78460969082651
 30
0
 40
3
  0
CIRCLE
  8
1
 62
7
 10
126.299880697634
 20
-20.78460969082651
 30
0
 40
2.400000000000006
  0
CIRCLE
  8
1
 62
3
 10
114.299880697634
 20
1.4210854715202e-014
 30
0
 40
3
  0
CIRCLE
  8
1
 62
7
 10
114.299880697634
 20
1.4210854715202e-014
 30
0
 40
2.400000000000006
  0
CIRCLE
  8
1
 62
3
 10
126.299880697634
 20
20.78460969082654
 30
0
 40
3
  0
CIRCLE
  8
1
 62
7
 10
126.299880697634
 20
20.78460969082654
 30
0
 40
2.400000000000006
  0
CIRCLE
  8
1
 62
3
 10
150.299880697634
 20
20.78460969082654
 30
0
 40
3
  0
CIRCLE
  8
1
 62
7
 10
150.299880697634
 20
20.78460969082654
 30
0
 40
2.399999999999892
  0
CIRCLE
  8
1
 62
7
 10
138.299880697634
 20
2.131628207280301e-014
 30
0
 40
13.5
  0
CIRCLE
  8
1
 62
7
 10
138.299880697634
 20
2.131628207280301e-014
 30
0
 40
16
  0
CIRCLE
  8
1
 62
7
 10
138.2998806976339
 20
-29.99999999999998
 30
0
 40
2
  0
CIRCLE
  8
1
 62
7
 10
138.2998806976339
 20
-29.99999999999998
 30
0
 40
5.5
  0
CIRCLE
  8
1
 62
7
 10
112.3191185841008
 20
15.00000000000001
 30
0
 40
2
  0
CIRCLE
  8
1
 62
7
 10
112.3191185841008
 20
15.00000000000001
 30
0
 40
5.5
  0
CIRCLE
  8
1
 62
7
 10
164.2806428111672
 20
15.00000000000001
 30
0
 40
2
  0
CIRCLE
  8
1
 62
7
 10
164.2806428111672
 20
15.00000000000001
 30
0
 40
5.5
  0
CIRCLE
  8
1
 62
7
 10
-185.3846065735866
 20
2.131628207280301e-014
 30
0
 40
20.75
  0
CIRCLE
  8
1
 62
7
 10
-185.3846065735866
 20
2.131628207280301e-014
 30
0
 40
15
  0
CIRCLE
  8
1
 62
7
 10
-185.3846065735866
 20
56.00000000000003
 30
0
 40
2.75
  0
CIRCLE
  8
1
 62
7
 10
170.7758333395504
 20
-18.75
 30
0
 40
3.600000000000023
  0
CIRCLE
  8
1
 62
7
 10
105.8239280557175
 20
-18.74999999999996
 30
0
 40
3.599999999999994
  0
CIRCLE
  8
1
 62
7
 10
138.299880697634
 20
37.50000000000001
 30
0
 40
3.599999999999909
  0
CIRCLE
  8
1
 62
7
 10
138.299880697634
 20
56.00000000000003
 30
0
 40
2.75
  0
CIRCLE
  8
1
 62
7
 10
138.299880697634
 20
2.131628207280301e-014
 30
0
 40
45
  0
CIRCLE
  8
1
 62
7
 10
138.299880697634
 20
2.131628207280301e-014
 30
0
 40
7.5
  0
CIRCLE
  8
1
 62
7
 10
138.299880697634
 20
2.131628207280301e-014
 30
0
 40
10
  0
CIRCLE
  8
1
 62
7
 10
164.2806428111672
 20
15.00000000000001
 30
0
 40
7.5
  0
CIRCLE
  8
1
 62
7
 10
138.2998806976339
 20
-29.99999999999998
 30
0
 40
7.5
  0
CIRCLE
  8
1
 62
7
 10
112.3191185841008
 20
15.00000000000001
 30
0
 40
7.5
  0
CIRCLE
  8
1
 62
7
 10
7.5
 20
19.25
 30
0
 40
2.54999999999999
  0
CIRCLE
  8
1
 62
7
 10
7.5
 20
-19.25000000000001
 30
0
 40
2.54999999999999
  0
TEXT
  8
1
 62
7
 10
-197.2999857142236
 20
118.0213038852828
 30
0
 40
5
  1
DC2102
 41
0.9
  7
SIMPLEX
  0
TEXT
  8
1
 62
7
 10
-196.3816145013106
 20
127.4039743433908
 30
0
 40
5
  1
TMAC 1.2
 41
0.9
  7
SIMPLEX
  0
ENDSEC
  0
EOF
