  0
SECTION
  2
HEADER
  9
$ACADVER
  1
AC1009
  9
$INSBASE
 10
0
 20
0
  9
$EXTMIN
 10
-344.4981336242534
 20
-71
  9
$EXTMAX
 10
273.3940173953462
 20
158.5288827287991
  9
$LIMMIN
 10
-344.4981336242534
 20
-71
  9
$LIMMAX
 10
273.3940173953462
 20
158.5288827287991
  9
$VIEWCTR
 10
10
 20
10
  9
$VIEWSIZE
 40
10
  9
$SNAPMODE
 70
0
  9
$SNAPUNIT
 10
1
 20
1
  9
$SNAPBASE
 10
0
 20
0
  9
$SNAPANG
 50
0
  9
$SNAPSTYLE
 70
0
  9
$SNAPISOPAIR
 70
0
  9
$GRIDMODE
 70
0
  9
$GRIDUNIT
 10
0
 20
0
  9
$ORTHOMODE
 70
0
  9
$REGENMODE
 70
1
  9
$FILLMODE
 70
1
  9
$QTEXTMODE
 70
0
  9
$DRAGMODE
 70
2
  9
$LTSCALE
 40
1
  9
$OSMODE
 70
0
  9
$ATTMODE
 70
1
  9
$TEXTSIZE
 40
3.5
  9
$TRACEWID
 40
0.5
  9
$TEXTSTYLE
  7
STANDARD
  9
$CLAYER
  8
0
  9
$CELTYPE
  6
BYLAYER
  9
$CECOLOR
 62
256
  9
$DIMSCALE
 40
1
  9
$DIMASZ
 40
0.18
  9
$DIMEXO
 40
0.0625
  9
$DIMDLI
 40
0.38
  9
$DIMRND
 40
0
  9
$DIMDLE
 40
0
  9
$DIMEXE
 40
0.18
  9
$DIMTP
 40
0
  9
$DIMTM
 40
0
  9
$DIMTXT
 40
0.18
  9
$DIMCEN
 40
0.09
  9
$DIMTSZ
 40
0
  9
$DIMTOL
 70
0
  9
$DIMLIM
 70
0
  9
$DIMTIH
 70
1
  9
$DIMTOH
 70
1
  9
$DIMSE1
 70
0
  9
$DIMSE2
 70
0
  9
$DIMTAD
 70
0
  9
$DIMZIN
 70
0
  9
$DIMBLK
  1

  9
$DIMASO
 70
1
  9
$DIMSHO
 70
1
  9
$DIMPOST
  1

  9
$DIMAPOST
  1

  9
$DIMALT
 70
0
  9
$DIMALTD
 70
2
  9
$DIMALTF
 40
25.4
  9
$DIMLFAC
 40
1
  9
$DIMTOFL
 70
0
  9
$DIMTVP
 40
0
  9
$DIMTIX
 70
0
  9
$DIMSOXD
 70
0
  9
$DIMSAH
 70
0
  9
$DIMBLK1
  1

  9
$DIMBLK2
  1

  9
$DIMSTYLE
  2
*UNNAMED
  9
$DIMCLRD
 70
0
  9
$DIMCLRE
 70
0
  9
$DIMCLRT
 70
0
  9
$DIMTFAC
 40
1
  9
$DIMGAP
 40
0.09
  9
$LUNITS
 70
2
  9
$LUPREC
 70
4
  9
$AXISMODE
 70
0
  9
$AXISUNIT
 10
0
 20
0
  9
$SKETCHINC
 40
0.1
  9
$FILLETRAD
 40
2
  9
$AUNITS
 70
0
  9
$AUPREC
 70
0
  9
$MENU
  1
ACAD
  9
$ELEVATION
 40
0
  9
$THICKNESS
 40
0
  9
$VIEWDIR
 10
0
 20
0
 30
1
  9
$LIMCHECK
 70
0
  9
$BLIPMODE
 70
1
  9
$CHAMFERA
 40
0
  9
$CHAMFERB
 40
0
  9
$FASTZOOM
 70
1
  9
$SKPOLY
 70
0
  9
$ANGBASE
 50
0
  9
$ANGDIR
 70
0
  9
$PDMODE
 70
0
  9
$PDSIZE
 40
0
  9
$PLINEWID
 40
0
  9
$COORDS
 70
2
  0
ENDSEC
  0
SECTION
  2
TABLES
  0
TABLE
  2
DIMSTYLE
 70
0
  0
ENDTAB
  0
TABLE
  2
LTYPE
 70
9
  0
LTYPE
  2
CONTINUOUS
 70
64
  3
Solid line
 72
65
 73
0
 40
0
  0
LTYPE
  2
BORDER
 70
64
  3
__ __ . __ __ .
 72
65
 73
6
 40
28.45555958642893
 49
8.130159881836837
 49
-4.065079940918419
 49
8.130159881836837
 49
-4.065079940918419
 49
0
 49
-4.065079940918419
  0
LTYPE
  2
CENTER
 70
64
  3
____ _ ____ _
 72
65
 73
4
 40
32.52063952734735
 49
20.32539970459209
 49
-4.065079940918419
 49
4.065079940918419
 49
-4.065079940918419
  0
LTYPE
  2
DASHDOT
 70
64
  3
__ . __ . __ .
 72
65
 73
4
 40
16.26031976367367
 49
8.130159881836837
 49
-4.065079940918419
 49
0
 49
-4.065079940918419
  0
LTYPE
  2
DASHED
 70
64
  3
__ __ __ __ __
 72
65
 73
2
 40
12.19523982275526
 49
8.130159881836837
 49
-4.065079940918419
  0
LTYPE
  2
DIVIDE
 70
64
  3
__ . . __ . . 
 72
65
 73
6
 40
20.32539970459209
 49
8.130159881836837
 49
-4.065079940918419
 49
0
 49
-4.065079940918419
 49
0
 49
-4.065079940918419
  0
LTYPE
  2
DOT
 70
64
  3
..............
 72
65
 73
4
 40
8.130159881836837
 49
0
 49
-4.065079940918419
 49
0
 49
-4.065079940918419
  0
LTYPE
  2
HIDDEN
 70
64
  3
_ _ _ _ _ _ _
 72
65
 73
2
 40
6.097619911377628
 49
4.065079940918419
 49
-2.032539970459209
  0
LTYPE
  2
PHANTOM
 70
64
  3
_____ _ _ _____ _ _ 
 72
65
 73
6
 40
40.65079940918419
 49
20.32539970459209
 49
-4.065079940918419
 49
4.065079940918419
 49
-4.065079940918419
 49
4.065079940918419
 49
-4.065079940918419
  0
ENDTAB
  0
TABLE
  2
LAYER
 70
3
  0
LAYER
  2
1
 70
0
 62
7
  6
CONTINUOUS
  0
LAYER
  2
0
 70
0
 62
7
  6
CONTINUOUS
  0
ENDTAB
  0
TABLE
  2
STYLE
 70
4
  0
STYLE
  2
STANDARD
 70
0
 40
0
 41
1
 50
0
 71
0
 42
3.5
  3
txt
  4

  0
STYLE
  2
SIMPLEX
 70
0
 40
0
 41
1
 50
0
 71
0
 42
3.5
  3
simplex
  4

  0
STYLE
  2
COMPLEX
 70
0
 40
0
 41
1
 50
0
 71
0
 42
3.5
  3
complex
  4

  0
STYLE
  2
ITALIC
 70
0
 40
0
 41
1
 50
0
 71
0
 42
3.5
  3
italic
  4

  0
ENDTAB
  0
TABLE
  2
VIEW
 70
0
  0
ENDTAB
  0
ENDSEC
  0
SECTION
  2
BLOCKS
  0
ENDSEC
  0
SECTION
  2
ENTITIES
  0
LINE
  8
1
 62
3
  6
DASHDOT
 10
216.3940173953462
 20
-24.24871130596421
 30
0
 11
223.3940173953462
 21
-36.37306695894637
 31
0
  0
LINE
  8
1
 62
3
  6
DASHDOT
 10
188.3940173953464
 20
-24.24871130596418
 30
0
 11
181.3940173953464
 21
-36.37306695894631
 31
0
  0
LINE
  8
1
 62
3
  6
DASHDOT
 10
174.3940173953464
 20
4.260931705658738e-015
 30
0
 11
160.3940173953464
 21
2.568823608092426e-014
 31
0
  0
LINE
  8
1
 62
3
  6
DASHDOT
 10
188.3940173953464
 20
24.24871130596421
 30
0
 11
181.3940173953464
 21
36.37306695894634
 31
0
  0
LINE
  8
1
 62
3
  6
DASHDOT
 10
216.3940173953463
 20
24.24871130596418
 30
0
 11
223.3940173953463
 21
36.37306695894631
 31
0
  0
LINE
  8
1
 62
3
  6
DASHDOT
 10
230.3940173953462
 20
0
 30
0
 11
244.3940173953462
 21
-1.598721155460225e-014
 31
0
  0
LINE
  8
1
 62
3
  6
DASHDOT
 10
-279.7481336242535
 20
77.99999999999997
 30
0
 11
-267.2481336242535
 21
78
 31
0
  0
LINE
  8
1
 62
3
  6
DASHDOT
 10
-273.4981336242535
 20
84.24999999999999
 30
0
 11
-273.4981336242534
 21
71.74999999999994
 31
0
  0
LINE
  8
1
 62
3
  6
DASHDOT
 10
196.1440173953463
 20
77.99999999999997
 30
0
 11
208.6440173953463
 21
78
 31
0
  0
LINE
  8
1
 62
3
  6
DASHDOT
 10
202.3940173953463
 20
84.24999999999999
 30
0
 11
202.3940173953463
 21
71.74999999999994
 31
0
  0
LINE
  8
1
 62
3
  6
DASHDOT
 10
-268.4981336242534
 20
0
 30
0
 11
-278.4981336242534
 21
0
 31
0
  0
LINE
  8
1
 62
3
  6
DASHDOT
 10
-273.4981336242534
 20
-5
 30
0
 11
-273.4981336242534
 21
5
 31
0
  0
LINE
  8
1
 62
3
  6
DASHDOT
 10
207.3940173953463
 20
0
 30
0
 11
197.3940173953463
 21
0
 31
0
  0
LINE
  8
1
 62
3
  6
DASHDOT
 10
202.3940173953463
 20
5
 30
0
 11
202.3940173953463
 21
-5
 31
0
  0
LINE
  8
1
 62
7
 10
38.90000000000001
 20
-67.60000000000007
 30
0
 11
33.99999999999989
 21
-67.60000000000007
 31
0
  0
LINE
  8
1
 62
7
 10
33.99999999999989
 20
67.59999999999992
 30
0
 11
33.99999999999989
 21
16
 31
0
  0
LINE
  8
1
 62
7
 10
38.90000000000001
 20
67.59999999999992
 30
0
 11
38.90000000000001
 21
47.5
 31
0
  0
LINE
  8
1
 62
7
 10
38.90000000000001
 20
67.59999999999992
 30
0
 11
33.99999999999989
 21
67.59999999999992
 31
0
  0
LINE
  8
1
 62
7
 10
40.69999999999999
 20
-38.5
 30
0
 11
39.69999999999999
 21
-38.5
 31
0
  0
LINE
  8
1
 62
7
 10
40.69999999999999
 20
-60
 30
0
 11
39.69999999999999
 21
-60
 31
0
  0
LINE
  8
1
 62
7
 10
48.5
 20
-16
 30
0
 11
48.5
 21
-34.5
 31
0
  0
LINE
  8
1
 62
7
 10
40.69999999999999
 20
-16
 30
0
 11
40.69999999999999
 21
-66.53672573724259
 31
0
  0
LINE
  8
1
 62
7
 10
33.99999999999989
 20
-16
 30
0
 11
33.99999999999989
 21
-67.60000000000007
 31
0
  0
LINE
  8
1
 62
7
 10
56.5
 20
26
 30
0
 11
56.5
 21
-26
 31
0
  0
LINE
  8
1
 62
7
 10
0
 20
-12.5
 30
0
 11
56.5
 21
-12.5
 31
0
  0
LINE
  8
1
 62
7
 10
33.5
 20
16
 30
0
 11
56.5
 21
16
 31
0
  0
LINE
  8
1
 62
7
 10
56.5
 20
-26
 30
0
 11
60.5
 21
-26
 31
0
  0
LINE
  8
1
 62
7
 10
48.5
 20
-21.5
 30
0
 11
56.5
 21
-21.5
 31
0
  0
LINE
  8
1
 62
7
 10
56.5
 20
21.5
 30
0
 11
48.5
 21
21.5
 31
0
  0
LINE
  8
1
 62
7
 10
60.5
 20
26
 30
0
 11
56.5
 21
26
 31
0
  0
LINE
  8
1
 62
3
  6
DASHDOT
 10
63.5
 20
35
 30
0
 11
45.5
 21
35
 31
0
  0
LINE
  8
1
 62
7
 10
48.5
 20
38.2
 30
0
 11
60.5
 21
38.2
 31
0
  0
LINE
  8
1
 62
7
 10
60.5
 20
31.8
 30
0
 11
48.5
 21
31.8
 31
0
  0
LINE
  8
1
 62
3
 10
48.5
 20
39
 30
0
 11
60.5
 21
39
 31
0
  0
LINE
  8
1
 62
3
 10
60.5
 20
31
 30
0
 11
48.5
 21
31
 31
0
  0
LINE
  8
1
 62
3
  6
DASHDOT
 10
60.5
 20
-3.552713678800501e-015
 30
0
 11
65.5
 21
-3.552713678800501e-015
 31
0
  0
LINE
  8
1
 62
7
 10
40.69999999999999
 20
16.75
 30
0
 11
41.69999999999999
 21
16.75
 31
0
  0
LINE
  8
1
 62
7
 10
41.69999999999999
 20
30.75
 30
0
 11
40.69999999999999
 21
30.75
 31
0
  0
LINE
  8
1
 62
7
 10
41.69999999999999
 20
35.25
 30
0
 11
41.69999999999999
 21
16
 31
0
  0
LINE
  8
1
 62
7
 10
48.5
 20
36.25
 30
0
 11
42.69999999999999
 21
36.25
 31
0
  0
LINE
  8
1
 62
7
 10
59.5
 20
-35
 30
0
 11
60.29999999999998
 21
-35
 31
0
  0
LINE
  8
1
 62
7
 10
58.5
 20
-33.00003882417309
 30
0
 11
58.5
 21
-34
 31
0
  0
LINE
  8
1
 62
7
 10
60.5
 20
-32.00003882417309
 30
0
 11
59.5
 21
-32.00003882417309
 31
0
  0
LINE
  8
1
 62
7
 10
58.5
 20
43
 30
0
 11
49.5
 21
43
 31
0
  0
LINE
  8
1
 62
7
 10
60.5
 20
-32.00003882417309
 30
0
 11
60.5
 21
41
 31
0
  0
LINE
  8
1
 62
7
 10
60.29999999999998
 20
-58
 30
0
 11
60.29999999999998
 21
-32.00003882417309
 31
0
  0
LINE
  8
1
 62
7
 10
48.5
 20
42
 30
0
 11
48.5
 21
16
 31
0
  0
LINE
  8
1
 62
7
 10
42.69999999999999
 20
-35
 30
0
 11
48
 21
-35
 31
0
  0
LINE
  8
1
 62
7
 10
41.69999999999999
 20
-36
 30
0
 11
41.69999999999999
 21
-59
 31
0
  0
LINE
  8
1
 62
7
 10
56.79999999999998
 20
-60
 30
0
 11
58.29999999999998
 21
-60
 31
0
  0
LINE
  8
1
 62
7
 10
56.29999999999998
 20
-61.5
 30
0
 11
56.29999999999998
 21
-60.5
 31
0
  0
LINE
  8
1
 62
7
 10
49
 20
-62
 30
0
 11
55.79999999999998
 21
-62
 31
0
  0
LINE
  8
1
 62
7
 10
48.5
 20
-60.5
 30
0
 11
48.5
 21
-61.5
 31
0
  0
LINE
  8
1
 62
7
 10
42.69999999999999
 20
-60
 30
0
 11
48
 21
-60
 31
0
  0
LINE
  8
1
 62
7
 10
41.69999999999999
 20
-54.5
 30
0
 11
40.69999999999999
 21
-54.5
 31
0
  0
LINE
  8
1
 62
7
 10
40.69999999999999
 20
-40.5
 30
0
 11
41.69999999999999
 21
-40.5
 31
0
  0
LINE
  8
1
 62
7
 10
14.19999999999999
 20
91.61594261184091
 30
0
 11
14.19999999999999
 21
67.50000000000001
 31
0
  0
LINE
  8
1
 62
7
 10
11.79999999999998
 20
91.61594261184087
 30
0
 11
14.19999999999999
 21
91.61594261184091
 31
0
  0
LINE
  8
1
 62
7
 10
11.79999999999998
 20
91.61594261184087
 30
0
 11
11.80000000000001
 21
67.50000000000001
 31
0
  0
LINE
  8
1
 62
7
 10
33.4999999999999
 20
-33.4999999999999
 30
0
 11
33.4999999999999
 21
-67.49999999999989
 31
0
  0
LINE
  8
1
 62
7
 10
27.6999999999999
 20
-68.19999999999993
 30
0
 11
27.6999999999999
 21
-32.99999999999976
 31
0
  0
LINE
  8
1
 62
7
 10
10.1448759552305
 20
67.50000000000001
 30
0
 11
16
 21
67.5
 31
0
  0
LINE
  8
1
 62
7
 10
1
 20
74.75
 30
0
 11
3
 21
74.75
 31
0
  0
LINE
  8
1
 62
3
  6
DASHDOT
 10
-2
 20
78
 30
0
 11
6
 21
78
 31
0
  0
LINE
  8
1
 62
7
 10
1
 20
81.24999999999999
 30
0
 11
3
 21
81.25
 31
0
  0
LINE
  8
1
 62
7
 10
1
 20
83.99999999999999
 30
0
 11
3
 21
84
 31
0
  0
LINE
  8
1
 62
7
 10
1
 20
30.75
 30
0
 11
3
 21
30.75
 31
0
  0
LINE
  8
1
 62
7
 10
1
 20
-30.74999999999999
 30
0
 11
3
 21
-30.74999999999999
 31
0
  0
LINE
  8
1
 62
7
 10
1
 20
-52.5
 30
0
 11
3
 21
-52.5
 31
0
  0
LINE
  8
1
 62
7
 10
3
 20
84
 30
0
 11
3
 21
21.70000000000005
 31
0
  0
LINE
  8
1
 62
7
 10
26
 20
-67.19999999999993
 30
0
 11
16
 21
-67.19999999999993
 31
0
  0
LINE
  8
1
 62
7
 10
16
 20
-67.5
 30
0
 11
16
 21
-67.19999999999993
 31
0
  0
LINE
  8
1
 62
7
 10
26
 20
-34
 30
0
 11
26
 21
-67.19999999999993
 31
0
  0
LINE
  8
1
 62
7
 10
10
 20
-67.50000000000001
 30
0
 11
16
 21
-67.5
 31
0
  0
LINE
  8
1
 62
7
 10
26
 20
-34
 30
0
 11
16.59999999999999
 21
-34
 31
0
  0
LINE
  8
1
 62
7
 10
16.59999999999999
 20
34
 30
0
 11
26
 21
34
 31
0
  0
LINE
  8
1
 62
7
 10
26
 20
67.20000000000005
 30
0
 11
26
 21
34
 31
0
  0
LINE
  8
1
 62
7
 10
16
 20
67.20000000000005
 30
0
 11
16
 21
67.5
 31
0
  0
LINE
  8
1
 62
7
 10
16
 20
67.20000000000005
 30
0
 11
26
 21
67.20000000000005
 31
0
  0
LINE
  8
1
 62
7
 10
0
 20
-21.99999999999988
 30
0
 11
0
 21
22
 31
0
  0
LINE
  8
1
 62
7
 10
1.75
 20
22.5
 30
0
 11
0.5
 21
22.5
 31
0
  0
LINE
  8
1
 62
7
 10
1.75
 20
25.5
 30
0
 11
1.75
 21
21.70000000000005
 31
0
  0
LINE
  8
1
 62
7
 10
1.75
 20
21.70000000000005
 30
0
 11
3
 21
21.70000000000005
 31
0
  0
LINE
  8
1
 62
7
 10
15
 20
22.5
 30
0
 11
3
 21
22.5
 31
0
  0
LINE
  8
1
 62
7
 10
15
 20
25.5
 30
0
 11
17.6999999999999
 21
25.5
 31
0
  0
LINE
  8
1
 62
7
 10
17.6999999999999
 20
25.5
 30
0
 11
17.6999999999999
 21
33
 31
0
  0
LINE
  8
1
 62
7
 10
17.6999999999999
 20
33
 30
0
 11
27.6999999999999
 21
33
 31
0
  0
LINE
  8
1
 62
7
 10
27.6999999999999
 20
33
 30
0
 11
27.6999999999999
 21
68.20000000000005
 31
0
  0
LINE
  8
1
 62
7
 10
27.6999999999999
 20
68.20000000000005
 30
0
 11
17.6999999999999
 21
68.20000000000003
 31
0
  0
LINE
  8
1
 62
7
 10
29.6792740578363
 20
71.00000000000001
 30
0
 11
31.6999999999999
 21
67.50000000000001
 31
0
  0
LINE
  8
1
 62
7
 10
31.6999999999999
 20
67.50000000000001
 30
0
 11
33.4999999999999
 21
67.50000000000001
 31
0
  0
LINE
  8
1
 62
7
 10
33.4999999999999
 20
67.50000000000001
 30
0
 11
33.4999999999999
 21
33.5
 31
0
  0
LINE
  8
1
 62
7
 10
31.6999999999999
 20
33.5
 30
0
 11
33.4999999999999
 21
33.5
 31
0
  0
LINE
  8
1
 62
7
 10
31.6999999999999
 20
33.5
 30
0
 11
31.6999999999999
 21
29
 31
0
  0
LINE
  8
1
 62
7
 10
33.5
 20
29
 30
0
 11
33.5
 21
-28.99999999999988
 31
0
  0
LINE
  8
1
 62
7
 10
0.5
 20
22.5
 30
0
 11
0
 21
22
 31
0
  0
LINE
  8
1
 62
7
 10
17.6999999999999
 20
71.00000000000001
 30
0
 11
17.6999999999999
 21
68.20000000000003
 31
0
  0
LINE
  8
1
 62
7
 10
17.6999999999999
 20
71.00000000000001
 30
0
 11
29.6792740578363
 21
71.00000000000001
 31
0
  0
LINE
  8
1
 62
7
 10
15
 20
35.5
 30
0
 11
15
 21
22.5
 31
0
  0
LINE
  8
1
 62
7
 10
10.72499999999999
 20
31.23778764305631
 30
0
 11
15
 21
31.23778764305631
 31
0
  0
LINE
  8
1
 62
7
 10
7.275000000000006
 20
31.23778764305631
 30
0
 11
3
 21
31.23778764305631
 31
0
  0
LINE
  8
1
 62
7
 10
7.275000000000006
 20
25.26221235694369
 30
0
 11
3
 21
25.26221235694369
 31
0
  0
LINE
  8
1
 62
7
 10
10.72499999999999
 20
25.26221235694369
 30
0
 11
15
 21
25.26221235694369
 31
0
  0
LINE
  8
1
 62
7
 10
13.80000000000001
 20
24.80000000000008
 30
0
 11
13.80000000000001
 21
31.70000000000005
 31
0
  0
LINE
  8
1
 62
7
 10
4.199999999999903
 20
24.80000000000008
 30
0
 11
4.199999999999903
 21
31.70000000000005
 31
0
  0
LINE
  8
1
 62
7
 10
15
 20
29.5
 30
0
 11
16.59999999999999
 21
29.5
 31
0
  0
LINE
  8
1
 62
7
 10
16.59999999999999
 20
35.5
 30
0
 11
16.59999999999999
 21
29.5
 31
0
  0
LINE
  8
1
 62
7
 10
16.59999999999999
 20
35.5
 30
0
 11
15
 21
35.5
 31
0
  0
LINE
  8
1
 62
7
 10
1.75
 20
25.5
 30
0
 11
3
 21
25.5
 31
0
  0
LINE
  8
1
 62
7
 10
3
 20
-25.49999999999988
 30
0
 11
1.75
 21
-25.49999999999988
 31
0
  0
LINE
  8
1
 62
7
 10
1.75
 20
-25.49999999999988
 30
0
 11
1.75
 21
-21.69999999999992
 31
0
  0
LINE
  8
1
 62
7
 10
15
 20
-35.4999999999999
 30
0
 11
16.59999999999999
 21
-35.5
 31
0
  0
LINE
  8
1
 62
7
 10
16.59999999999999
 20
-29.49999999999988
 30
0
 11
16.59999999999999
 21
-35.5
 31
0
  0
LINE
  8
1
 62
7
 10
16.59999999999999
 20
-29.49999999999988
 30
0
 11
15
 21
-29.49999999999988
 31
0
  0
LINE
  8
1
 62
7
 10
15
 20
-22.49999999999988
 30
0
 11
15
 21
-35.4999999999999
 31
0
  0
LINE
  8
1
 62
7
 10
4.199999999999903
 20
-31.69999999999994
 30
0
 11
4.199999999999903
 21
-24.79999999999995
 31
0
  0
LINE
  8
1
 62
7
 10
13.80000000000001
 20
-31.69999999999994
 30
0
 11
13.80000000000001
 21
-24.79999999999995
 31
0
  0
LINE
  8
1
 62
7
 10
15
 20
-25.26221235694356
 30
0
 11
10.72499999999999
 21
-25.26221235694356
 31
0
  0
LINE
  8
1
 62
7
 10
3
 20
-25.26221235694356
 30
0
 11
7.275000000000006
 21
-25.26221235694356
 31
0
  0
LINE
  8
1
 62
7
 10
3
 20
-31.2377876430562
 30
0
 11
7.275000000000006
 21
-31.2377876430562
 31
0
  0
LINE
  8
1
 62
7
 10
15
 20
-31.2377876430562
 30
0
 11
10.72499999999999
 21
-31.2377876430562
 31
0
  0
LINE
  8
1
 62
7
 10
29.6792740578363
 20
-70.99999999999989
 30
0
 11
17.6999999999999
 21
-70.9999999999999
 31
0
  0
LINE
  8
1
 62
7
 10
17.6999999999999
 20
-68.19999999999993
 30
0
 11
17.6999999999999
 21
-70.9999999999999
 31
0
  0
LINE
  8
1
 62
7
 10
0
 20
-21.99999999999988
 30
0
 11
0.5
 21
-22.49999999999988
 31
0
  0
LINE
  8
1
 62
7
 10
31.69999999999999
 20
-28.99999999999999
 30
0
 11
31.6999999999999
 21
-33.4999999999999
 31
0
  0
LINE
  8
1
 62
7
 10
33.4999999999999
 20
-33.4999999999999
 30
0
 11
31.6999999999999
 21
-33.4999999999999
 31
0
  0
LINE
  8
1
 62
7
 10
33.5
 20
-28.99999999999988
 30
0
 11
31.69999999999999
 21
-28.99999999999999
 31
0
  0
LINE
  8
1
 62
7
 10
33.4999999999999
 20
-67.49999999999989
 30
0
 11
31.6999999999999
 21
-67.49999999999989
 31
0
  0
LINE
  8
1
 62
7
 10
31.6999999999999
 20
-67.49999999999989
 30
0
 11
29.6792740578363
 21
-70.99999999999989
 31
0
  0
LINE
  8
1
 62
7
 10
17.6999999999999
 20
-68.19999999999993
 30
0
 11
27.6999999999999
 21
-68.19999999999993
 31
0
  0
LINE
  8
1
 62
7
 10
27.6999999999999
 20
-32.99999999999976
 30
0
 11
17.6999999999999
 21
-32.99999999999976
 31
0
  0
LINE
  8
1
 62
7
 10
17.6999999999999
 20
-32.99999999999976
 30
0
 11
17.6999999999999
 21
-25.49999999999988
 31
0
  0
LINE
  8
1
 62
7
 10
17.6999999999999
 20
-25.49999999999988
 30
0
 11
15
 21
-25.49999999999988
 31
0
  0
LINE
  8
1
 62
7
 10
15
 20
-22.49999999999988
 30
0
 11
3
 21
-22.49999999999988
 31
0
  0
LINE
  8
1
 62
7
 10
3
 20
-21.69999999999992
 30
0
 11
1.75
 21
-21.69999999999992
 31
0
  0
LINE
  8
1
 62
7
 10
0.5
 20
-22.49999999999988
 30
0
 11
1.75
 21
-22.49999999999988
 31
0
  0
LINE
  8
1
 62
7
 10
1
 20
83.99999999999999
 30
0
 11
1
 21
30.75
 31
0
  0
LINE
  8
1
 62
7
 10
1
 20
-52.5
 30
0
 11
1
 21
-30.74999999999999
 31
0
  0
LINE
  8
1
 62
7
 10
39.69999999999999
 20
-66.53672573724259
 30
0
 11
40.69999999999999
 21
-66.53672573724259
 31
0
  0
LINE
  8
1
 62
7
 10
40.69999999999999
 20
47.63165249758737
 30
0
 11
40.69999999999999
 21
16
 31
0
  0
LINE
  8
1
 62
7
 10
39.90000000000001
 20
50.61729314364243
 30
0
 11
40.69999999999999
 21
47.63165249758737
 31
0
  0
LINE
  8
1
 62
7
 10
38.90000000000001
 20
50.4856406460551
 30
0
 11
39.69999999999999
 21
47.5
 31
0
  0
LINE
  8
1
 62
7
 10
39.90000000000001
 20
66.50000000000001
 30
0
 11
39.90000000000001
 21
50.61729314364243
 31
0
  0
LINE
  8
1
 62
7
 10
38.95885855344861
 20
54.5
 30
0
 11
39.90000000000001
 21
54.5
 31
0
  0
LINE
  8
1
 62
7
 10
42.19999999999999
 20
55.5
 30
0
 11
42.69999999999999
 21
56
 31
0
  0
LINE
  8
1
 62
7
 10
42.19999999999999
 20
65.50000000000001
 30
0
 11
42.69999999999999
 21
65.00000000000001
 31
0
  0
LINE
  8
1
 62
7
 10
40.59999999999999
 20
65.50000000000001
 30
0
 11
40.59999999999999
 21
55.5
 31
0
  0
LINE
  8
1
 62
7
 10
38.90000000000001
 20
66.50000000000001
 30
0
 11
39.90000000000001
 21
66.50000000000001
 31
0
  0
LINE
  8
1
 62
7
 10
39.90000000000001
 20
65.50000000000001
 30
0
 11
42.19999999999999
 21
65.50000000000001
 31
0
  0
LINE
  8
1
 62
7
 10
39.90000000000001
 20
55.5
 30
0
 11
42.19999999999999
 21
55.5
 31
0
  0
LINE
  8
1
 62
7
 10
42.69999999999999
 20
65.00000000000001
 30
0
 11
42.69999999999999
 21
56
 31
0
  0
LINE
  8
1
 62
7
 10
39.69999999999999
 20
-33
 30
0
 11
33.99999999999989
 21
-33
 31
0
  0
LINE
  8
1
 62
7
 10
33.99999999999989
 20
33
 30
0
 11
39.69999999999999
 21
33
 31
0
  0
LINE
  8
1
 62
7
 10
39.69999999999999
 20
47.5
 30
0
 11
39.69999999999999
 21
15.99999999999999
 31
0
  0
LINE
  8
1
 62
7
 10
38.90000000000001
 20
47.5
 30
0
 11
39.69999999999999
 21
47.5
 31
0
  0
LINE
  8
1
 62
7
 10
16.59999999999999
 20
35.5
 30
0
 11
15
 21
35.5
 31
0
  0
LINE
  8
1
 62
7
 10
3
 20
34
 30
0
 11
15
 21
34
 31
0
  0
LINE
  8
1
 62
3
  6
DASHDOT
 10
0
 20
0
 30
0
 11
-5
 21
0
 31
0
  0
LINE
  8
1
 62
7
 10
3.000041568743313
 20
-33.9999999999999
 30
0
 11
15
 21
-33.9999999999999
 31
0
  0
LINE
  8
1
 62
7
 10
16.59999999999999
 20
-35.5
 30
0
 11
15
 21
-35.4999999999999
 31
0
  0
LINE
  8
1
 62
7
 10
13.5
 20
91.61594261184091
 30
0
 11
13.5
 21
93.45511915936615
 31
0
  0
LINE
  8
1
 62
7
 10
12.5
 20
93.45511915936615
 30
0
 11
12.5
 21
91.61594261184091
 31
0
  0
LINE
  8
1
 62
7
 10
13
 20
93.51174946208452
 30
0
 11
13
 21
91.61594261184091
 31
0
  0
LINE
  8
1
 62
7
 10
39.69999999999999
 20
-66.53672573724259
 30
0
 11
39.69999999999999
 21
-16
 31
0
  0
LINE
  8
1
 62
7
 10
39.69999999999999
 20
-47.5
 30
0
 11
38.90000000000001
 21
-47.5
 31
0
  0
LINE
  8
1
 62
7
 10
38.90000000000001
 20
-47.5
 30
0
 11
38.90000000000001
 21
-67.60000000000007
 31
0
  0
LINE
  8
1
 62
7
 10
0
 20
15.5
 30
0
 11
33.5
 21
15.5
 31
0
  0
LINE
  8
1
 62
7
 10
0
 20
12.5
 30
0
 11
56.5
 21
12.5
 31
0
  0
LINE
  8
1
 62
7
 10
56.5
 20
-16
 30
0
 11
33.5
 21
-16
 31
0
  0
LINE
  8
1
 62
7
 10
31.6999999999999
 20
29
 30
0
 11
33.5
 21
29
 31
0
  0
LINE
  8
1
 62
7
 10
3
 20
-21.69999999999992
 30
0
 11
3
 21
-60.47587613882922
 31
0
  0
LINE
  8
1
 62
7
 10
-91.80000000000001
 20
-47.5
 30
0
 11
-92.59999999999999
 21
-47.5
 31
0
  0
LINE
  8
1
 62
7
 10
-73.00000000000011
 20
-33.00003882417309
 30
0
 11
-73.00000000000011
 21
-34
 31
0
  0
LINE
  8
1
 62
7
 10
-72.00000000000011
 20
-35
 30
0
 11
-71.20000000000002
 21
-35
 31
0
  0
LINE
  8
1
 62
3
  6
DASHDOT
 10
-133.5
 20
78
 30
0
 11
-125.5
 21
78
 31
0
  0
LINE
  8
1
 62
7
 10
194.3940173953463
 20
70.54785609782908
 30
0
 11
194.3940173953463
 21
82
 31
0
  0
LINE
  8
1
 62
7
 10
210.3940173953463
 20
70.54785609782908
 30
0
 11
210.3940173953463
 21
82
 31
0
  0
LINE
  8
1
 62
7
 10
225.3193878075633
 20
92.85707039830993
 30
0
 11
230.1562499078172
 21
91.58996897988043
 31
0
  0
LINE
  8
1
 62
7
 10
230.1562499078172
 20
91.58996897988043
 30
0
 11
223.1735889468869
 21
67.89115852697171
 31
0
  0
LINE
  8
1
 62
7
 10
229.3250158093311
 20
95.76785702847835
 30
0
 11
228.3289115248545
 21
92.06867252962215
 31
0
  0
LINE
  8
1
 62
7
 10
229.8977219521092
 20
95.55309222493656
 30
0
 11
228.966928343375
 21
91.90153276028971
 31
0
  0
LINE
  8
1
 62
7
 10
230.4704280948872
 20
95.33832742139479
 30
0
 11
229.6224946058929
 21
91.72979560427955
 31
0
  0
LINE
  8
1
 62
7
 10
227.1484940121989
 20
92.38496444886977
 30
0
 11
228.1354346464517
 21
96.08660434040314
 31
0
  0
LINE
  8
1
 62
7
 10
226.5123853546522
 20
92.55922557190546
 30
0
 11
227.5320741761316
 21
96.18696563608623
 31
0
  0
LINE
  8
1
 62
7
 10
225.8587797394425
 20
92.73827996328593
 30
0
 11
226.9287137058115
 21
96.28732693176933
 31
0
  0
LINE
  8
1
 62
7
 10
196.3940173953463
 20
84
 30
0
 11
208.3940173953463
 21
84
 31
0
  0
LINE
  8
1
 62
7
 10
225.3193878075633
 20
92.85707039830993
 30
0
 11
218.3439598154415
 21
69.18525375248431
 31
0
  0
LINE
  8
1
 62
3
  6
DASHDOT
 10
-131.5
 20
-3.552713678800501e-015
 30
0
 11
-136.5
 21
-3.552713678800501e-015
 31
0
  0
LINE
  8
1
 62
7
 10
-131.5
 20
-21.99999999999989
 30
0
 11
-131.5
 21
22
 31
0
  0
LINE
  8
1
 62
7
 10
-131
 20
-22.49999999999989
 30
0
 11
-130.5
 21
-22.49999999999989
 31
0
  0
LINE
  8
1
 62
7
 10
-99.80000000000013
 20
-67.4999999999999
 30
0
 11
-101.8207259421637
 21
-70.9999999999999
 31
0
  0
LINE
  8
1
 62
7
 10
-98.0000000000001
 20
-67.4999999999999
 30
0
 11
-99.80000000000013
 21
-67.4999999999999
 31
0
  0
LINE
  8
1
 62
7
 10
-131.5
 20
-21.99999999999989
 30
0
 11
-131
 21
-22.49999999999989
 31
0
  0
LINE
  8
1
 62
7
 10
-113.8000000000001
 20
-70.9999999999999
 30
0
 11
-113.8000000000001
 21
71
 31
0
  0
LINE
  8
1
 62
7
 10
-101.8207259421637
 20
-70.9999999999999
 30
0
 11
-113.8000000000001
 21
-70.9999999999999
 31
0
  0
LINE
  8
1
 62
7
 10
-113.8000000000001
 20
71
 30
0
 11
-101.8207259421637
 21
71.00000000000001
 31
0
  0
LINE
  8
1
 62
7
 10
-131
 20
22.5
 30
0
 11
-131.5
 21
22
 31
0
  0
LINE
  8
1
 62
7
 10
-99.80000000000013
 20
67.5
 30
0
 11
-98.0000000000001
 21
67.5
 31
0
  0
LINE
  8
1
 62
7
 10
-101.8207259421637
 20
71.00000000000001
 30
0
 11
-99.80000000000013
 21
67.5
 31
0
  0
LINE
  8
1
 62
7
 10
-121.5
 20
-67.50000000000001
 30
0
 11
-113.8000000000001
 21
-67.50000000000001
 31
0
  0
LINE
  8
1
 62
7
 10
-128.5
 20
84
 30
0
 11
-128.5
 21
-60.47587613882923
 31
0
  0
LINE
  8
1
 62
7
 10
-130.5
 20
-52.5
 30
0
 11
-128.5
 21
-52.5
 31
0
  0
LINE
  8
1
 62
7
 10
-130.5
 20
83.99999999999999
 30
0
 11
-128.5
 21
84
 31
0
  0
LINE
  8
1
 62
7
 10
-121.5
 20
67.50000000000001
 30
0
 11
-113.8000000000001
 21
67.5
 31
0
  0
LINE
  8
1
 62
7
 10
-98.0000000000001
 20
-67.4999999999999
 30
0
 11
-98.0000000000001
 21
67.5
 31
0
  0
LINE
  8
1
 62
7
 10
-119.7
 20
91.61594261184087
 30
0
 11
-119.7
 21
67.5
 31
0
  0
LINE
  8
1
 62
7
 10
-119.7
 20
91.61594261184087
 30
0
 11
-117.3
 21
91.61594261184091
 31
0
  0
LINE
  8
1
 62
7
 10
-117.3
 20
91.61594261184091
 30
0
 11
-117.3
 21
67.5
 31
0
  0
LINE
  8
1
 62
7
 10
-118.5
 20
93.51174946208452
 30
0
 11
-118.5
 21
91.61594261184091
 31
0
  0
LINE
  8
1
 62
7
 10
-119
 20
93.45511915936615
 30
0
 11
-119
 21
91.61594261184091
 31
0
  0
LINE
  8
1
 62
7
 10
-118
 20
91.61594261184091
 30
0
 11
-118
 21
93.45511915936615
 31
0
  0
LINE
  8
1
 62
7
 10
-99.80000000000013
 20
67.5
 30
0
 11
-99.80000000000013
 21
-67.4999999999999
 31
0
  0
LINE
  8
1
 62
7
 10
-130.5
 20
22.5
 30
0
 11
-131
 21
22.5
 31
0
  0
LINE
  8
1
 62
7
 10
-101.8207259421637
 20
-70.9999999999999
 30
0
 11
-101.8207259421637
 21
71.00000000000001
 31
0
  0
LINE
  8
1
 62
7
 10
-130.5
 20
83.99999999999999
 30
0
 11
-130.5
 21
-52.5
 31
0
  0
LINE
  8
1
 62
3
  6
DASHDOT
 10
-273.4981336242534
 20
74.19557886807876
 30
0
 11
-273.4981336242534
 21
81.80442113192125
 31
0
  0
LINE
  8
1
 62
7
 10
-269.9981336242534
 20
12
 30
0
 11
-269.9981336242534
 21
15.5
 31
0
  0
LINE
  8
1
 62
7
 10
-276.9981336242534
 20
12
 30
0
 11
-276.9981336242534
 21
15.5
 31
0
  0
LINE
  8
1
 62
7
 10
-276.9981336242534
 20
15.5
 30
0
 11
-269.9981336242534
 21
15.5
 31
0
  0
LINE
  8
1
 62
7
 10
-301.2603661367245
 20
91.58996897988043
 30
0
 11
-296.4235040364705
 21
92.85707039830993
 31
0
  0
LINE
  8
1
 62
7
 10
-294.2777051757941
 20
67.89115852697171
 30
0
 11
-301.2603661367245
 21
91.58996897988043
 31
0
  0
LINE
  8
1
 62
7
 10
-299.4330277537618
 20
92.06867252962215
 30
0
 11
-300.4291320382384
 21
95.76785702847835
 31
0
  0
LINE
  8
1
 62
7
 10
-300.0710445722823
 20
91.90153276028971
 30
0
 11
-301.0018381810163
 21
95.55309222493656
 31
0
  0
LINE
  8
1
 62
7
 10
-300.7266108348003
 20
91.72979560427955
 30
0
 11
-301.5745443237944
 21
95.33832742139479
 31
0
  0
LINE
  8
1
 62
7
 10
-299.239550875359
 20
96.08660434040314
 30
0
 11
-298.2526102411061
 21
92.38496444886977
 31
0
  0
LINE
  8
1
 62
7
 10
-298.6361904050388
 20
96.18696563608623
 30
0
 11
-297.6165015835594
 21
92.55922557190546
 31
0
  0
LINE
  8
1
 62
7
 10
-298.0328299347188
 20
96.28732693176933
 30
0
 11
-296.9628959683497
 21
92.73827996328593
 31
0
  0
LINE
  8
1
 62
7
 10
-289.4480760443488
 20
69.18525375248431
 30
0
 11
-296.4235040364705
 21
92.85707039830993
 31
0
  0
LINE
  8
1
 62
7
 10
-281.4981336242534
 20
82
 30
0
 11
-281.4981336242534
 21
58.34614479672449
 31
0
  0
LINE
  8
1
 62
7
 10
-279.4981336242534
 20
84
 30
0
 11
-267.4981336242534
 21
84
 31
0
  0
LINE
  8
1
 62
7
 10
-265.4981336242534
 20
58.34614479672449
 30
0
 11
-265.4981336242534
 21
82
 31
0
  0
LINE
  8
1
 62
7
 10
227.6397527927213
 20
92.24920982609854
 30
0
 11
220.7903581561666
 21
68.57532097345059
 31
0
  0
LINE
  8
1
 62
7
 10
-298.7438690216286
 20
92.24920982609854
 30
0
 11
-291.894474385074
 21
68.57532097345057
 31
0
  0
LINE
  8
1
 62
7
 10
248.7015837162706
 20
28.467736688471
 30
0
 11
245.0302240751071
 21
26.34807621135331
 31
0
  0
LINE
  8
1
 62
7
 10
250.2015837162706
 20
25.86966047711768
 30
0
 11
246.5302240751071
 21
23.74999999999999
 31
0
  0
LINE
  8
1
 62
7
 10
240.5302240751071
 20
23.74999999999999
 30
0
 11
236.8588644339436
 21
21.6303395228823
 31
0
  0
LINE
  8
1
 62
7
 10
242.0302240751071
 20
21.15192378864666
 30
0
 11
238.3588644339436
 21
19.03226331152899
 31
0
  0
LINE
  8
1
 62
7
 10
154.5864510744219
 20
25.86966047711768
 30
0
 11
158.2578107155854
 21
23.74999999999999
 31
0
  0
LINE
  8
1
 62
7
 10
156.0864510744219
 20
28.467736688471
 30
0
 11
159.7578107155854
 21
26.34807621135331
 31
0
  0
LINE
  8
1
 62
7
 10
162.7578107155854
 20
21.15192378864668
 30
0
 11
166.4291703567489
 21
19.03226331152899
 31
0
  0
LINE
  8
1
 62
7
 10
164.2578107155854
 20
23.75
 30
0
 11
167.9291703567489
 21
21.6303395228823
 31
0
  0
LINE
  8
1
 62
7
 10
203.8940173953462
 20
-54.33739716558877
 30
0
 11
203.8940173953462
 21
-50.09807621135339
 31
0
  0
LINE
  8
1
 62
7
 10
200.8940173953462
 20
-54.33739716558874
 30
0
 11
200.8940173953462
 21
-50.09807621135339
 31
0
  0
LINE
  8
1
 62
7
 10
203.8940173953462
 20
-44.90192378864677
 30
0
 11
203.8940173953462
 21
-40.6626028344114
 31
0
  0
LINE
  8
1
 62
7
 10
200.8940173953463
 20
-44.9019237886467
 30
0
 11
200.8940173953462
 21
-40.6626028344114
 31
0
  0
LINE
  8
1
 62
7
 10
-92.59999999999999
 20
47.5
 30
0
 11
-91.80000000000001
 21
47.5
 31
0
  0
LINE
  8
1
 62
7
 10
-88.80000000000001
 20
65.00000000000001
 30
0
 11
-88.80000000000001
 21
56
 31
0
  0
LINE
  8
1
 62
7
 10
-91.59999999999999
 20
55.5
 30
0
 11
-89.30000000000001
 21
55.5
 31
0
  0
LINE
  8
1
 62
7
 10
-91.59999999999999
 20
65.50000000000001
 30
0
 11
-89.30000000000001
 21
65.50000000000001
 31
0
  0
LINE
  8
1
 62
7
 10
-92.59999999999999
 20
66.50000000000001
 30
0
 11
-91.59999999999999
 21
66.50000000000001
 31
0
  0
LINE
  8
1
 62
7
 10
-90.90000000000001
 20
65.50000000000001
 30
0
 11
-90.90000000000001
 21
55.5
 31
0
  0
LINE
  8
1
 62
7
 10
-89.30000000000001
 20
65.50000000000001
 30
0
 11
-88.80000000000001
 21
65.00000000000001
 31
0
  0
LINE
  8
1
 62
7
 10
-89.30000000000001
 20
55.5
 30
0
 11
-88.80000000000001
 21
56
 31
0
  0
LINE
  8
1
 62
7
 10
-91.59999999999999
 20
66.50000000000001
 30
0
 11
-91.59999999999999
 21
50.61729314364243
 31
0
  0
LINE
  8
1
 62
7
 10
-92.59999999999999
 20
50.4856406460551
 30
0
 11
-91.80000000000001
 21
47.5
 31
0
  0
LINE
  8
1
 62
7
 10
-91.59999999999999
 20
50.61729314364243
 30
0
 11
-90.80000000000001
 21
47.63165249758737
 31
0
  0
LINE
  8
1
 62
7
 10
-91.80000000000001
 20
-66.53672573724259
 30
0
 11
-90.80000000000001
 21
-66.53672573724259
 31
0
  0
LINE
  8
1
 62
7
 10
-90.80000000000001
 20
-40.5
 30
0
 11
-89.80000000000001
 21
-40.5
 31
0
  0
LINE
  8
1
 62
7
 10
-90.80000000000001
 20
-54.5
 30
0
 11
-89.80000000000001
 21
-54.5
 31
0
  0
LINE
  8
1
 62
7
 10
-88.80000000000001
 20
-60
 30
0
 11
-83.5
 21
-60
 31
0
  0
LINE
  8
1
 62
7
 10
-82.5
 20
-62
 30
0
 11
-75.70000000000002
 21
-62
 31
0
  0
LINE
  8
1
 62
7
 10
-75.20000000000002
 20
-61.5
 30
0
 11
-75.20000000000002
 21
-60.5
 31
0
  0
LINE
  8
1
 62
7
 10
-74.70000000000002
 20
-60
 30
0
 11
-73.20000000000002
 21
-60
 31
0
  0
LINE
  8
1
 62
7
 10
-88.80000000000001
 20
-35
 30
0
 11
-83.5
 21
-35
 31
0
  0
LINE
  8
1
 62
7
 10
-71.20000000000002
 20
-58
 30
0
 11
-71.20000000000002
 21
-32.00003882417309
 31
0
  0
LINE
  8
1
 62
7
 10
-72.00000000000011
 20
-32.00003882417309
 30
0
 11
-71
 21
-32.00003882417309
 31
0
  0
LINE
  8
1
 62
7
 10
-71
 20
-32.00003882417309
 30
0
 11
-71
 21
41
 31
0
  0
LINE
  8
1
 62
7
 10
-73
 20
43
 30
0
 11
-82
 21
43
 31
0
  0
LINE
  8
1
 62
7
 10
-84
 20
36.25
 30
0
 11
-88.80000000000001
 21
36.25
 31
0
  0
LINE
  8
1
 62
7
 10
-89.80000000000001
 20
35.25
 30
0
 11
-89.80000000000001
 21
12.24999999999999
 31
0
  0
LINE
  8
1
 62
7
 10
-89.80000000000001
 20
30.75
 30
0
 11
-90.80000000000001
 21
30.75
 31
0
  0
LINE
  8
1
 62
7
 10
-90.80000000000001
 20
16.75
 30
0
 11
-89.80000000000001
 21
16.75
 31
0
  0
LINE
  8
1
 62
3
  6
DASHDOT
 10
-71
 20
0
 30
0
 11
-65.8689953070878
 21
-3.552713678800501e-015
 31
0
  0
LINE
  8
1
 62
7
 10
-89.80000000000001
 20
-36
 30
0
 11
-89.80000000000001
 21
-59
 31
0
  0
LINE
  8
1
 62
7
 10
-91.80000000000001
 20
47.5
 30
0
 11
-91.80000000000001
 21
-66.53672573724259
 31
0
  0
LINE
  8
1
 62
7
 10
-90.80000000000001
 20
-66.53672573724259
 30
0
 11
-90.80000000000001
 21
47.63165249758737
 31
0
  0
LINE
  8
1
 62
7
 10
-84
 20
11.25
 30
0
 11
-88.80000000000001
 21
11.25
 31
0
  0
LINE
  8
1
 62
7
 10
-83
 20
-61.5
 30
0
 11
-83
 21
42
 31
0
  0
LINE
  8
1
 62
7
 10
-75.20000000000002
 20
-61.5
 30
0
 11
-75.20000000000002
 21
-60.5
 31
0
  0
LINE
  8
1
 62
7
 10
-83
 20
-16
 30
0
 11
-90.80000000000001
 21
-16
 31
0
  0
LINE
  8
1
 62
7
 10
-92.59999999999999
 20
-67.59999999999998
 30
0
 11
-97.50000000000011
 21
-67.59999999999998
 31
0
  0
LINE
  8
1
 62
7
 10
-97.50000000000011
 20
-67.59999999999998
 30
0
 11
-97.50000000000011
 21
67.60000000000001
 31
0
  0
LINE
  8
1
 62
7
 10
-92.59999999999999
 20
67.60000000000001
 30
0
 11
-97.50000000000011
 21
67.60000000000001
 31
0
  0
LINE
  8
1
 62
7
 10
-92.59999999999999
 20
67.60000000000001
 30
0
 11
-92.59999999999999
 21
-67.59999999999998
 31
0
  0
ARC
  8
1
 62
3
  6
DASHDOT
 10
202.3940173953463
 20
0
 30
0
 40
35
 50
285
 51
314.9999999999998
  0
ARC
  8
1
 62
3
  6
DASHDOT
 10
202.3940173953463
 20
0
 30
0
 40
34.99999999999994
 50
225.0000000000001
 51
255
  0
ARC
  8
1
 62
3
  6
DASHDOT
 10
202.3940173953463
 20
0
 30
0
 40
35.00000000000003
 50
165
 51
194.9999999999999
  0
ARC
  8
1
 62
3
  6
DASHDOT
 10
202.3940173953463
 20
0
 30
0
 40
34.99999999999998
 50
105
 51
134.9999999999999
  0
ARC
  8
1
 62
3
  6
DASHDOT
 10
202.3940173953463
 20
0
 30
0
 40
35.00000000000001
 50
44.99999999999995
 51
75.00000000000001
  0
ARC
  8
1
 62
3
  6
DASHDOT
 10
202.3940173953463
 20
0
 30
0
 40
35
 50
345
 51
14.99999999999998
  0
ARC
  8
1
 62
7
 10
42.69999999999999
 20
35.25
 30
0
 40
1
 50
90
 51
180
  0
ARC
  8
1
 62
7
 10
42.69999999999999
 20
-36
 30
0
 40
1
 50
90
 51
180
  0
ARC
  8
1
 62
7
 10
48
 20
-34.5
 30
0
 40
0.5
 50
270
 51
0
  0
ARC
  8
1
 62
7
 10
56.79999999999998
 20
-60.5
 30
0
 40
0.5
 50
90
 51
180
  0
ARC
  8
1
 62
7
 10
48
 20
-60.5
 30
0
 40
0.5
 50
0
 51
90
  0
ARC
  8
1
 62
7
 10
59.5
 20
-34
 30
0
 40
1
 50
180
 51
270
  0
ARC
  8
1
 62
7
 10
59.5
 20
-33.00003882417309
 30
0
 40
1
 50
90
 51
180
  0
ARC
  8
1
 62
7
 10
42.69999999999999
 20
-59
 30
0
 40
1
 50
180
 51
270
  0
ARC
  8
1
 62
7
 10
49
 20
-61.5
 30
0
 40
0.5
 50
180
 51
270
  0
ARC
  8
1
 62
7
 10
55.79999999999998
 20
-61.5
 30
0
 40
0.5
 50
270
 51
0
  0
ARC
  8
1
 62
7
 10
58.29999999999998
 20
-58
 30
0
 40
2
 50
270
 51
0
  0
ARC
  8
1
 62
7
 10
49.5
 20
42
 30
0
 40
1
 50
90
 51
180
  0
ARC
  8
1
 62
7
 10
58.5
 20
41
 30
0
 40
2
 50
0
 51
90
  0
ARC
  8
1
 62
7
 10
10
 20
-40.5
 30
0
 40
6.999999999999989
 50
111.7867892982616
 51
180
  0
ARC
  8
1
 62
7
 10
9.773219139236431
 20
-60.72596057193409
 30
0
 40
6.777834442637271
 50
177.885455023031
 51
271.917428339804
  0
ARC
  8
1
 62
7
 10
10.00073180327109
 20
60.5007496889478
 30
0
 40
7.000734422423737
 50
88.82020446599388
 51
180.2035718477194
  0
ARC
  8
1
 62
7
 10
10
 20
40.5
 30
0
 40
7
 50
180
 51
248.2132107017384
  0
ARC
  8
1
 62
7
 10
165.3940173953462
 20
-2.842170943040401e-014
 30
0
 40
30
 50
130.796778267372
 51
180.0000000000001
  0
ARC
  8
1
 62
7
 10
166.5310082640434
 20
-3.137606738915713
 30
0
 40
18.00000000000006
 50
133.931647854862
 51
184.9999999999999
  0
ARC
  8
1
 62
7
 10
223.0427691039839
 20
-29.48947359440371
 30
0
 40
17.99999999999999
 50
253.9316478548621
 51
304.9999999999999
  0
ARC
  8
1
 62
7
 10
220.8940173953463
 20
-32.04293994002424
 30
0
 40
30.00000000000003
 50
250.7967782673718
 51
299.9999999999999
  0
ARC
  8
1
 62
7
 10
202.3940173953463
 20
0
 30
0
 40
54.00000000000005
 50
185
 51
234.9999999999999
  0
ARC
  8
1
 62
7
 10
202.3940173953463
 20
0
 30
0
 40
67
 50
180.0000000000001
 51
239.9999999999999
  0
ARC
  8
1
 62
7
 10
217.6082748180114
 20
32.62708033331937
 30
0
 40
18.00000000000002
 50
13.93164785486193
 51
65.00000000000003
  0
ARC
  8
1
 62
7
 10
220.8940173953463
 20
32.04293994002421
 30
0
 40
29.9999999999999
 50
10.79677826737211
 51
59.99999999999992
  0
ARC
  8
1
 62
7
 10
202.3940173953463
 20
0
 30
0
 40
66.9999999999999
 50
59.99999999999996
 51
120
  0
ARC
  8
1
 62
7
 10
202.3940173953463
 20
0
 30
0
 40
53.99999999999996
 50
65.00000000000007
 51
115
  0
ARC
  8
1
 62
7
 10
202.3940173953463
 20
0
 30
0
 40
53.99999999999997
 50
304.9999999999999
 51
354.9999999999999
  0
ARC
  8
1
 62
7
 10
202.3940173953463
 20
0
 30
0
 40
67.00000000000006
 50
299.9999999999999
 51
359.9999999999999
  0
ARC
  8
1
 62
7
 10
208.3940173953463
 20
82
 30
0
 40
2
 50
0
 51
90
  0
ARC
  8
1
 62
7
 10
196.3940173953463
 20
82
 30
0
 40
2
 50
90
 51
180
  0
ARC
  8
1
 62
7
 10
-121.5717036473623
 20
60.57170364736231
 30
0
 40
6.928667387241066
 50
89.40704474961231
 51
180.5929552503878
  0
ARC
  8
1
 62
7
 10
-121.7267808607636
 20
-60.7259605719341
 30
0
 40
6.777834442637244
 50
177.8854550230309
 51
271.9174283398042
  0
ARC
  8
1
 62
7
 10
-273.4981336242534
 20
0
 30
0
 40
12.5
 50
106.260204708312
 51
73.73979529168804
  0
ARC
  8
1
 62
7
 10
-267.4981336242534
 20
82
 30
0
 40
2
 50
0
 51
90
  0
ARC
  8
1
 62
7
 10
-279.4981336242534
 20
82
 30
0
 40
2
 50
90
 51
180
  0
ARC
  8
1
 62
7
 10
-273.4981336242534
 20
0
 30
0
 40
70.9999999999999
 50
96.46960161034264
 51
83.53039838965736
  0
ARC
  8
1
 62
7
 10
-273.4981336242534
 20
0
 30
0
 40
68.00000000000007
 50
96.75632703058783
 51
83.24367296941219
  0
ARC
  8
1
 62
7
 10
-273.4981336242534
 20
0
 30
0
 40
52.50018688103652
 50
105.3349867939013
 51
74.66501320609888
  0
ARC
  8
1
 62
7
 10
243.5302240751071
 20
23.74999999999996
 30
0
 40
15.5
 50
53.77859599899109
 51
116.4878783281624
  0
ARC
  8
1
 62
7
 10
243.5302240751071
 20
23.74999999999996
 30
0
 40
15.50000000000002
 50
166.9377452846852
 51
253.0622547153144
  0
ARC
  8
1
 62
7
 10
161.2578107155854
 20
23.75
 30
0
 40
15.50000000000001
 50
173.778595998991
 51
236.4878783281627
  0
ARC
  8
1
 62
7
 10
161.2578107155854
 20
23.75
 30
0
 40
15.50000000000001
 50
286.9377452846852
 51
13.06225471531467
  0
ARC
  8
1
 62
7
 10
202.3940173953463
 20
-47.5
 30
0
 40
15.5
 50
293.778595998991
 51
356.4878783281623
  0
ARC
  8
1
 62
7
 10
202.3940173953463
 20
-47.5
 30
0
 40
15.49999999999991
 50
46.93774528468536
 51
133.0622547153152
  0
ARC
  8
1
 62
7
 10
202.3940173953463
 20
0
 30
0
 40
42.99999999999999
 50
299.4729316584902
 51
301.6597901008605
  0
ARC
  8
1
 62
7
 10
202.3940173953463
 20
0
 30
0
 40
42.99999999999996
 50
59.47293165849045
 51
120.5270683415097
  0
ARC
  8
1
 62
7
 10
202.3940173953463
 20
0
 30
0
 40
43.00000000000011
 50
179.4729316584904
 51
240.5270683415096
  0
ARC
  8
1
 62
7
 10
202.3940173953463
 20
0
 30
0
 40
61.99999999999993
 50
24.21471020877556
 51
35.78528979122449
  0
ARC
  8
1
 62
7
 10
243.5302240751071
 20
23.74999999999996
 30
0
 40
15.49999999999995
 50
303.5121216718374
 51
6.221404001009171
  0
ARC
  8
1
 62
7
 10
202.3940173953463
 20
0
 30
0
 40
62.00000000000002
 50
264.2147102087752
 51
275.7852897912244
  0
ARC
  8
1
 62
7
 10
202.3940173953463
 20
-47.5
 30
0
 40
15.50000000000004
 50
183.5121216718377
 51
246.221404001008
  0
ARC
  8
1
 62
7
 10
202.3940173953463
 20
0
 30
0
 40
61.99999999999999
 50
144.2147102087756
 51
155.7852897912245
  0
ARC
  8
1
 62
7
 10
161.2578107155854
 20
23.75
 30
0
 40
15.49999999999996
 50
63.51212167183753
 51
126.221404001009
  0
ARC
  8
1
 62
7
 10
239.3940173953463
 20
-5.329070518200751e-014
 30
0
 40
29.99999999999997
 50
359.9999999999997
 51
49.20322173262805
  0
ARC
  8
1
 62
7
 10
238.2570265266491
 20
-3.137606738915744
 30
0
 40
17.99999999999996
 50
354.9999999999998
 51
46.06835214513821
  0
ARC
  8
1
 62
7
 10
202.3940173953463
 20
0
 30
0
 40
47.49999999999999
 50
289.9460716264249
 51
10.053928373575
  0
ARC
  8
1
 62
7
 10
183.8940173953462
 20
-32.04293994002424
 30
0
 40
29.99999999999995
 50
239.9999999999999
 51
289.2032217326279
  0
ARC
  8
1
 62
7
 10
181.7452656867086
 20
-29.48947359440371
 30
0
 40
18.00000000000001
 50
234.9999999999997
 51
286.068352145138
  0
ARC
  8
1
 62
7
 10
202.3940173953463
 20
0
 30
0
 40
47.50000000000004
 50
169.946071626425
 51
250.053928373575
  0
ARC
  8
1
 62
7
 10
187.179759972681
 20
32.6270803333194
 30
0
 40
17.99999999999997
 50
114.9999999999998
 51
166.0683521451381
  0
ARC
  8
1
 62
7
 10
183.8940173953463
 20
32.04293994002424
 30
0
 40
30.00000000000001
 50
120
 51
169.203221732628
  0
ARC
  8
1
 62
7
 10
202.3940173953463
 20
0
 30
0
 40
47.49999999999991
 50
49.94607162642506
 51
130.053928373575
  0
ARC
  8
1
 62
7
 10
202.3940173953463
 20
1.374567126788406e-012
 30
0
 40
43.00000000000009
 50
179.4729316584923
 51
181.6597901008626
  0
ARC
  8
1
 62
7
 10
202.3940173953463
 20
0
 30
0
 40
42.99999999999999
 50
299.4729316584902
 51
0.5270683415095883
  0
ARC
  8
1
 62
7
 10
-72.00000000000011
 20
-33.00003882417309
 30
0
 40
1
 50
90
 51
180
  0
ARC
  8
1
 62
7
 10
-72.00000000000011
 20
-34
 30
0
 40
1
 50
180
 51
270
  0
ARC
  8
1
 62
7
 10
-72.00000000000011
 20
-34
 30
0
 40
1
 50
180
 51
270
  0
ARC
  8
1
 62
7
 10
-84
 20
10.25
 30
0
 40
1
 50
0
 51
90
  0
ARC
  8
1
 62
7
 10
-84
 20
37.25
 30
0
 40
1
 50
270
 51
0
  0
ARC
  8
1
 62
7
 10
-289.4981336242534
 20
58.34614479672449
 30
0
 40
7.999999999999973
 50
285.3349867939003
 51
0
  0
ARC
  8
1
 62
7
 10
-257.4981336242534
 20
58.34614479672449
 30
0
 40
8
 50
180
 51
254.6650132060989
  0
ARC
  8
1
 62
7
 10
229.9269657995313
 20
51.04837658704223
 30
0
 40
14.99999999999999
 50
241.6597901008607
 51
296.4878783281627
  0
ARC
  8
1
 62
7
 10
260.3696825437721
 20
-1.679955534410724
 30
0
 40
15.00000000000003
 50
123.5121216718374
 51
178.3402098991393
  0
ARC
  8
1
 62
7
 10
219.664159880835
 20
29.28723576117955
 30
0
 40
9.000000000000039
 50
346.9377452846854
 51
59.47293165849005
  0
ARC
  8
1
 62
7
 10
236.3925788138962
 20
0.3127642388204385
 30
0
 40
9.000000000000084
 50
0.5270683415096424
 51
73.06225471531488
  0
ARC
  8
1
 62
7
 10
144.4183522469204
 20
-1.679955534410692
 30
0
 40
14.99999999999997
 50
1.659790100860787
 51
56.48787832816247
  0
ARC
  8
1
 62
7
 10
174.8610689911612
 20
51.04837658704223
 30
0
 40
14.99999999999999
 50
243.5121216718374
 51
298.3402098991393
  0
ARC
  8
1
 62
7
 10
168.3954559767963
 20
0.3127642388204385
 30
0
 40
9.000000000000007
 50
106.9377452846858
 51
179.4729316584904
  0
ARC
  8
1
 62
7
 10
185.1238749098574
 20
29.28723576117955
 30
0
 40
8.999999999999986
 50
120.5270683415094
 51
193.0622547153148
  0
ARC
  8
1
 62
7
 10
232.8367341395871
 20
-49.36842105263166
 30
0
 40
15.00000000000002
 50
121.6597901008609
 51
176.4878783281625
  0
ARC
  8
1
 62
7
 10
171.9513006511054
 20
-49.36842105263163
 30
0
 40
15
 50
3.512121671837382
 51
58.34020989913946
  0
ARC
  8
1
 62
7
 10
219.1224363284074
 20
-29.60000000000005
 30
0
 40
8.999999999999982
 50
226.9377452846855
 51
299.4729316584904
  0
ARC
  8
1
 62
7
 10
185.6655984622851
 20
-29.60000000000005
 30
0
 40
9.000000000000034
 50
240.5270683415097
 51
313.0622547153142
  0
ARC
  8
1
 62
7
 10
-73
 20
41
 30
0
 40
2
 50
0
 51
90
  0
ARC
  8
1
 62
7
 10
-82
 20
42
 30
0
 40
1
 50
90
 51
180
  0
ARC
  8
1
 62
7
 10
-73.20000000000002
 20
-58
 30
0
 40
2
 50
270
 51
0
  0
ARC
  8
1
 62
7
 10
-75.70000000000002
 20
-61.5
 30
0
 40
0.5
 50
270
 51
0
  0
ARC
  8
1
 62
7
 10
-82.5
 20
-61.5
 30
0
 40
0.5
 50
180
 51
270
  0
ARC
  8
1
 62
7
 10
-88.80000000000001
 20
-59
 30
0
 40
1
 50
180
 51
270
  0
ARC
  8
1
 62
7
 10
-83.5
 20
-60.5
 30
0
 40
0.5
 50
0
 51
90
  0
ARC
  8
1
 62
7
 10
-74.70000000000002
 20
-60.5
 30
0
 40
0.5
 50
90
 51
180
  0
ARC
  8
1
 62
7
 10
-83.5
 20
-34.5
 30
0
 40
0.5
 50
270
 51
0
  0
ARC
  8
1
 62
7
 10
-88.80000000000001
 20
-36
 30
0
 40
1
 50
90
 51
180
  0
ARC
  8
1
 62
7
 10
-88.80000000000001
 20
35.25
 30
0
 40
1
 50
90
 51
180
  0
ARC
  8
1
 62
7
 10
-88.80000000000001
 20
12.25
 30
0
 40
1
 50
180
 51
270
  0
CIRCLE
  8
1
 62
7
 10
202.3940173953463
 20
0
 30
0
 40
67.74999999999997
  0
CIRCLE
  8
1
 62
7
 10
9
 20
28.25
 30
0
 40
3.449999999999995
  0
CIRCLE
  8
1
 62
7
 10
9
 20
-28.24999999999988
 30
0
 40
3.450000000000005
  0
CIRCLE
  8
1
 62
7
 10
202.3940173953463
 20
0
 30
0
 40
70.99999999999992
  0
CIRCLE
  8
1
 62
7
 10
202.3940173953463
 20
60.5
 30
0
 40
5
  0
CIRCLE
  8
1
 62
7
 10
161.2578107155854
 20
23.75
 30
0
 40
3
  0
CIRCLE
  8
1
 62
7
 10
149.9994804663877
 20
-30.24999999999999
 30
0
 40
5
  0
CIRCLE
  8
1
 62
7
 10
254.7885543243048
 20
-30.25000000000005
 30
0
 40
5
  0
CIRCLE
  8
1
 62
7
 10
202.3940173953463
 20
-47.5
 30
0
 40
3
  0
CIRCLE
  8
1
 62
7
 10
243.5302240751071
 20
23.74999999999996
 30
0
 40
3
  0
CIRCLE
  8
1
 62
7
 10
202.3940173953463
 20
78
 30
0
 40
3.25
  0
CIRCLE
  8
1
 62
7
 10
-273.4981336242534
 20
78
 30
0
 40
3.25
  0
CIRCLE
  8
1
 62
7
 10
-273.4981336242534
 20
0
 30
0
 40
30.75
  0
CIRCLE
  8
1
 62
7
 10
-273.4981336242534
 20
0
 30
0
 40
22.5017783783187
  0
CIRCLE
  8
1
 62
7
 10
243.5302240751071
 20
23.74999999999996
 30
0
 40
12.50000000000003
  0
CIRCLE
  8
1
 62
7
 10
243.5302240751071
 20
23.74999999999996
 30
0
 40
7
  0
CIRCLE
  8
1
 62
7
 10
243.5302240751071
 20
23.74999999999996
 30
0
 40
3
  0
CIRCLE
  8
1
 62
7
 10
161.2578107155854
 20
23.75
 30
0
 40
12.5
  0
CIRCLE
  8
1
 62
7
 10
161.2578107155854
 20
23.75
 30
0
 40
7
  0
CIRCLE
  8
1
 62
7
 10
161.2578107155854
 20
23.75
 30
0
 40
3
  0
CIRCLE
  8
1
 62
7
 10
202.3940173953463
 20
-47.5
 30
0
 40
12.50000000000009
  0
CIRCLE
  8
1
 62
7
 10
202.3940173953463
 20
-47.5
 30
0
 40
7.000000000000085
  0
CIRCLE
  8
1
 62
7
 10
202.3940173953463
 20
-47.5
 30
0
 40
3
  0
CIRCLE
  8
1
 62
7
 10
202.3940173953463
 20
0
 30
0
 40
26
  0
CIRCLE
  8
1
 62
7
 10
202.3940173953463
 20
0
 30
0
 40
21.5
  0
CIRCLE
  8
1
 62
7
 10
219.8940173953463
 20
30.31088913245535
 30
0
 40
3.199999999999989
  0
CIRCLE
  8
1
 62
3
 10
219.8940173953463
 20
30.31088913245535
 30
0
 40
4
  0
CIRCLE
  8
1
 62
7
 10
184.8940173953463
 20
30.31088913245537
 30
0
 40
3.199999999999989
  0
CIRCLE
  8
1
 62
3
 10
184.8940173953463
 20
30.31088913245537
 30
0
 40
4
  0
CIRCLE
  8
1
 62
7
 10
167.3940173953463
 20
1.598721155460225e-014
 30
0
 40
3.199999999999989
  0
CIRCLE
  8
1
 62
3
 10
167.3940173953463
 20
1.598721155460225e-014
 30
0
 40
4
  0
CIRCLE
  8
1
 62
7
 10
184.8940173953462
 20
-30.31088913245534
 30
0
 40
3.200000000000017
  0
CIRCLE
  8
1
 62
3
 10
184.8940173953462
 20
-30.31088913245534
 30
0
 40
4
  0
CIRCLE
  8
1
 62
7
 10
219.8940173953462
 20
-30.31088913245537
 30
0
 40
3.200000000000017
  0
CIRCLE
  8
1
 62
3
 10
219.8940173953462
 20
-30.31088913245537
 30
0
 40
4
  0
CIRCLE
  8
1
 62
7
 10
237.3940173953462
 20
-1.598721155460225e-014
 30
0
 40
3.200000000000017
  0
CIRCLE
  8
1
 62
3
 10
237.3940173953462
 20
-1.598721155460225e-014
 30
0
 40
4
  0
CIRCLE
  8
1
 62
7
 10
202.3940173953463
 20
0
 30
0
 40
12.5
  0
CIRCLE
  8
1
 62
7
 10
202.3940173953463
 20
0
 30
0
 40
16
  0
CIRCLE
  8
1
 62
7
 10
243.5302240751071
 20
23.74999999999996
 30
0
 40
10
  0
CIRCLE
  8
1
 62
7
 10
202.3940173953463
 20
-47.5
 30
0
 40
10
  0
CIRCLE
  8
1
 62
7
 10
161.2578107155854
 20
23.75
 30
0
 40
10
  0
TEXT
  8
1
 62
7
 10
-293.7627129170876
 20
151.0288827287991
 30
0
 40
7.5
  1
TMAC 5
 41
0.9
  7
SIMPLEX
  0
TEXT
  8
1
 62
7
 10
-293.7627129170876
 20
139.7788827287991
 30
0
 40
7.5
  1
DC2104
 41
0.9
  7
SIMPLEX
  0
ENDSEC
  0
EOF
