  0
SECTION
  2
HEADER
  9
$ACADVER
  1
AC1009
  9
$INSBASE
 10
0
 20
0
  9
$EXTMIN
 10
-429.4976800351695
 20
-89.00000000000003
  9
$EXTMAX
 10
339.2976800351694
 20
216.4585053559373
  9
$LIMMIN
 10
-429.4976800351695
 20
-89.00000000000003
  9
$LIMMAX
 10
339.2976800351694
 20
216.4585053559373
  9
$VIEWCTR
 10
10
 20
10
  9
$VIEWSIZE
 40
10
  9
$SNAPMODE
 70
0
  9
$SNAPUNIT
 10
1
 20
1
  9
$SNAPBASE
 10
0
 20
0
  9
$SNAPANG
 50
0
  9
$SNAPSTYLE
 70
0
  9
$SNAPISOPAIR
 70
0
  9
$GRIDMODE
 70
0
  9
$GRIDUNIT
 10
0
 20
0
  9
$ORTHOMODE
 70
0
  9
$REGENMODE
 70
1
  9
$FILLMODE
 70
1
  9
$QTEXTMODE
 70
0
  9
$DRAGMODE
 70
2
  9
$LTSCALE
 40
1
  9
$OSMODE
 70
0
  9
$ATTMODE
 70
1
  9
$TEXTSIZE
 40
3.5
  9
$TRACEWID
 40
0.5
  9
$TEXTSTYLE
  7
STANDARD
  9
$CLAYER
  8
0
  9
$CELTYPE
  6
BYLAYER
  9
$CECOLOR
 62
256
  9
$DIMSCALE
 40
1
  9
$DIMASZ
 40
0.18
  9
$DIMEXO
 40
0.0625
  9
$DIMDLI
 40
0.38
  9
$DIMRND
 40
0
  9
$DIMDLE
 40
0
  9
$DIMEXE
 40
0.18
  9
$DIMTP
 40
0
  9
$DIMTM
 40
0
  9
$DIMTXT
 40
0.18
  9
$DIMCEN
 40
0.09
  9
$DIMTSZ
 40
0
  9
$DIMTOL
 70
0
  9
$DIMLIM
 70
0
  9
$DIMTIH
 70
1
  9
$DIMTOH
 70
1
  9
$DIMSE1
 70
0
  9
$DIMSE2
 70
0
  9
$DIMTAD
 70
0
  9
$DIMZIN
 70
0
  9
$DIMBLK
  1

  9
$DIMASO
 70
1
  9
$DIMSHO
 70
1
  9
$DIMPOST
  1

  9
$DIMAPOST
  1

  9
$DIMALT
 70
0
  9
$DIMALTD
 70
2
  9
$DIMALTF
 40
25.4
  9
$DIMLFAC
 40
1
  9
$DIMTOFL
 70
0
  9
$DIMTVP
 40
0
  9
$DIMTIX
 70
0
  9
$DIMSOXD
 70
0
  9
$DIMSAH
 70
0
  9
$DIMBLK1
  1

  9
$DIMBLK2
  1

  9
$DIMSTYLE
  2
*UNNAMED
  9
$DIMCLRD
 70
0
  9
$DIMCLRE
 70
0
  9
$DIMCLRT
 70
0
  9
$DIMTFAC
 40
1
  9
$DIMGAP
 40
0.09
  9
$LUNITS
 70
2
  9
$LUPREC
 70
4
  9
$AXISMODE
 70
0
  9
$AXISUNIT
 10
0
 20
0
  9
$SKETCHINC
 40
0.1
  9
$FILLETRAD
 40
2
  9
$AUNITS
 70
0
  9
$AUPREC
 70
0
  9
$MENU
  1
ACAD
  9
$ELEVATION
 40
0
  9
$THICKNESS
 40
0
  9
$VIEWDIR
 10
0
 20
0
 30
1
  9
$LIMCHECK
 70
0
  9
$BLIPMODE
 70
1
  9
$CHAMFERA
 40
0
  9
$CHAMFERB
 40
0
  9
$FASTZOOM
 70
1
  9
$SKPOLY
 70
0
  9
$ANGBASE
 50
0
  9
$ANGDIR
 70
0
  9
$PDMODE
 70
0
  9
$PDSIZE
 40
0
  9
$PLINEWID
 40
0
  9
$COORDS
 70
2
  0
ENDSEC
  0
SECTION
  2
TABLES
  0
TABLE
  2
DIMSTYLE
 70
0
  0
ENDTAB
  0
TABLE
  2
LTYPE
 70
9
  0
LTYPE
  2
CONTINUOUS
 70
64
  3
Solid line
 72
65
 73
0
 40
0
  0
LTYPE
  2
BORDER
 70
64
  3
__ __ . __ __ .
 72
65
 73
6
 40
35.40504947692349
 49
10.11572842197814
 49
-5.057864210989071
 49
10.11572842197814
 49
-5.057864210989071
 49
0
 49
-5.057864210989071
  0
LTYPE
  2
CENTER
 70
64
  3
____ _ ____ _
 72
65
 73
4
 40
40.46291368791257
 49
25.28932105494535
 49
-5.057864210989071
 49
5.057864210989071
 49
-5.057864210989071
  0
LTYPE
  2
DASHDOT
 70
64
  3
__ . __ . __ .
 72
65
 73
4
 40
20.23145684395628
 49
10.11572842197814
 49
-5.057864210989071
 49
0
 49
-5.057864210989071
  0
LTYPE
  2
DASHED
 70
64
  3
__ __ __ __ __
 72
65
 73
2
 40
15.17359263296721
 49
10.11572842197814
 49
-5.057864210989071
  0
LTYPE
  2
DIVIDE
 70
64
  3
__ . . __ . . 
 72
65
 73
6
 40
25.28932105494535
 49
10.11572842197814
 49
-5.057864210989071
 49
0
 49
-5.057864210989071
 49
0
 49
-5.057864210989071
  0
LTYPE
  2
DOT
 70
64
  3
..............
 72
65
 73
4
 40
10.11572842197814
 49
0
 49
-5.057864210989071
 49
0
 49
-5.057864210989071
  0
LTYPE
  2
HIDDEN
 70
64
  3
_ _ _ _ _ _ _
 72
65
 73
2
 40
7.586796316483607
 49
5.057864210989071
 49
-2.528932105494536
  0
LTYPE
  2
PHANTOM
 70
64
  3
_____ _ _ _____ _ _ 
 72
65
 73
6
 40
50.57864210989071
 49
25.28932105494535
 49
-5.057864210989071
 49
5.057864210989071
 49
-5.057864210989071
 49
5.057864210989071
 49
-5.057864210989071
  0
ENDTAB
  0
TABLE
  2
LAYER
 70
3
  0
LAYER
  2
1
 70
0
 62
7
  6
CONTINUOUS
  0
LAYER
  2
0
 70
0
 62
7
  6
CONTINUOUS
  0
ENDTAB
  0
TABLE
  2
STYLE
 70
4
  0
STYLE
  2
STANDARD
 70
0
 40
0
 41
1
 50
0
 71
0
 42
3.5
  3
txt
  4

  0
STYLE
  2
SIMPLEX
 70
0
 40
0
 41
1
 50
0
 71
0
 42
3.5
  3
simplex
  4

  0
STYLE
  2
COMPLEX
 70
0
 40
0
 41
1
 50
0
 71
0
 42
3.5
  3
complex
  4

  0
STYLE
  2
ITALIC
 70
0
 40
0
 41
1
 50
0
 71
0
 42
3.5
  3
italic
  4

  0
ENDTAB
  0
TABLE
  2
VIEW
 70
0
  0
ENDTAB
  0
ENDSEC
  0
SECTION
  2
BLOCKS
  0
ENDSEC
  0
SECTION
  2
ENTITIES
  0
POINT
  8
1
 62
7
  6
DOT
 10
250.2976800351695
 20
-15
 30
0
  0
LINE
  8
1
 62
3
  6
DASHDOT
 10
267.5476800351694
 20
-29.87787643056311
 30
0
 11
275.5476800351694
 21
-43.73428289111402
 31
0
  0
LINE
  8
1
 62
3
  6
DASHDOT
 10
233.0476800351695
 20
-29.87787643056308
 30
0
 11
225.0476800351695
 21
-43.73428289111402
 31
0
  0
LINE
  8
1
 62
3
  6
DASHDOT
 10
215.7976800351696
 20
2.540100131599366e-014
 30
0
 11
199.7976800351697
 21
6.71453870418995e-014
 31
0
  0
LINE
  8
1
 62
3
  6
DASHDOT
 10
233.0476800351695
 20
29.87787643056311
 30
0
 11
225.0476800351696
 21
43.73428289111402
 31
0
  0
LINE
  8
1
 62
3
  6
DASHDOT
 10
267.5476800351695
 20
29.87787643056308
 30
0
 11
275.5476800351694
 21
43.73428289111402
 31
0
  0
LINE
  8
1
 62
3
  6
DASHDOT
 10
284.7976800351694
 20
0
 30
0
 11
300.7976800351693
 21
-3.552713678800501e-014
 31
0
  0
LINE
  8
1
 62
3
  6
DASHDOT
 10
-347.7476800351694
 20
100
 30
0
 11
-333.2476800351695
 21
100
 31
0
  0
LINE
  8
1
 62
3
  6
DASHDOT
 10
-340.4976800351694
 20
107.25
 30
0
 11
-340.4976800351695
 21
92.75000000000011
 31
0
  0
LINE
  8
1
 62
3
  6
DASHDOT
 10
-335.4976800351695
 20
0
 30
0
 11
-345.4976800351695
 21
0
 31
0
  0
LINE
  8
1
 62
3
  6
DASHDOT
 10
-340.4976800351695
 20
-5
 30
0
 11
-340.4976800351695
 21
5
 31
0
  0
LINE
  8
1
 62
3
  6
DASHDOT
 10
243.0476800351695
 20
100
 30
0
 11
257.5476800351695
 21
100
 31
0
  0
LINE
  8
1
 62
3
  6
DASHDOT
 10
250.2976800351695
 20
107.25
 30
0
 11
250.2976800351695
 21
92.75
 31
0
  0
LINE
  8
1
 62
3
  6
DASHDOT
 10
255.2976800351695
 20
0
 30
0
 11
245.2976800351695
 21
0
 31
0
  0
LINE
  8
1
 62
3
  6
DASHDOT
 10
250.2976800351695
 20
5
 30
0
 11
250.2976800351695
 21
-5
 31
0
  0
LINE
  8
1
 62
7
 10
71.5
 20
-42.00005853062594
 30
0
 11
70.50003619773349
 21
-42.00003619904383
 31
0
  0
LINE
  8
1
 62
7
 10
38
 20
84.75
 30
0
 11
38
 21
20
 31
0
  0
LINE
  8
1
 62
7
 10
44.40000000000012
 20
84.75
 30
0
 11
44.40000000000012
 21
60
 31
0
  0
LINE
  8
1
 62
7
 10
44.40000000000012
 20
84.75
 30
0
 11
38
 21
84.75
 31
0
  0
LINE
  8
1
 62
7
 10
38
 20
-84.75
 30
0
 11
38
 21
-20
 31
0
  0
LINE
  8
1
 62
7
 10
44.40000000000012
 20
-84.75
 30
0
 11
38
 21
-84.75
 31
0
  0
LINE
  8
1
 62
7
 10
70.5
 20
-45.25000000000004
 30
0
 11
71.30000000000001
 21
-45.25000000000004
 31
0
  0
LINE
  8
1
 62
7
 10
69.5
 20
-43.00003619838869
 30
0
 11
69.5
 21
-44.25000000000004
 31
0
  0
LINE
  8
1
 62
7
 10
67.5
 20
-31.00000000000001
 30
0
 11
67.5
 21
31
 31
0
  0
LINE
  8
1
 62
7
 10
67.5
 20
-20
 30
0
 11
37.5
 21
-20
 31
0
  0
LINE
  8
1
 62
3
  6
DASHDOT
 10
74.5
 20
42.5
 30
0
 11
53.50000000000001
 21
42.5
 31
0
  0
LINE
  8
1
 62
7
 10
56.5
 20
46.5
 30
0
 11
71.5
 21
46.5
 31
0
  0
LINE
  8
1
 62
7
 10
71.5
 20
38.5
 30
0
 11
56.5
 21
38.5
 31
0
  0
LINE
  8
1
 62
3
 10
56.5
 20
47.5
 30
0
 11
71.5
 21
47.5
 31
0
  0
LINE
  8
1
 62
3
 10
71.5
 20
37.5
 30
0
 11
56.5
 21
37.5
 31
0
  0
LINE
  8
1
 62
7
 10
56.5
 20
-45.25000000000001
 30
0
 11
56.5
 21
-20
 31
0
  0
LINE
  8
1
 62
7
 10
56.5
 20
51.50000000000001
 30
0
 11
56.5
 21
20
 31
0
  0
LINE
  8
1
 62
7
 10
0
 20
-15
 30
0
 11
67.5
 21
-15
 31
0
  0
LINE
  8
1
 62
7
 10
37.5
 20
20
 30
0
 11
67.5
 21
20
 31
0
  0
LINE
  8
1
 62
7
 10
67.5
 20
-26.5
 30
0
 11
56.5
 21
-26.5
 31
0
  0
LINE
  8
1
 62
7
 10
71.5
 20
-31.00000000000001
 30
0
 11
67.5
 21
-31.00000000000001
 31
0
  0
LINE
  8
1
 62
7
 10
67.5
 20
26.5
 30
0
 11
56.5
 21
26.5
 31
0
  0
LINE
  8
1
 62
7
 10
71.5
 20
31
 30
0
 11
67.5
 21
31
 31
0
  0
LINE
  8
1
 62
3
  6
DASHDOT
 10
71.5
 20
0
 30
0
 11
76.5
 21
0
 31
0
  0
LINE
  8
1
 62
7
 10
71.5
 20
-42.00005853062594
 30
0
 11
71.5
 21
50.5
 31
0
  0
LINE
  8
1
 62
7
 10
71.30000000000001
 20
-72.75000000000003
 30
0
 11
71.30000000000001
 21
-42.00005406414783
 31
0
  0
LINE
  8
1
 62
7
 10
47.60000000000002
 20
22
 30
0
 11
46.60000000000002
 21
22
 31
0
  0
LINE
  8
1
 62
7
 10
47.60000000000002
 20
38.00000000000001
 30
0
 11
46.60000000000002
 21
38.00000000000001
 31
0
  0
LINE
  8
1
 62
7
 10
47.60000000000002
 20
43.75000000000001
 30
0
 11
47.60000000000002
 21
20
 31
0
  0
LINE
  8
1
 62
7
 10
56.5
 20
44.75000000000001
 30
0
 11
48.60000000000002
 21
44.75000000000001
 31
0
  0
LINE
  8
1
 62
7
 10
57.5
 20
52.49999999999999
 30
0
 11
69.49999999999999
 21
52.5
 31
0
  0
LINE
  8
1
 62
7
 10
48.60000000000002
 20
-45.25000000000001
 30
0
 11
56.5
 21
-45.25000000000001
 31
0
  0
LINE
  8
1
 62
7
 10
66.80000000000001
 20
-74.75000000000003
 30
0
 11
69.30000000000001
 21
-74.75000000000003
 31
0
  0
LINE
  8
1
 62
7
 10
66.30000000000001
 20
-76.00000000000003
 30
0
 11
66.30000000000001
 21
-75.25000000000003
 31
0
  0
LINE
  8
1
 62
7
 10
57
 20
-76.50000000000003
 30
0
 11
65.80000000000001
 21
-76.50000000000003
 31
0
  0
LINE
  8
1
 62
7
 10
56.5
 20
-75.25000000000003
 30
0
 11
56.5
 21
-76.00000000000003
 31
0
  0
LINE
  8
1
 62
7
 10
48.60000000000002
 20
-74.75000000000003
 30
0
 11
56
 21
-74.75000000000003
 31
0
  0
LINE
  8
1
 62
7
 10
47.60000000000002
 20
-73.75000000000003
 30
0
 11
47.60000000000002
 21
-46.25000000000001
 31
0
  0
LINE
  8
1
 62
7
 10
47.60000000000002
 20
-51.99999999999999
 30
0
 11
46.60000000000002
 21
-51.99999999999999
 31
0
  0
LINE
  8
1
 62
7
 10
3
 20
110
 30
0
 11
3
 21
29.00000000000001
 31
0
  0
LINE
  8
1
 62
7
 10
15.70000000000005
 20
125.8757933971991
 30
0
 11
13.2999999999999
 21
125.8757933971991
 31
0
  0
LINE
  8
1
 62
7
 10
15.70000000000005
 20
84.25000000000003
 30
0
 11
15.70000000000005
 21
125.8757933971991
 31
0
  0
LINE
  8
1
 62
7
 10
13.2999999999999
 20
125.8757933971991
 30
0
 11
13.2999999999999
 21
84.25000000000001
 31
0
  0
LINE
  8
1
 62
7
 10
3
 20
-29.00000000000001
 30
0
 11
3
 21
-76.49999999999994
 31
0
  0
LINE
  8
1
 62
7
 10
37.5
 20
-42.00000000000002
 30
0
 11
37.5
 21
-84.50000000000003
 31
0
  0
LINE
  8
1
 62
7
 10
18
 20
-44.24999999999996
 30
0
 11
18
 21
-36.24999999999998
 31
0
  0
LINE
  8
1
 62
7
 10
18
 20
44.25000000000001
 30
0
 11
16
 21
44.25000000000002
 31
0
  0
LINE
  8
1
 62
7
 10
18
 20
44.25000000000001
 30
0
 11
18
 21
37.25000000000002
 31
0
  0
LINE
  8
1
 62
7
 10
16
 20
-30.00000000000001
 30
0
 11
16
 21
-44.24999999999996
 31
0
  0
LINE
  8
1
 62
7
 10
16
 20
-36.24999999999998
 30
0
 11
18
 21
-36.24999999999998
 31
0
  0
LINE
  8
1
 62
7
 10
16
 20
30.00000000000001
 30
0
 11
16
 21
44.25000000000002
 31
0
  0
LINE
  8
1
 62
7
 10
16
 20
37.25000000000002
 30
0
 11
18
 21
37.25000000000002
 31
0
  0
LINE
  8
1
 62
7
 10
16
 20
-44.24999999999996
 30
0
 11
18
 21
-44.24999999999996
 31
0
  0
LINE
  8
1
 62
7
 10
16
 20
44.25000000000002
 30
0
 11
18
 21
44.25000000000001
 31
0
  0
LINE
  8
1
 62
7
 10
3
 20
-29.00000000000001
 30
0
 11
1.75
 21
-29.00000000000001
 31
0
  0
LINE
  8
1
 62
7
 10
28
 20
-42.49999999999996
 30
0
 11
28
 21
-84.24999999999994
 31
0
  0
LINE
  8
1
 62
7
 10
28
 20
-42.49999999999996
 30
0
 11
18
 21
-42.49999999999996
 31
0
  0
LINE
  8
1
 62
7
 10
28
 20
42.50000000000002
 30
0
 11
18
 21
42.50000000000002
 31
0
  0
LINE
  8
1
 62
7
 10
0.5
 20
-30.00000000000001
 30
0
 11
1.75
 21
-30.00000000000001
 31
0
  0
LINE
  8
1
 62
7
 10
1.75
 20
-29.00000000000001
 30
0
 11
1.75
 21
-33.00240473580839
 31
0
  0
LINE
  8
1
 62
7
 10
19.20000000000005
 20
-33.50000000000001
 30
0
 11
16
 21
-33.50000000000001
 31
0
  0
LINE
  8
1
 62
7
 10
19.20000000000005
 20
-41.49999999999999
 30
0
 11
19.20000000000005
 21
-33.50000000000001
 31
0
  0
LINE
  8
1
 62
7
 10
30.70000000000005
 20
-41.49999999999999
 30
0
 11
19.20000000000005
 21
-41.49999999999999
 31
0
  0
LINE
  8
1
 62
7
 10
30.70000000000005
 20
-85.25000000000003
 30
0
 11
30.70000000000005
 21
-41.49999999999999
 31
0
  0
LINE
  8
1
 62
7
 10
19.20000000000005
 20
-85.25000000000003
 30
0
 11
30.70000000000005
 21
-85.25000000000003
 31
0
  0
LINE
  8
1
 62
7
 10
19.20000000000005
 20
-89.00000000000003
 30
0
 11
19.20000000000005
 21
-85.25000000000003
 31
0
  0
LINE
  8
1
 62
7
 10
37.5
 20
37.25000000000001
 30
0
 11
37.5
 21
-37.25000000000001
 31
0
  0
LINE
  8
1
 62
7
 10
32.60192378864662
 20
-89.00000000000003
 30
0
 11
19.20000000000005
 21
-89.00000000000003
 31
0
  0
LINE
  8
1
 62
7
 10
35.20000000000005
 20
-84.50000000000003
 30
0
 11
32.60192378864662
 21
-89.00000000000003
 31
0
  0
LINE
  8
1
 62
7
 10
37.5
 20
-84.50000000000003
 30
0
 11
35.20000000000005
 21
-84.50000000000003
 31
0
  0
LINE
  8
1
 62
7
 10
35.70000000000005
 20
-42.00000000000002
 30
0
 11
37.5
 21
-42.00000000000002
 31
0
  0
LINE
  8
1
 62
7
 10
35.70000000000005
 20
-37.25000000000001
 30
0
 11
35.70000000000005
 21
-42.00000000000002
 31
0
  0
LINE
  8
1
 62
7
 10
16
 20
-39.49759526419162
 30
0
 11
11.375
 21
-39.49759526419168
 31
0
  0
LINE
  8
1
 62
7
 10
3
 20
-39.49759526419162
 30
0
 11
7.625
 21
-39.49759526419168
 31
0
  0
LINE
  8
1
 62
7
 10
1.75
 20
-33.00240473580839
 30
0
 11
7.625
 21
-33.00240473580836
 31
0
  0
LINE
  8
1
 62
7
 10
16
 20
-33.00240473580839
 30
0
 11
11.375
 21
-33.00240473580836
 31
0
  0
LINE
  8
1
 62
7
 10
14.70000000000005
 20
-40.00000000000002
 30
0
 11
14.70000000000005
 21
-32.50000000000001
 31
0
  0
LINE
  8
1
 62
7
 10
4.299999999999898
 20
-40.00000000000002
 30
0
 11
4.299999999999898
 21
-32.50000000000001
 31
0
  0
LINE
  8
1
 62
7
 10
0.09999999999990905
 20
-38.49999999999999
 30
0
 11
0.09999999999990905
 21
-67.49999999999994
 31
0
  0
LINE
  8
1
 62
7
 10
4.299999999999898
 20
32.50000000000001
 30
0
 11
4.299999999999898
 21
40.00000000000001
 31
0
  0
LINE
  8
1
 62
7
 10
14.70000000000005
 20
32.50000000000001
 30
0
 11
14.70000000000005
 21
40.00000000000001
 31
0
  0
LINE
  8
1
 62
7
 10
11.375
 20
33.00240473580836
 30
0
 11
16
 21
33.00240473580838
 31
0
  0
LINE
  8
1
 62
7
 10
7.625
 20
33.00240473580836
 30
0
 11
1.75
 21
33.00240473580838
 31
0
  0
LINE
  8
1
 62
7
 10
7.625
 20
39.49759526419165
 30
0
 11
3
 21
39.49759526419163
 31
0
  0
LINE
  8
1
 62
7
 10
11.375
 20
39.49759526419165
 30
0
 11
16
 21
39.49759526419163
 31
0
  0
LINE
  8
1
 62
7
 10
37.5
 20
84.5
 30
0
 11
37.5
 21
41.99999999999999
 31
0
  0
LINE
  8
1
 62
7
 10
35.20000000000005
 20
84.5
 30
0
 11
37.5
 21
84.5
 31
0
  0
LINE
  8
1
 62
7
 10
32.60192378864662
 20
89
 30
0
 11
35.20000000000005
 21
84.5
 31
0
  0
LINE
  8
1
 62
7
 10
19.20000000000005
 20
89
 30
0
 11
32.60192378864662
 21
89
 31
0
  0
LINE
  8
1
 62
7
 10
19.20000000000005
 20
85.25
 30
0
 11
19.20000000000005
 21
89
 31
0
  0
LINE
  8
1
 62
7
 10
30.70000000000005
 20
85.25
 30
0
 11
19.20000000000005
 21
85.25
 31
0
  0
LINE
  8
1
 62
7
 10
30.70000000000005
 20
41.50000000000001
 30
0
 11
30.70000000000005
 21
85.25
 31
0
  0
LINE
  8
1
 62
7
 10
19.20000000000005
 20
41.50000000000001
 30
0
 11
30.70000000000005
 21
41.50000000000001
 31
0
  0
LINE
  8
1
 62
7
 10
19.20000000000005
 20
33.50000000000001
 30
0
 11
19.20000000000005
 21
41.50000000000001
 31
0
  0
LINE
  8
1
 62
7
 10
16
 20
33.50000000000001
 30
0
 11
19.20000000000005
 21
33.50000000000001
 31
0
  0
LINE
  8
1
 62
7
 10
1.75
 20
29.00000000000001
 30
0
 11
3
 21
29.00000000000001
 31
0
  0
LINE
  8
1
 62
7
 10
1.75
 20
33.00240473580838
 30
0
 11
1.75
 21
29.00000000000001
 31
0
  0
LINE
  8
1
 62
7
 10
1.75
 20
30.00000000000001
 30
0
 11
0.5
 21
30.00000000000001
 31
0
  0
LINE
  8
1
 62
7
 10
9.458085605489117
 20
84.25000000000003
 30
0
 11
28
 21
84.25000000000003
 31
0
  0
LINE
  8
1
 62
7
 10
28
 20
84.25000000000003
 30
0
 11
28
 21
42.50000000000002
 31
0
  0
LINE
  8
1
 62
7
 10
28
 20
-84.24999999999994
 30
0
 11
9.458085605489041
 21
-84.24999999999994
 31
0
  0
LINE
  8
1
 62
7
 10
18
 20
-44.24999999999996
 30
0
 11
16
 21
-44.24999999999996
 31
0
  0
LINE
  8
1
 62
7
 10
0.09999999999990905
 20
110
 30
0
 11
0.09999999999990905
 21
38.50000000000001
 31
0
  0
LINE
  8
1
 62
7
 10
0.09999999999990905
 20
-67.49999999999994
 30
0
 11
3
 21
-67.49999999999994
 31
0
  0
LINE
  8
1
 62
7
 10
0.09999999999990905
 20
-38.49999999999999
 30
0
 11
3
 21
-38.49999999999999
 31
0
  0
LINE
  8
1
 62
7
 10
0.09999999999990905
 20
110
 30
0
 11
3
 21
110
 31
0
  0
LINE
  8
1
 62
7
 10
0.09999999999990905
 20
104.25
 30
0
 11
3.024965615874635
 21
104.25
 31
0
  0
LINE
  8
1
 62
3
  6
DASHDOT
 10
-2.900000000000091
 20
100
 30
0
 11
6.000000000000001
 21
100
 31
0
  0
LINE
  8
1
 62
7
 10
0.09999999999990905
 20
95.75000000000001
 30
0
 11
3.024965615874635
 21
95.75000000000001
 31
0
  0
LINE
  8
1
 62
7
 10
0
 20
18
 30
0
 11
37.5
 21
18
 31
0
  0
LINE
  8
1
 62
7
 10
0
 20
15
 30
0
 11
67.5
 21
15
 31
0
  0
LINE
  8
1
 62
7
 10
45.40000000000012
 20
-49.49999999999999
 30
0
 11
46.60000000000002
 21
-49.49999999999999
 31
0
  0
LINE
  8
1
 62
7
 10
45.40000000000012
 20
-83.99999999999994
 30
0
 11
45.40000000000001
 21
-20
 31
0
  0
LINE
  8
1
 62
7
 10
45.40000000000012
 20
-73.32981656940063
 30
0
 11
46.60000000000002
 21
-73.32981656940063
 31
0
  0
LINE
  8
1
 62
7
 10
46.60000000000002
 20
-20
 30
0
 11
46.60000000000002
 21
-83.99999999999994
 31
0
  0
LINE
  8
1
 62
7
 10
45.40000000000012
 20
-83.99999999999994
 30
0
 11
46.60000000000002
 21
-83.99999999999994
 31
0
  0
LINE
  8
1
 62
7
 10
45.40000000000001
 20
-41.49999999999999
 30
0
 11
38
 21
-41.49999999999999
 31
0
  0
LINE
  8
1
 62
7
 10
44.40000000000012
 20
67
 30
0
 11
45.60000000000002
 21
67
 31
0
  0
LINE
  8
1
 62
7
 10
49.40000000000012
 20
82
 30
0
 11
48.90000000000012
 21
82.5
 31
0
  0
LINE
  8
1
 62
7
 10
48.90000000000012
 20
68.5
 30
0
 11
49.40000000000012
 21
69
 31
0
  0
LINE
  8
1
 62
7
 10
46.60000000000002
 20
82.5
 30
0
 11
46.60000000000002
 21
68.5
 31
0
  0
LINE
  8
1
 62
7
 10
45.60000000000002
 20
68.5
 30
0
 11
48.90000000000012
 21
68.5
 31
0
  0
LINE
  8
1
 62
7
 10
49.40000000000012
 20
69
 30
0
 11
49.40000000000012
 21
82
 31
0
  0
LINE
  8
1
 62
7
 10
45.60000000000002
 20
82.5
 30
0
 11
48.90000000000012
 21
82.5
 31
0
  0
LINE
  8
1
 62
7
 10
44.40000000000012
 20
63.73205080756888
 30
0
 11
45.40000000000012
 21
60
 31
0
  0
LINE
  8
1
 62
7
 10
46.60000000000002
 20
60.15798299710497
 30
0
 11
46.60000000000002
 21
20
 31
0
  0
LINE
  8
1
 62
7
 10
45.60000000000002
 20
63.89003380467385
 30
0
 11
46.60000000000002
 21
60.15798299710497
 31
0
  0
LINE
  8
1
 62
7
 10
45.60000000000002
 20
84
 30
0
 11
45.60000000000002
 21
63.89003380467385
 31
0
  0
LINE
  8
1
 62
7
 10
44.40000000000012
 20
84
 30
0
 11
45.60000000000002
 21
84
 31
0
  0
LINE
  8
1
 62
7
 10
45.40000000000012
 20
60
 30
0
 11
45.40000000000001
 21
20
 31
0
  0
LINE
  8
1
 62
7
 10
44.40000000000012
 20
60
 30
0
 11
45.40000000000012
 21
60
 31
0
  0
LINE
  8
1
 62
7
 10
38
 20
41.50000000000001
 30
0
 11
45.40000000000001
 21
41.50000000000001
 31
0
  0
LINE
  8
1
 62
7
 10
3
 20
42.50000000000001
 30
0
 11
16
 21
42.50000000000002
 31
0
  0
LINE
  8
1
 62
7
 10
3
 20
30.00000000000001
 30
0
 11
16
 21
30.00000000000001
 31
0
  0
LINE
  8
1
 62
7
 10
35.70000000000005
 20
-37.25000000000001
 30
0
 11
37.5
 21
-37.25000000000001
 31
0
  0
LINE
  8
1
 62
7
 10
37.5
 20
41.99999999999999
 30
0
 11
35.70000000000005
 21
42.00000000000002
 31
0
  0
LINE
  8
1
 62
7
 10
35.70000000000005
 20
42.00000000000002
 30
0
 11
35.70000000000005
 21
37.25000000000001
 31
0
  0
LINE
  8
1
 62
7
 10
37.5
 20
37.25000000000001
 30
0
 11
35.70000000000005
 21
37.25000000000001
 31
0
  0
LINE
  8
1
 62
7
 10
3
 20
-30.00000000000001
 30
0
 11
16
 21
-30.00000000000001
 31
0
  0
LINE
  8
1
 62
7
 10
16
 20
-42.49999999999996
 30
0
 11
3
 21
-42.50000000000002
 31
0
  0
LINE
  8
1
 62
3
  6
DASHDOT
 10
0
 20
0
 30
0
 11
-4.999999999999999
 21
0
 31
0
  0
LINE
  8
1
 62
7
 10
0
 20
-29.50000000000001
 30
0
 11
0
 21
29.50000000000001
 31
0
  0
LINE
  8
1
 62
7
 10
0
 20
-29.50000000000001
 30
0
 11
0.5
 21
-30.00000000000001
 31
0
  0
LINE
  8
1
 62
7
 10
0.5
 20
30.00000000000001
 30
0
 11
0
 21
29.50000000000001
 31
0
  0
LINE
  8
1
 62
7
 10
0
 20
-29.50000000000001
 30
0
 11
0
 21
29.50000000000001
 31
0
  0
LINE
  8
1
 62
7
 10
0.09999999999990905
 20
38.50000000000001
 30
0
 11
3
 21
38.50000000000001
 31
0
  0
LINE
  8
1
 62
7
 10
14
 20
125.8757933971991
 30
0
 11
14
 21
128.8757933971991
 31
0
  0
LINE
  8
1
 62
7
 10
15
 20
128.8757933971991
 30
0
 11
15
 21
125.8757933971991
 31
0
  0
LINE
  8
1
 62
7
 10
14.5
 20
128.8757933971991
 30
0
 11
14.5
 21
125.8757933971991
 31
0
  0
LINE
  8
1
 62
7
 10
45.40000000000012
 20
-60.00000000000001
 30
0
 11
44.40000000000012
 21
-60.00000000000001
 31
0
  0
LINE
  8
1
 62
7
 10
44.40000000000012
 20
-60.00000000000001
 30
0
 11
44.40000000000012
 21
-84.75
 31
0
  0
LINE
  8
1
 62
7
 10
46.60000000000002
 20
-68.00000000000003
 30
0
 11
47.60000000000002
 21
-68.00000000000003
 31
0
  0
LINE
  8
1
 62
7
 10
-90
 20
-42.00005696540216
 30
0
 11
-90.99996380226651
 21
-42.00003619904383
 31
0
  0
LINE
  8
1
 62
7
 10
-352.4976800351695
 20
108
 30
0
 11
-352.4976800351695
 21
72.80281587960728
 31
0
  0
LINE
  8
1
 62
7
 10
-330.4976800351695
 20
110
 30
0
 11
-350.4976800351695
 21
110
 31
0
  0
LINE
  8
1
 62
7
 10
-328.4976800351695
 20
108
 30
0
 11
-328.4976800351695
 21
72.80281587960728
 31
0
  0
LINE
  8
1
 62
7
 10
-150.5
 20
84.25000000000003
 30
0
 11
-142.3
 21
84.25000000000003
 31
0
  0
LINE
  8
1
 62
7
 10
-150.5
 20
-84.24999999999994
 30
0
 11
-142.3
 21
-84.24999999999994
 31
0
  0
LINE
  8
1
 62
7
 10
-161.4000000000002
 20
29.5999999999998
 30
0
 11
-161.5
 21
29.50000000000001
 31
0
  0
LINE
  8
1
 62
7
 10
-128.8980762113535
 20
-89.00000000000003
 30
0
 11
-128.8980762113535
 21
89
 31
0
  0
LINE
  8
1
 62
7
 10
-126.3
 20
84.5
 30
0
 11
-126.3
 21
-84.50000000000003
 31
0
  0
LINE
  8
1
 62
7
 10
-363.532575049294
 20
85.96739853972704
 30
0
 11
-374.5185433626635
 21
126.9675904555641
 31
0
  0
LINE
  8
1
 62
7
 10
-377.2419019885232
 20
132.1557536060065
 30
0
 11
-375.754857077303
 21
126.636321194135
 31
0
  0
LINE
  8
1
 62
7
 10
-374.7709292905171
 20
132.8658032318703
 30
0
 11
-373.2737983298067
 21
127.3011188819007
 31
0
  0
LINE
  8
1
 62
7
 10
-376.9333579283863
 20
126.3205428428078
 30
0
 11
-372.1037287969408
 21
127.6146380683204
 31
0
  0
LINE
  8
1
 62
7
 10
-365.9383000742858
 20
85.28642829914571
 30
0
 11
-376.9333579283863
 21
126.3205428428078
 31
0
  0
LINE
  8
1
 62
7
 10
-361.1086709428404
 20
86.58052352465833
 30
0
 11
-372.1037287969408
 21
127.6146380683204
 31
0
  0
LINE
  8
1
 62
7
 10
-343.9976800351695
 20
18
 30
0
 11
-336.9976800351695
 21
18
 31
0
  0
LINE
  8
1
 62
7
 10
-343.9976800351695
 20
14.58595214581481
 30
0
 11
-343.9976800351695
 21
18
 31
0
  0
LINE
  8
1
 62
7
 10
-336.9976800351695
 20
14.58595214581482
 30
0
 11
-336.9976800351695
 21
18
 31
0
  0
LINE
  8
1
 62
7
 10
-376.179478366074
 20
126.5225442627197
 30
0
 11
-377.6502022804017
 21
132.0113606348976
 31
0
  0
LINE
  8
1
 62
7
 10
-375.1911466218309
 20
126.7873669554437
 30
0
 11
-376.6694753283458
 21
132.3045647984453
 31
0
  0
LINE
  8
1
 62
7
 10
-373.7635563245907
 20
127.1698886227117
 30
0
 11
-375.2232072048618
 21
132.6173798691964
 31
0
  0
LINE
  8
1
 62
7
 10
-372.8850392185967
 20
127.4052865717997
 30
0
 11
-374.3832316774302
 21
132.9966169476828
 31
0
  0
LINE
  8
1
 62
3
 10
-161.5
 20
0
 30
0
 11
-166.5
 21
0
 31
0
  0
LINE
  8
1
 62
7
 10
-161.4000000000002
 20
110
 30
0
 11
-158.5
 21
110
 31
0
  0
LINE
  8
1
 62
7
 10
-161.4000000000002
 20
-67.49999999999994
 30
0
 11
-158.5
 21
-67.49999999999994
 31
0
  0
LINE
  8
1
 62
7
 10
-161.4000000000002
 20
110
 30
0
 11
-161.4000000000002
 21
-67.49999999999994
 31
0
  0
LINE
  8
1
 62
7
 10
-142.3
 20
89
 30
0
 11
-128.8980762113535
 21
89
 31
0
  0
LINE
  8
1
 62
7
 10
-128.8980762113535
 20
89
 30
0
 11
-126.3
 21
84.5
 31
0
  0
LINE
  8
1
 62
7
 10
-126.3
 20
84.5
 30
0
 11
-124
 21
84.5
 31
0
  0
LINE
  8
1
 62
7
 10
-124
 20
84.5
 30
0
 11
-124
 21
-84.50000000000003
 31
0
  0
LINE
  8
1
 62
7
 10
-124
 20
-84.50000000000003
 30
0
 11
-126.3
 21
-84.50000000000003
 31
0
  0
LINE
  8
1
 62
7
 10
-126.3
 20
-84.50000000000003
 30
0
 11
-128.8980762113535
 21
-89.00000000000003
 31
0
  0
LINE
  8
1
 62
7
 10
-128.8980762113535
 20
-89.00000000000003
 30
0
 11
-142.3
 21
-89.00000000000003
 31
0
  0
LINE
  8
1
 62
7
 10
-142.3
 20
-89.00000000000003
 30
0
 11
-142.3
 21
89
 31
0
  0
LINE
  8
1
 62
7
 10
-158.5
 20
-76.49999999999994
 30
0
 11
-158.5
 21
110
 31
0
  0
LINE
  8
1
 62
7
 10
-148.2000000000002
 20
125.8757933971991
 30
0
 11
-148.2000000000002
 21
84.25000000000003
 31
0
  0
LINE
  8
1
 62
7
 10
-145.8000000000001
 20
84.25000000000003
 30
0
 11
-145.8000000000001
 21
125.8757933971991
 31
0
  0
LINE
  8
1
 62
7
 10
-147.0000000000002
 20
128.8757933971991
 30
0
 11
-147.0000000000002
 21
125.8757933971991
 31
0
  0
LINE
  8
1
 62
7
 10
-146.5000000000002
 20
128.8757933971991
 30
0
 11
-146.5000000000002
 21
125.8757933971991
 31
0
  0
LINE
  8
1
 62
7
 10
-145.8000000000001
 20
125.8757933971991
 30
0
 11
-148.2000000000002
 21
125.8757933971991
 31
0
  0
LINE
  8
1
 62
7
 10
-147.5000000000002
 20
125.8757933971991
 30
0
 11
-147.5000000000002
 21
128.8757933971991
 31
0
  0
LINE
  8
1
 62
7
 10
284.3185433626634
 20
126.9675904555641
 30
0
 11
273.3325750492938
 21
85.96739853972704
 31
0
  0
LINE
  8
1
 62
7
 10
285.5548570773027
 20
126.636321194135
 30
0
 11
287.041901988523
 21
132.1557536060065
 31
0
  0
LINE
  8
1
 62
7
 10
283.0737983298066
 20
127.3011188819007
 30
0
 11
284.5709292905169
 21
132.8658032318703
 31
0
  0
LINE
  8
1
 62
7
 10
281.9037287969407
 20
127.6146380683204
 30
0
 11
286.7333579283861
 21
126.3205428428078
 31
0
  0
LINE
  8
1
 62
7
 10
286.7333579283861
 20
126.3205428428078
 30
0
 11
275.7383000742856
 21
85.28642829914571
 31
0
  0
LINE
  8
1
 62
7
 10
281.9037287969407
 20
127.6146380683204
 30
0
 11
270.9086709428403
 21
86.58052352465833
 31
0
  0
LINE
  8
1
 62
7
 10
262.2976800351695
 20
88.18730067305609
 30
0
 11
262.2976800351694
 21
108
 31
0
  0
LINE
  8
1
 62
7
 10
238.2976800351695
 20
88.18730067305609
 30
0
 11
238.2976800351695
 21
108
 31
0
  0
LINE
  8
1
 62
7
 10
287.4502022804016
 20
132.0113606348976
 30
0
 11
285.9794783660739
 21
126.5225442627197
 31
0
  0
LINE
  8
1
 62
7
 10
286.4694753283457
 20
132.3045647984453
 30
0
 11
284.9911466218307
 21
126.7873669554437
 31
0
  0
LINE
  8
1
 62
7
 10
285.0232072048616
 20
132.6173798691964
 30
0
 11
283.5635563245905
 21
127.1698886227117
 31
0
  0
LINE
  8
1
 62
7
 10
284.18323167743
 20
132.9966169476828
 30
0
 11
282.6850392185965
 21
127.4052865717997
 31
0
  0
LINE
  8
1
 62
7
 10
260.2976800351694
 20
110
 30
0
 11
240.2976800351695
 21
110
 31
0
  0
LINE
  8
1
 62
7
 10
-161.5
 20
-29.50000000000001
 30
0
 11
-161.5
 21
29.50000000000001
 31
0
  0
LINE
  8
1
 62
7
 10
-161.5
 20
-29.50000000000001
 30
0
 11
-161.4000000000002
 21
-29.5999999999998
 31
0
  0
LINE
  8
1
 62
7
 10
-161.5
 20
-29.50000000000001
 30
0
 11
-161.5
 21
29.50000000000001
 31
0
  0
LINE
  8
1
 62
3
 10
-164.4000000000001
 20
100
 30
0
 11
-155.5
 21
100
 31
0
  0
LINE
  8
1
 62
7
 10
308.3145330566439
 20
35.22809651705213
 30
0
 11
304.7205124069021
 21
33.15308772745063
 31
0
  0
LINE
  8
1
 62
7
 10
298.2978961175695
 20
29.44498848390278
 30
0
 11
294.7038754678277
 21
27.36997969430129
 31
0
  0
LINE
  8
1
 62
7
 10
296.2038754678277
 20
24.77190348294791
 30
0
 11
299.7978961175695
 21
26.84691227254941
 31
0
  0
LINE
  8
1
 62
7
 10
309.8145330566439
 20
32.63002030569876
 30
0
 11
306.2205124069021
 21
30.55501151609726
 31
0
  0
LINE
  8
1
 62
7
 10
190.780827013695
 20
32.63002030569881
 30
0
 11
194.3748476634368
 21
30.55501151609726
 31
0
  0
LINE
  8
1
 62
7
 10
200.7974639527694
 20
26.84691227254947
 30
0
 11
204.3914846025112
 21
24.77190348294797
 31
0
  0
LINE
  8
1
 62
7
 10
205.8914846025112
 20
27.36997969430129
 30
0
 11
202.2974639527694
 21
29.44498848390284
 31
0
  0
LINE
  8
1
 62
7
 10
192.2808270136951
 20
35.22809651705219
 30
0
 11
195.8748476634369
 21
33.15308772745063
 31
0
  0
LINE
  8
1
 62
7
 10
251.7976800351695
 20
-67.85811682275084
 30
0
 11
251.7976800351695
 21
-63.70809924354784
 31
0
  0
LINE
  8
1
 62
7
 10
251.7976800351695
 20
-56.29190075645219
 30
0
 11
251.7976800351695
 21
-52.14188317724916
 31
0
  0
LINE
  8
1
 62
7
 10
248.7976800351694
 20
-52.14188317724916
 30
0
 11
248.7976800351694
 21
-56.29190075645219
 31
0
  0
LINE
  8
1
 62
7
 10
248.7976800351694
 20
-67.85811682275084
 30
0
 11
248.7976800351694
 21
-63.70809924354784
 31
0
  0
LINE
  8
1
 62
7
 10
-117.0999999999999
 20
60
 30
0
 11
-116.0999999999999
 21
60
 31
0
  0
LINE
  8
1
 62
7
 10
-117.0999999999999
 20
84
 30
0
 11
-115.9
 21
84
 31
0
  0
LINE
  8
1
 62
7
 10
-115.9
 20
63.89003380467385
 30
0
 11
-114.9
 21
60.15798299710497
 31
0
  0
LINE
  8
1
 62
7
 10
-117.0999999999999
 20
63.73205080756888
 30
0
 11
-116.0999999999999
 21
60
 31
0
  0
LINE
  8
1
 62
7
 10
-115.9
 20
63.89003380467385
 30
0
 11
-115.9
 21
84
 31
0
  0
LINE
  8
1
 62
7
 10
-115.9
 20
82.5
 30
0
 11
-112.5999999999999
 21
82.5
 31
0
  0
LINE
  8
1
 62
7
 10
-112.0999999999999
 20
69
 30
0
 11
-112.0999999999999
 21
82
 31
0
  0
LINE
  8
1
 62
7
 10
-115.9
 20
68.5
 30
0
 11
-112.5999999999999
 21
68.5
 31
0
  0
LINE
  8
1
 62
7
 10
-114.9
 20
82.5
 30
0
 11
-114.9
 21
68.5
 31
0
  0
LINE
  8
1
 62
7
 10
-112.5999999999999
 20
68.5
 30
0
 11
-112.0999999999999
 21
69
 31
0
  0
LINE
  8
1
 62
7
 10
-112.0999999999999
 20
82
 30
0
 11
-112.5999999999999
 21
82.5
 31
0
  0
LINE
  8
1
 62
7
 10
-116.0999999999999
 20
-83.99999999999994
 30
0
 11
-114.9
 21
-83.99999999999994
 31
0
  0
LINE
  8
1
 62
7
 10
-114.9
 20
-51.99999999999999
 30
0
 11
-113.9
 21
-51.99999999999999
 31
0
  0
LINE
  8
1
 62
7
 10
-113.9
 20
-68.00000000000003
 30
0
 11
-114.9
 21
-68.00000000000003
 31
0
  0
LINE
  8
1
 62
7
 10
-112.9
 20
-74.75000000000003
 30
0
 11
-105.5
 21
-74.75000000000003
 31
0
  0
LINE
  8
1
 62
7
 10
-104.5
 20
-76.50000000000003
 30
0
 11
-95.69999999999999
 21
-76.50000000000003
 31
0
  0
LINE
  8
1
 62
7
 10
-95.19999999999999
 20
-76.00000000000003
 30
0
 11
-95.19999999999999
 21
-75.25000000000003
 31
0
  0
LINE
  8
1
 62
7
 10
-94.69999999999999
 20
-74.75000000000003
 30
0
 11
-92.19999999999999
 21
-74.75000000000003
 31
0
  0
LINE
  8
1
 62
7
 10
-112.9
 20
-45.25000000000001
 30
0
 11
-105
 21
-45.25000000000001
 31
0
  0
LINE
  8
1
 62
7
 10
-104
 20
52.49999999999999
 30
0
 11
-92
 21
52.5
 31
0
  0
LINE
  8
1
 62
7
 10
-105
 20
44.75000000000001
 30
0
 11
-112.9
 21
44.75000000000001
 31
0
  0
LINE
  8
1
 62
7
 10
-113.9
 20
38.00000000000001
 30
0
 11
-114.9
 21
38.00000000000001
 31
0
  0
LINE
  8
1
 62
7
 10
-113.9
 20
22
 30
0
 11
-114.9
 21
22
 31
0
  0
LINE
  8
1
 62
7
 10
-90.19999999999999
 20
-72.75000000000003
 30
0
 11
-90.19999999999999
 21
-42.00004658222299
 31
0
  0
LINE
  8
1
 62
7
 10
-90
 20
-42.00005696540216
 30
0
 11
-90
 21
50.5
 31
0
  0
LINE
  8
1
 62
3
  6
DASHDOT
 10
-90
 20
0
 30
0
 11
-85
 21
0
 31
0
  0
LINE
  8
1
 62
7
 10
-117.0999999999999
 20
-60.00000000000001
 30
0
 11
-116.0999999999999
 21
-60.00000000000001
 31
0
  0
LINE
  8
1
 62
7
 10
-113.9
 20
-46.25000000000001
 30
0
 11
-113.9
 21
-73.75000000000003
 31
0
  0
LINE
  8
1
 62
7
 10
-114.9
 20
-83.99999999999994
 30
0
 11
-114.9
 21
60.15798299710497
 31
0
  0
LINE
  8
1
 62
7
 10
-113.9
 20
43.75000000000001
 30
0
 11
-113.9
 21
16.25
 31
0
  0
LINE
  8
1
 62
7
 10
-105
 20
15.25
 30
0
 11
-112.9
 21
15.25
 31
0
  0
LINE
  8
1
 62
7
 10
-105
 20
-20
 30
0
 11
-114.9
 21
-20
 31
0
  0
LINE
  8
1
 62
7
 10
-116.0999999999999
 20
-83.99999999999994
 30
0
 11
-116.0999999999999
 21
60
 31
0
  0
LINE
  8
1
 62
7
 10
-105
 20
51.50000000000001
 30
0
 11
-105
 21
-76.00000000000003
 31
0
  0
LINE
  8
1
 62
7
 10
-91
 20
-45.25000000000004
 30
0
 11
-90.19999999999999
 21
-45.25000000000004
 31
0
  0
LINE
  8
1
 62
7
 10
-92
 20
-43.00003619838869
 30
0
 11
-92
 21
-44.25000000000004
 31
0
  0
LINE
  8
1
 62
7
 10
-117.0999999999999
 20
84.75
 30
0
 11
-123.5
 21
84.75
 31
0
  0
LINE
  8
1
 62
7
 10
-117.0999999999999
 20
84.75
 30
0
 11
-117.0999999999999
 21
-84.75
 31
0
  0
LINE
  8
1
 62
7
 10
-123.5
 20
84.75
 30
0
 11
-123.5
 21
-84.75
 31
0
  0
LINE
  8
1
 62
7
 10
-117.0999999999999
 20
-84.75
 30
0
 11
-123.5
 21
-84.75
 31
0
  0
ARC
  8
1
 62
7
 10
-340.4976800351695
 20
0
 30
0
 40
84.24999999999993
 50
98.18867159765401
 51
81.81132840234601
  0
ARC
  8
1
 62
3
  6
DASHDOT
 10
250.2976800351695
 20
0
 30
0
 40
42.49999999999987
 50
284.9999999999999
 51
314.9999999999999
  0
ARC
  8
1
 62
3
  6
DASHDOT
 10
250.2976800351695
 20
0
 30
0
 40
42.49999999999988
 50
225
 51
255
  0
ARC
  8
1
 62
3
  6
DASHDOT
 10
250.2976800351695
 20
0
 30
0
 40
42.49999999999989
 50
165
 51
194.9999999999999
  0
ARC
  8
1
 62
3
  6
DASHDOT
 10
250.2976800351695
 20
0
 30
0
 40
42.49999999999988
 50
105
 51
135
  0
ARC
  8
1
 62
3
  6
DASHDOT
 10
250.2976800351695
 20
0
 30
0
 40
42.49999999999991
 50
44.99999999999995
 51
75.00000000000001
  0
ARC
  8
1
 62
3
  6
DASHDOT
 10
250.2976800351695
 20
0
 30
0
 40
42.49999999999991
 50
345
 51
14.99999999999999
  0
ARC
  8
1
 62
7
 10
70.5
 20
-44.25000000000004
 30
0
 40
1
 50
180
 51
270
  0
ARC
  8
1
 62
7
 10
70.5
 20
-43.00003619838869
 30
0
 40
1.000000000000003
 50
89.99792602264245
 51
180
  0
ARC
  8
1
 62
7
 10
69.5
 20
50.5
 30
0
 40
2
 50
0
 51
90
  0
ARC
  8
1
 62
7
 10
66.80000000000001
 20
-75.25000000000003
 30
0
 40
0.5
 50
90
 51
180
  0
ARC
  8
1
 62
7
 10
56
 20
-75.25000000000003
 30
0
 40
0.5
 50
0
 51
90
  0
ARC
  8
1
 62
7
 10
65.80000000000001
 20
-76.00000000000003
 30
0
 40
0.5
 50
270
 51
0
  0
ARC
  8
1
 62
7
 10
57
 20
-76.00000000000003
 30
0
 40
0.5
 50
180
 51
270
  0
ARC
  8
1
 62
7
 10
48.60000000000002
 20
-73.75000000000003
 30
0
 40
1
 50
180
 51
270
  0
ARC
  8
1
 62
7
 10
48.60000000000002
 20
-46.25000000000001
 30
0
 40
1
 50
90
 51
180
  0
ARC
  8
1
 62
7
 10
57.5
 20
51.50000000000001
 30
0
 40
0.9999999999999858
 50
90
 51
180
  0
ARC
  8
1
 62
7
 10
48.60000000000002
 20
43.75000000000001
 30
0
 40
1
 50
90
 51
180
  0
ARC
  8
1
 62
7
 10
10.9392234751942
 20
76.45000000000002
 30
0
 40
7.939380919761608
 50
100.7518547405158
 51
179.6391648238306
  0
ARC
  8
1
 62
7
 10
69.30000000000001
 20
-72.75000000000003
 30
0
 40
2
 50
270
 51
0
  0
ARC
  8
1
 62
7
 10
11
 20
50.00000000000001
 30
0
 40
8
 50
180
 51
249.6358651936816
  0
ARC
  8
1
 62
7
 10
11
 20
-49.99999999999996
 30
0
 40
8.00000000000003
 50
110.3641348063184
 51
180
  0
ARC
  8
1
 62
7
 10
10.9392234751942
 20
-76.44999999999995
 30
0
 40
7.939380919761608
 50
180.3608351761694
 51
259.2481452594837
  0
ARC
  8
1
 62
7
 10
198.3361558081031
 20
30.00000000000001
 30
0
 40
18.00000000000003
 50
60.98481970206385
 51
123.2155729085944
  0
ARC
  8
1
 62
7
 10
250.2976800351695
 20
0
 30
0
 40
76.50000000000013
 50
143.9133868921603
 51
156.0866131078398
  0
ARC
  8
1
 62
7
 10
250.2976800351695
 20
-60.00000000000001
 30
0
 40
17.99999999999997
 50
180.9848197020638
 51
243.2155729085941
  0
ARC
  8
1
 62
7
 10
250.2976800351695
 20
0
 30
0
 40
76.49999999999996
 50
263.9133868921602
 51
276.0866131078398
  0
ARC
  8
1
 62
7
 10
302.2592042622358
 20
30
 30
0
 40
17.99999999999992
 50
300.9848197020637
 51
3.215572908593312
  0
ARC
  8
1
 62
7
 10
250.2976800351695
 20
0
 30
0
 40
76.4999999999999
 50
23.91338689215999
 51
36.08661310783997
  0
ARC
  8
1
 62
7
 10
-340.4976800351695
 20
0
 30
0
 40
88.99999999999999
 50
97.74887419236507
 51
82.25112580763494
  0
ARC
  8
1
 62
7
 10
-340.4976800351695
 20
0
 30
0
 40
67.49999999999997
 50
105.3610502180117
 51
74.63894978198823
  0
ARC
  8
1
 62
7
 10
-340.4976800351695
 20
0
 30
0
 40
14.99999999999999
 50
103.4933988215517
 51
76.50660117844831
  0
ARC
  8
1
 62
7
 10
338.6322712211822
 20
50.99999999999997
 30
0
 40
28.67018343059928
 50
230.0748520480451
 51
232.6998381686428
  0
ARC
  8
1
 62
7
 10
297.2976800351694
 20
-3.552713678800501e-014
 30
0
 40
37
 50
359.9999999999999
 51
49.64006324378029
  0
ARC
  8
1
 62
7
 10
269.315501813501
 20
40.78385041664926
 30
0
 40
21.99999999999994
 50
9.932990929466421
 51
65.00000000000023
  0
ARC
  8
1
 62
7
 10
273.7976800351695
 20
40.70319397786863
 30
0
 40
37.00000000000004
 50
10.35993675621942
 51
60.00000000000001
  0
ARC
  8
1
 62
7
 10
250.2976800351694
 20
-102
 30
0
 40
28.67018343059933
 50
110.0748520480448
 51
112.6998381686425
  0
ARC
  8
1
 62
7
 10
226.7976800351694
 20
-40.7031939778686
 30
0
 40
37.00000000000002
 50
240
 51
289.6400632437806
  0
ARC
  8
1
 62
7
 10
250.2976800351695
 20
0
 30
0
 40
66.99999999999994
 50
304.9999999999999
 51
354.9999999999999
  0
ARC
  8
1
 62
7
 10
250.2976800351695
 20
0
 30
0
 40
84
 50
299.9999999999998
 51
359.9999999999999
  0
ARC
  8
1
 62
7
 10
276.1086196709665
 20
-36.86184199300462
 30
0
 40
22.00000000000001
 50
249.9329909294664
 51
304.9999999999996
  0
ARC
  8
1
 62
7
 10
273.7976800351695
 20
-40.7031939778686
 30
0
 40
37.00000000000002
 50
250.3599367562194
 51
299.9999999999997
  0
ARC
  8
1
 62
7
 10
203.2976800351695
 20
-1.4210854715202e-014
 30
0
 40
37.00000000000006
 50
130.3599367562195
 51
180
  0
ARC
  8
1
 62
7
 10
205.4689186210409
 20
-3.922008423644627
 30
0
 40
22
 50
129.9329909294662
 51
185.0000000000001
  0
ARC
  8
1
 62
7
 10
250.2976800351695
 20
0
 30
0
 40
84.00000000000009
 50
180
 51
239.9999999999999
  0
ARC
  8
1
 62
7
 10
250.2976800351695
 20
0
 30
0
 40
67.00000000000006
 50
185.0000000000001
 51
234.9999999999999
  0
ARC
  8
1
 62
7
 10
250.2976800351695
 20
0
 30
0
 40
66.99999999999997
 50
65.00000000000007
 51
115
  0
ARC
  8
1
 62
7
 10
250.2976800351695
 20
0
 30
0
 40
84.00000000000001
 50
60.00000000000001
 51
120
  0
ARC
  8
1
 62
7
 10
226.7976800351695
 20
40.70319397786863
 30
0
 40
37
 50
120
 51
169.6400632437806
  0
ARC
  8
1
 62
7
 10
161.9630888491567
 20
51
 30
0
 40
28.67018343059942
 50
350.0748520480449
 51
352.6998381686426
  0
ARC
  8
1
 62
7
 10
240.2976800351695
 20
108
 30
0
 40
2
 50
90
 51
180
  0
ARC
  8
1
 62
7
 10
260.2976800351694
 20
108
 30
0
 40
2
 50
0
 51
90
  0
ARC
  8
1
 62
7
 10
302.2592042622358
 20
30
 30
0
 40
18.00000000000008
 50
56.78442709140634
 51
119.015180297936
  0
ARC
  8
1
 62
7
 10
302.2592042622358
 20
30
 30
0
 40
18.0000000000001
 50
179.0718506550212
 51
240.9281493449788
  0
ARC
  8
1
 62
7
 10
198.3361558081031
 20
30.00000000000001
 30
0
 40
17.99999999999992
 50
176.7844270914057
 51
239.0151802979362
  0
ARC
  8
1
 62
7
 10
198.3361558081031
 20
30.00000000000001
 30
0
 40
18
 50
299.0718506550215
 51
0.9281493449788197
  0
ARC
  8
1
 62
7
 10
250.2976800351695
 20
-60.00000000000001
 30
0
 40
17.99999999999993
 50
296.7844270914057
 51
359.0151802979362
  0
ARC
  8
1
 62
7
 10
250.2976800351695
 20
-60.00000000000001
 30
0
 40
17.99999999999999
 50
59.07185065502124
 51
120.9281493449788
  0
ARC
  8
1
 62
7
 10
250.2976800351695
 20
0
 30
0
 40
52.50000000000001
 50
302.4327256809173
 51
357.5672743190827
  0
ARC
  8
1
 62
7
 10
250.2976800351695
 20
0
 30
0
 40
52.5
 50
180
 51
237.5672743190828
  0
ARC
  8
1
 62
7
 10
250.2976800351695
 20
0
 30
0
 40
52.50000000000001
 50
62.43272568091731
 51
117.5672743190826
  0
ARC
  8
1
 62
7
 10
338.6322712211822
 20
50.99999999999997
 30
0
 40
28.67018343059928
 50
187.3001618313574
 51
189.925147951955
  0
ARC
  8
1
 62
7
 10
295.126441449298
 20
-3.922008423644641
 30
0
 40
22.00000000000012
 50
354.9999999999998
 51
50.06700907053349
  0
ARC
  8
1
 62
7
 10
250.2976800351695
 20
0
 30
0
 40
60.00000000000001
 50
287.7943629479917
 51
12.20563705200834
  0
ARC
  8
1
 62
7
 10
250.2976800351694
 20
-102
 30
0
 40
28.6701834305994
 50
67.30016183135743
 51
69.92514795195504
  0
ARC
  8
1
 62
7
 10
250.2976800351695
 20
0
 30
0
 40
60.00000000000003
 50
167.7943629479916
 51
252.2056370520083
  0
ARC
  8
1
 62
7
 10
224.4867403993724
 20
-36.86184199300461
 30
0
 40
22
 50
234.9999999999998
 51
290.0670090705335
  0
ARC
  8
1
 62
7
 10
231.279858256838
 20
40.78385041664926
 30
0
 40
22
 50
115
 51
170.0670090705336
  0
ARC
  8
1
 62
7
 10
250.2976800351695
 20
0
 30
0
 40
59.99999999999996
 50
47.79436294799174
 51
132.2056370520083
  0
ARC
  8
1
 62
7
 10
161.9630888491567
 20
51
 30
0
 40
28.67018343059937
 50
307.3001618313574
 51
309.9251479519554
  0
ARC
  8
1
 62
7
 10
-92.19999999999999
 20
-72.75000000000003
 30
0
 40
2
 50
270
 51
0
  0
ARC
  8
1
 62
7
 10
-330.4976800351695
 20
108
 30
0
 40
2
 50
0
 51
90
  0
ARC
  8
1
 62
7
 10
-350.4976800351695
 20
108
 30
0
 40
2
 50
90
 51
180
  0
ARC
  8
1
 62
7
 10
-320.4976800351695
 20
72.80281587960728
 30
0
 40
8
 50
180
 51
254.6389497819882
  0
ARC
  8
1
 62
7
 10
-360.4976800351695
 20
72.80281587960728
 30
0
 40
8.000000000000014
 50
285.3610502180126
 51
0
  0
ARC
  8
1
 62
7
 10
-150.625
 20
-76.37499999999994
 30
0
 40
7.875992001011682
 50
180.9093804491992
 51
270.9093804491992
  0
ARC
  8
1
 62
7
 10
-150.625
 20
76.37500000000003
 30
0
 40
7.875992001011682
 50
89.09061955080087
 51
179.090619550801
  0
ARC
  8
1
 62
7
 10
284.7977163686138
 20
61.48168420750217
 30
0
 40
17.99999999999997
 50
240.7013294009983
 51
299.0151802979364
  0
ARC
  8
1
 62
7
 10
320.7923985930411
 20
-0.8629342075021569
 30
0
 40
18.0000000000001
 50
120.984819702064
 51
179.2986705990015
  0
ARC
  8
1
 62
7
 10
266.2639276485633
 20
30.58314792737658
 30
0
 40
17.99999999999993
 50
359.0718506550212
 51
62.43272568091727
  0
ARC
  8
1
 62
7
 10
284.7665868746719
 20
-1.464397927376496
 30
0
 40
18.00000000000003
 50
357.5672743190825
 51
60.92814934497865
  0
ARC
  8
1
 62
7
 10
179.8029614772979
 20
-0.8629342075021
 30
0
 40
17.99999999999996
 50
0.7013294009983354
 51
59.01518029793629
  0
ARC
  8
1
 62
7
 10
215.7976437017252
 20
61.48168420750223
 30
0
 40
18.00000000000006
 50
240.9848197020635
 51
299.2986705990013
  0
ARC
  8
1
 62
7
 10
215.8287731956671
 20
-1.464397927376496
 30
0
 40
18.00000000000003
 50
119.0718506550214
 51
182.4327256809171
  0
ARC
  8
1
 62
7
 10
234.3314324217756
 20
30.58314792737658
 30
0
 40
17.99999999999991
 50
117.5672743190823
 51
180.9281493449788
  0
ARC
  8
1
 62
7
 10
286.2923622595967
 20
-60.61875000000001
 30
0
 40
17.99999999999996
 50
120.7013294009984
 51
179.0151802979362
  0
ARC
  8
1
 62
7
 10
214.3029978107422
 20
-60.61874999999998
 30
0
 40
18.00000000000006
 50
0.9848197020637036
 51
59.29867059900148
  0
ARC
  8
1
 62
7
 10
268.8003392612781
 20
-29.11875000000001
 30
0
 40
18.00000000000004
 50
239.0718506550211
 51
302.4327256809172
  0
ARC
  8
1
 62
7
 10
231.7950208090609
 20
-29.11875000000001
 30
0
 40
17.99999999999995
 50
237.5672743190829
 51
300.9281493449789
  0
ARC
  8
1
 62
7
 10
-112.9
 20
43.75000000000001
 30
0
 40
1
 50
90
 51
180
  0
ARC
  8
1
 62
7
 10
-104
 20
51.50000000000001
 30
0
 40
0.9999999999999858
 50
90
 51
180
  0
ARC
  8
1
 62
7
 10
-112.9
 20
-46.25000000000001
 30
0
 40
1
 50
90
 51
180
  0
ARC
  8
1
 62
7
 10
-112.9
 20
-73.75000000000003
 30
0
 40
1
 50
180
 51
270
  0
ARC
  8
1
 62
7
 10
-104.5
 20
-76.00000000000003
 30
0
 40
0.5
 50
180
 51
270
  0
ARC
  8
1
 62
7
 10
-95.69999999999999
 20
-76.00000000000003
 30
0
 40
0.5
 50
270
 51
0
  0
ARC
  8
1
 62
7
 10
-105.5
 20
-75.25000000000003
 30
0
 40
0.5
 50
0
 51
90
  0
ARC
  8
1
 62
7
 10
-94.69999999999999
 20
-75.25000000000003
 30
0
 40
0.5
 50
90
 51
180
  0
ARC
  8
1
 62
7
 10
-92
 20
50.5
 30
0
 40
2
 50
0
 51
90
  0
ARC
  8
1
 62
7
 10
-112.9
 20
16.25
 30
0
 40
1
 50
180
 51
270
  0
ARC
  8
1
 62
7
 10
-91
 20
-44.25000000000004
 30
0
 40
1
 50
180
 51
270
  0
ARC
  8
1
 62
7
 10
-91
 20
-44.25000000000004
 30
0
 40
1
 50
180
 51
270
  0
ARC
  8
1
 62
7
 10
-91
 20
-43.00003619838869
 30
0
 40
1.000000000000003
 50
89.99792602264245
 51
180
  0
ARC
  8
1
 62
7
 10
-91
 20
-43.00003619838869
 30
0
 40
1.000000000000003
 50
89.99792602264245
 51
180
  0
CIRCLE
  8
1
 62
7
 10
9.5
 20
-36.25000000000001
 30
0
 40
3.75
  0
CIRCLE
  8
1
 62
7
 10
9.5
 20
36.25000000000001
 30
0
 40
3.75
  0
CIRCLE
  8
1
 62
7
 10
198.3361558081031
 20
30.00000000000001
 30
0
 40
11
  0
CIRCLE
  8
1
 62
7
 10
250.2976800351695
 20
-60.00000000000001
 30
0
 40
11
  0
CIRCLE
  8
1
 62
7
 10
302.2592042622358
 20
30
 30
0
 40
11
  0
CIRCLE
  8
1
 62
7
 10
-340.4976800351695
 20
0
 30
0
 40
30.00048462504759
  0
CIRCLE
  8
1
 62
7
 10
-340.4976800351695
 20
0
 30
0
 40
38.75
  0
CIRCLE
  8
1
 62
7
 10
-340.4976800351695
 20
100
 30
0
 40
4.25
  0
CIRCLE
  8
1
 62
7
 10
302.2592042622358
 20
30
 30
0
 40
4
  0
CIRCLE
  8
1
 62
7
 10
250.2976800351695
 20
-60.00000000000001
 30
0
 40
4
  0
CIRCLE
  8
1
 62
7
 10
302.2592042622358
 20
30
 30
0
 40
8
  0
CIRCLE
  8
1
 62
7
 10
250.2976800351695
 20
-60.00000000000001
 30
0
 40
8
  0
CIRCLE
  8
1
 62
7
 10
315.6825980208946
 20
-37.75000000000004
 30
0
 40
6.649999999999977
  0
CIRCLE
  8
1
 62
7
 10
184.9127620494443
 20
-37.74999999999999
 30
0
 40
6.650000000000006
  0
CIRCLE
  8
1
 62
7
 10
198.3361558081031
 20
30.00000000000001
 30
0
 40
4
  0
CIRCLE
  8
1
 62
7
 10
198.3361558081031
 20
30.00000000000001
 30
0
 40
8
  0
CIRCLE
  8
1
 62
7
 10
250.2976800351695
 20
75.5
 30
0
 40
6.650000000000091
  0
CIRCLE
  8
1
 62
7
 10
250.2976800351695
 20
0
 30
0
 40
88.99999999999989
  0
CIRCLE
  8
1
 62
7
 10
250.2976800351695
 20
100
 30
0
 40
4.25
  0
CIRCLE
  8
1
 62
7
 10
302.2592042622358
 20
30
 30
0
 40
14.75
  0
CIRCLE
  8
1
 62
7
 10
302.2592042622358
 20
30
 30
0
 40
8
  0
CIRCLE
  8
1
 62
7
 10
302.2592042622358
 20
30
 30
0
 40
4
  0
CIRCLE
  8
1
 62
7
 10
198.3361558081031
 20
30.00000000000001
 30
0
 40
14.75
  0
CIRCLE
  8
1
 62
7
 10
198.3361558081031
 20
30.00000000000001
 30
0
 40
8
  0
CIRCLE
  8
1
 62
7
 10
198.3361558081031
 20
30.00000000000001
 30
0
 40
4
  0
CIRCLE
  8
1
 62
7
 10
250.2976800351695
 20
-60.00000000000001
 30
0
 40
14.75
  0
CIRCLE
  8
1
 62
7
 10
250.2976800351695
 20
-60.00000000000001
 30
0
 40
8
  0
CIRCLE
  8
1
 62
7
 10
250.2976800351695
 20
-60.00000000000001
 30
0
 40
4
  0
CIRCLE
  8
1
 62
7
 10
271.5476800351695
 20
36.80607966083866
 30
0
 40
4
  0
CIRCLE
  8
1
 62
3
 10
271.5476800351695
 20
36.80607966083866
 30
0
 40
5
  0
CIRCLE
  8
1
 62
7
 10
229.0476800351695
 20
36.80607966083866
 30
0
 40
4
  0
CIRCLE
  8
1
 62
3
 10
229.0476800351695
 20
36.80607966083866
 30
0
 40
5
  0
CIRCLE
  8
1
 62
7
 10
207.7976800351695
 20
8.526512829121202e-014
 30
0
 40
4
  0
CIRCLE
  8
1
 62
3
 10
207.7976800351695
 20
8.526512829121202e-014
 30
0
 40
5
  0
CIRCLE
  8
1
 62
7
 10
229.0476800351694
 20
-36.8060796608385
 30
0
 40
4
  0
CIRCLE
  8
1
 62
3
 10
229.0476800351694
 20
-36.8060796608385
 30
0
 40
5
  0
CIRCLE
  8
1
 62
7
 10
271.5476800351694
 20
-36.80607966083856
 30
0
 40
4
  0
CIRCLE
  8
1
 62
3
 10
271.5476800351694
 20
-36.80607966083856
 30
0
 40
5
  0
CIRCLE
  8
1
 62
7
 10
292.7976800351694
 20
-3.552713678800501e-014
 30
0
 40
4
  0
CIRCLE
  8
1
 62
3
 10
292.7976800351694
 20
-3.552713678800501e-014
 30
0
 40
4.999999999999943
  0
CIRCLE
  8
1
 62
7
 10
250.2976800351695
 20
0
 30
0
 40
15
  0
CIRCLE
  8
1
 62
7
 10
250.2976800351695
 20
0
 30
0
 40
20
  0
CIRCLE
  8
1
 62
7
 10
250.2976800351695
 20
0
 30
0
 40
26.5
  0
CIRCLE
  8
1
 62
7
 10
250.2976800351695
 20
0
 30
0
 40
31
  0
CIRCLE
  8
1
 62
7
 10
250.2976800351695
 20
0
 30
0
 40
84.60000000000002
  0
TEXT
  8
1
 62
7
 10
-371.3202077666564
 20
206.4585053559373
 30
0
 40
10
  1
TMAC 10
 41
0.9
  7
SIMPLEX
  0
TEXT
  8
1
 62
7
 10
-371.3202077666564
 20
191.4585053559373
 30
0
 40
10
  1
DC2105
 41
0.9
  7
SIMPLEX
  0
ENDSEC
  0
EOF
