  0
SECTION
  2
HEADER
  9
$ACADVER
  1
AC1009
  9
$INSBASE
 10
0
 20
0
  9
$EXTMIN
 10
-77.69867240963029
 20
-42.63057197652552
  9
$EXTMAX
 10
133.8207993595918
 20
92.74166205488969
  9
$LIMMIN
 10
-77.69867240963029
 20
-42.63057197652552
  9
$LIMMAX
 10
133.8207993595918
 20
92.74166205488969
  9
$VIEWCTR
 10
10
 20
10
  9
$VIEWSIZE
 40
10
  9
$SNAPMODE
 70
0
  9
$SNAPUNIT
 10
1
 20
1
  9
$SNAPBASE
 10
0
 20
0
  9
$SNAPANG
 50
0
  9
$SNAPSTYLE
 70
0
  9
$SNAPISOPAIR
 70
0
  9
$GRIDMODE
 70
0
  9
$GRIDUNIT
 10
0
 20
0
  9
$ORTHOMODE
 70
0
  9
$REGENMODE
 70
1
  9
$FILLMODE
 70
1
  9
$QTEXTMODE
 70
0
  9
$DRAGMODE
 70
2
  9
$LTSCALE
 40
1
  9
$OSMODE
 70
0
  9
$ATTMODE
 70
1
  9
$TEXTSIZE
 40
3.5
  9
$TRACEWID
 40
0.5
  9
$TEXTSTYLE
  7
STANDARD
  9
$CLAYER
  8
0
  9
$CELTYPE
  6
BYLAYER
  9
$CECOLOR
 62
256
  9
$DIMSCALE
 40
1
  9
$DIMASZ
 40
0.18
  9
$DIMEXO
 40
0.0625
  9
$DIMDLI
 40
0.38
  9
$DIMRND
 40
0
  9
$DIMDLE
 40
0
  9
$DIMEXE
 40
0.18
  9
$DIMTP
 40
0
  9
$DIMTM
 40
0
  9
$DIMTXT
 40
0.18
  9
$DIMCEN
 40
0.09
  9
$DIMTSZ
 40
0
  9
$DIMTOL
 70
0
  9
$DIMLIM
 70
0
  9
$DIMTIH
 70
1
  9
$DIMTOH
 70
1
  9
$DIMSE1
 70
0
  9
$DIMSE2
 70
0
  9
$DIMTAD
 70
0
  9
$DIMZIN
 70
0
  9
$DIMBLK
  1

  9
$DIMASO
 70
1
  9
$DIMSHO
 70
1
  9
$DIMPOST
  1

  9
$DIMAPOST
  1

  9
$DIMALT
 70
0
  9
$DIMALTD
 70
2
  9
$DIMALTF
 40
25.4
  9
$DIMLFAC
 40
1
  9
$DIMTOFL
 70
0
  9
$DIMTVP
 40
0
  9
$DIMTIX
 70
0
  9
$DIMSOXD
 70
0
  9
$DIMSAH
 70
0
  9
$DIMBLK1
  1

  9
$DIMBLK2
  1

  9
$DIMSTYLE
  2
*UNNAMED
  9
$DIMCLRD
 70
0
  9
$DIMCLRE
 70
0
  9
$DIMCLRT
 70
0
  9
$DIMTFAC
 40
1
  9
$DIMGAP
 40
0.09
  9
$LUNITS
 70
2
  9
$LUPREC
 70
4
  9
$AXISMODE
 70
0
  9
$AXISUNIT
 10
0
 20
0
  9
$SKETCHINC
 40
0.1
  9
$FILLETRAD
 40
2
  9
$AUNITS
 70
0
  9
$AUPREC
 70
0
  9
$MENU
  1
ACAD
  9
$ELEVATION
 40
0
  9
$THICKNESS
 40
0
  9
$VIEWDIR
 10
0
 20
0
 30
1
  9
$LIMCHECK
 70
0
  9
$BLIPMODE
 70
1
  9
$CHAMFERA
 40
0
  9
$CHAMFERB
 40
0
  9
$FASTZOOM
 70
1
  9
$SKPOLY
 70
0
  9
$ANGBASE
 50
0
  9
$ANGDIR
 70
0
  9
$PDMODE
 70
0
  9
$PDSIZE
 40
0
  9
$PLINEWID
 40
0
  9
$COORDS
 70
2
  0
ENDSEC
  0
SECTION
  2
TABLES
  0
TABLE
  2
DIMSTYLE
 70
0
  0
ENDTAB
  0
TABLE
  2
LTYPE
 70
9
  0
LTYPE
  2
CONTINUOUS
 70
64
  3
Solid line
 72
65
 73
0
 40
0
  0
LTYPE
  2
BORDER
 70
64
  3
__ __ . __ __ .
 72
65
 73
6
 40
9.741028305161544
 49
2.78315094433187
 49
-1.391575472165935
 49
2.78315094433187
 49
-1.391575472165935
 49
0
 49
-1.391575472165935
  0
LTYPE
  2
CENTER
 70
64
  3
____ _ ____ _
 72
65
 73
4
 40
11.13260377732748
 49
6.957877360829674
 49
-1.391575472165935
 49
1.391575472165935
 49
-1.391575472165935
  0
LTYPE
  2
DASHDOT
 70
64
  3
__ . __ . __ .
 72
65
 73
4
 40
5.566301888663739
 49
2.78315094433187
 49
-1.391575472165935
 49
0
 49
-1.391575472165935
  0
LTYPE
  2
DASHED
 70
64
  3
__ __ __ __ __
 72
65
 73
2
 40
4.174726416497805
 49
2.78315094433187
 49
-1.391575472165935
  0
LTYPE
  2
DIVIDE
 70
64
  3
__ . . __ . . 
 72
65
 73
6
 40
6.957877360829674
 49
2.78315094433187
 49
-1.391575472165935
 49
0
 49
-1.391575472165935
 49
0
 49
-1.391575472165935
  0
LTYPE
  2
DOT
 70
64
  3
..............
 72
65
 73
4
 40
2.78315094433187
 49
0
 49
-1.391575472165935
 49
0
 49
-1.391575472165935
  0
LTYPE
  2
HIDDEN
 70
64
  3
_ _ _ _ _ _ _
 72
65
 73
2
 40
2.087363208248902
 49
1.391575472165935
 49
-0.6957877360829674
  0
LTYPE
  2
PHANTOM
 70
64
  3
_____ _ _ _____ _ _ 
 72
65
 73
6
 40
13.91575472165935
 49
6.957877360829674
 49
-1.391575472165935
 49
1.391575472165935
 49
-1.391575472165935
 49
1.391575472165935
 49
-1.391575472165935
  0
ENDTAB
  0
TABLE
  2
LAYER
 70
3
  0
LAYER
  2
1
 70
0
 62
7
  6
CONTINUOUS
  0
LAYER
  2
0
 70
0
 62
7
  6
CONTINUOUS
  0
ENDTAB
  0
TABLE
  2
STYLE
 70
4
  0
STYLE
  2
STANDARD
 70
0
 40
0
 41
1
 50
0
 71
0
 42
3.5
  3
txt
  4

  0
STYLE
  2
SIMPLEX
 70
0
 40
0
 41
1
 50
0
 71
0
 42
3.5
  3
simplex
  4

  0
STYLE
  2
COMPLEX
 70
0
 40
0
 41
1
 50
0
 71
0
 42
3.5
  3
complex
  4

  0
STYLE
  2
ITALIC
 70
0
 40
0
 41
1
 50
0
 71
0
 42
3.5
  3
italic
  4

  0
ENDTAB
  0
TABLE
  2
VIEW
 70
0
  0
ENDTAB
  0
ENDSEC
  0
SECTION
  2
BLOCKS
  0
ENDSEC
  0
SECTION
  2
ENTITIES
  0
LINE
  8
1
 62
7
 10
22.92079935959167
 20
-27.93057197652553
 30
0
 11
23.32079935959176
 21
-27.93057197652553
 31
0
  0
LINE
  8
1
 62
7
 10
30.52079935959172
 20
10.86709093788508
 30
0
 11
30.52079935959172
 21
7.369428430985585
 31
0
  0
LINE
  8
1
 62
3
 10
31.12079935959169
 20
10.86709093788508
 30
0
 11
31.12079935959169
 21
7.369428430985585
 31
0
  0
LINE
  8
1
 62
7
 10
26.62079935959169
 20
10.86709093788508
 30
0
 11
31.62079935959169
 21
10.86709093788508
 31
0
  0
LINE
  8
1
 62
7
 10
31.62079935959169
 20
10.86709093788508
 30
0
 11
31.62079935959169
 21
22.86709093788508
 31
0
  0
LINE
  8
1
 62
7
 10
22.52079935959169
 20
-23.13057197652553
 30
0
 11
22.92079935959167
 21
-23.13057197652553
 31
0
  0
LINE
  8
1
 62
7
 10
1.920799359591674
 20
17.36942802347448
 30
0
 11
0.120799359591684
 21
17.36942802347448
 31
0
  0
LINE
  8
1
 62
7
 10
1.920799359591674
 20
-42.63057197652552
 30
0
 11
0.120799359591684
 21
-42.63057197652552
 31
0
  0
LINE
  8
1
 62
7
 10
1.920799359591674
 20
30.86942802347448
 30
0
 11
0.120799359591684
 21
30.86942802347448
 31
0
  0
LINE
  8
1
 62
7
 10
1.920799359591674
 20
-42.63057197652552
 30
0
 11
1.920799359591674
 21
30.86942802347448
 31
0
  0
LINE
  8
1
 62
7
 10
23.32079935959176
 20
-12.1304158364845
 30
0
 11
17.62079935959174
 21
-12.1304158364845
 31
0
  0
LINE
  8
1
 62
7
 10
23.32079935959176
 20
11.86942802347448
 30
0
 11
17.62079935959174
 21
11.86942802347448
 31
0
  0
LINE
  8
1
 62
7
 10
24.9207993595917
 20
-27.63057197652553
 30
0
 11
23.32079935959176
 21
-27.63057197652553
 31
0
  0
LINE
  8
1
 62
7
 10
24.4207993595917
 20
-16.13057197652552
 30
0
 11
23.32079935959176
 21
-16.13057197652552
 31
0
  0
LINE
  8
1
 62
3
  6
DASHDOT
 10
0.120799359591684
 20
-0.130571976525517
 30
0
 11
-4.879200640408317
 21
-0.130571976525517
 31
0
  0
LINE
  8
1
 62
7
 10
7.320799359591694
 20
54.61253483033676
 30
0
 11
7.320799359591694
 21
32.75610523848908
 31
0
  0
LINE
  8
1
 62
7
 10
8.920799359591689
 20
54.61253483033676
 30
0
 11
8.920799359591689
 21
32.86942802347448
 31
0
  0
LINE
  8
1
 62
7
 10
7.320799359591694
 20
54.61253483033676
 30
0
 11
8.920799359591689
 21
54.61253483033676
 31
0
  0
LINE
  8
1
 62
7
 10
7.98343349292419
 20
56.11154964937612
 30
0
 11
7.98343349292419
 21
54.61253483033676
 31
0
  0
LINE
  8
1
 62
7
 10
8.3037163961839
 20
56.08243302180704
 30
0
 11
8.3037163961839
 21
54.61253483033676
 31
0
  0
LINE
  8
1
 62
7
 10
8.56576604430539
 20
56.05331639423792
 30
0
 11
8.56576604430539
 21
54.61253483033676
 31
0
  0
LINE
  8
1
 62
7
 10
7.721383844802594
 20
56.08243302180704
 30
0
 11
7.721383844802594
 21
54.61253483033676
 31
0
  0
LINE
  8
1
 62
7
 10
19.32064489358828
 20
32.86942802347448
 30
0
 11
19.32064489358828
 21
11.86942802347448
 31
0
  0
LINE
  8
1
 62
7
 10
4.892008554191184
 20
17.96942802347447
 30
0
 11
19.32064489358828
 21
17.96942802347447
 31
0
  0
LINE
  8
1
 62
3
  6
DASHDOT
 10
-2.879200640408316
 20
-37.63057197652552
 30
0
 11
4.920799359591674
 21
-37.63057197652552
 31
0
  0
LINE
  8
1
 62
7
 10
0.120799359591684
 20
30.86942802347448
 30
0
 11
0.120799359591684
 21
-42.63057197652552
 31
0
  0
LINE
  8
1
 62
7
 10
0.120799359591684
 20
-17.63057197652554
 30
0
 11
1.920799359591674
 21
-17.63057197652554
 31
0
  0
LINE
  8
1
 62
7
 10
1.920799359591674
 20
-35.38057197652552
 30
0
 11
0.120799359591684
 21
-35.38057197652552
 31
0
  0
LINE
  8
1
 62
7
 10
24.9207993595917
 20
-16.63057197652552
 30
0
 11
24.9207993595917
 21
-31.12902813622944
 31
0
  0
LINE
  8
1
 62
7
 10
25.4207993595917
 20
-31.62902813622944
 30
0
 11
26.4207993595917
 21
-31.62902813622944
 31
0
  0
LINE
  8
1
 62
7
 10
26.9207993595917
 20
-32.12902813622944
 30
0
 11
26.9207993595917
 21
-32.63057197652552
 31
0
  0
LINE
  8
1
 62
7
 10
27.4207993595917
 20
-33.13057197652552
 30
0
 11
32.42079935959172
 21
-33.13057197652552
 31
0
  0
LINE
  8
1
 62
7
 10
32.92079935959172
 20
-32.63057197652552
 30
0
 11
32.92079935959172
 21
-32.12902813622944
 31
0
  0
LINE
  8
1
 62
7
 10
33.42079935959172
 20
-31.62902813622944
 30
0
 11
36.92079935959172
 21
-31.62902813622944
 31
0
  0
LINE
  8
1
 62
7
 10
24.9207993595917
 20
16.36942802347448
 30
0
 11
24.9207993595917
 21
22.36709093788508
 31
0
  0
LINE
  8
1
 62
7
 10
25.4207993595917
 20
22.86709093788508
 30
0
 11
32.42079935959172
 21
22.86709093788508
 31
0
  0
LINE
  8
1
 62
7
 10
32.92079935959172
 20
22.36709093788508
 30
0
 11
32.92079935959172
 21
16.36942802347448
 31
0
  0
LINE
  8
1
 62
7
 10
22.52079935959169
 20
-23.13057197652553
 30
0
 11
22.52079935959169
 21
-33.38057197652552
 31
0
  0
LINE
  8
1
 62
7
 10
23.32079935959176
 20
22.97295564151552
 30
0
 11
23.32079935959176
 21
11.86942802347448
 31
0
  0
LINE
  8
1
 62
7
 10
24.22079935959163
 20
25.86942802347448
 30
0
 11
24.52079935959169
 21
26.1694280234745
 31
0
  0
LINE
  8
1
 62
7
 10
24.22079935959163
 20
31.86942802347448
 30
0
 11
24.52079935959169
 21
31.56942802347447
 31
0
  0
LINE
  8
1
 62
7
 10
22.92079935959167
 20
31.86942802347448
 30
0
 11
24.22079935959163
 21
31.86942802347448
 31
0
  0
LINE
  8
1
 62
7
 10
23.42079935959167
 20
25.86942802347448
 30
0
 11
23.42079935959167
 21
31.86942802347448
 31
0
  0
LINE
  8
1
 62
7
 10
22.92079935959167
 20
25.86942802347448
 30
0
 11
24.22079935959163
 21
25.86942802347448
 31
0
  0
LINE
  8
1
 62
7
 10
24.52079935959169
 20
31.56942802347447
 30
0
 11
24.52079935959169
 21
26.1694280234745
 31
0
  0
LINE
  8
1
 62
7
 10
19.67064489358828
 20
-17.63057197652553
 30
0
 11
22.92079935959167
 21
-17.63057197652553
 31
0
  0
LINE
  8
1
 62
7
 10
19.67064489358828
 20
17.36942802347448
 30
0
 11
22.92079935959167
 21
17.36942802347448
 31
0
  0
LINE
  8
1
 62
7
 10
22.92079935959167
 20
22.86942802347448
 30
0
 11
22.92079935959167
 21
11.86942802347448
 31
0
  0
LINE
  8
1
 62
7
 10
22.52079935959169
 20
22.86942802347448
 30
0
 11
22.92079935959167
 21
22.86942802347448
 31
0
  0
LINE
  8
1
 62
7
 10
22.92079935959167
 20
32.61942802347448
 30
0
 11
22.92079935959167
 21
24.41490934553701
 31
0
  0
LINE
  8
1
 62
7
 10
22.92079935959167
 20
24.41490934553701
 30
0
 11
23.32079935959176
 21
22.97295564151552
 31
0
  0
LINE
  8
1
 62
7
 10
22.92079935959167
 20
24.41490934553701
 30
0
 11
23.32079935959176
 21
22.97295564151552
 31
0
  0
LINE
  8
1
 62
7
 10
22.92079935959167
 20
22.86942802347448
 30
0
 11
22.52079935959169
 21
24.36224834650204
 31
0
  0
LINE
  8
1
 62
7
 10
22.52079935959169
 20
25.11942802347448
 30
0
 11
22.92079935959167
 21
25.11942802347448
 31
0
  0
LINE
  8
1
 62
7
 10
22.92079935959167
 20
-32.88057197652552
 30
0
 11
23.32079935959176
 21
-32.88057197652552
 31
0
  0
LINE
  8
1
 62
7
 10
22.92079935959167
 20
-18.13057197652553
 30
0
 11
23.32079935959176
 21
-18.13057197652553
 31
0
  0
LINE
  8
1
 62
7
 10
24.9207993595917
 20
-18.63057197652553
 30
0
 11
23.32079935959176
 21
-18.63057197652553
 31
0
  0
LINE
  8
1
 62
3
  6
DASHDOT
 10
29.12079935959169
 20
4.369428430985585
 30
0
 11
29.12079935959169
 21
25.86709093788508
 31
0
  0
LINE
  8
1
 62
7
 10
37.62079935959169
 20
5.869428023474483
 30
0
 11
17.62079935959174
 21
5.869428023474483
 31
0
  0
LINE
  8
1
 62
7
 10
17.62079935959174
 20
-12.1304158364845
 30
0
 11
17.62079935959174
 21
11.86942802347448
 31
0
  0
LINE
  8
1
 62
7
 10
37.12079935959169
 20
15.86942802347448
 30
0
 11
33.42079935959172
 21
15.86942802347448
 31
0
  0
LINE
  8
1
 62
7
 10
37.62079935959171
 20
-15.93057197652552
 30
0
 11
37.62079935959169
 21
15.36942802347448
 31
0
  0
LINE
  8
1
 62
7
 10
37.62079935959169
 20
7.369428430985585
 30
0
 11
17.62079935959174
 21
7.369428430985585
 31
0
  0
LINE
  8
1
 62
7
 10
37.62079935959169
 20
-6.130248447627644
 30
0
 11
17.62079935959174
 21
-6.130248447627644
 31
0
  0
LINE
  8
1
 62
7
 10
37.42079935959172
 20
-31.12902813622944
 30
0
 11
37.42079935959172
 21
-16.13057197652552
 31
0
  0
LINE
  8
1
 62
7
 10
26.62079935959169
 20
22.86709093788508
 30
0
 11
26.62079935959169
 21
10.86709093788508
 31
0
  0
LINE
  8
1
 62
3
 10
27.12079935959169
 20
7.369428430985585
 30
0
 11
27.12079935959169
 21
10.86709093788508
 31
0
  0
LINE
  8
1
 62
7
 10
27.72079935959171
 20
7.369428430985585
 30
0
 11
27.72079935959171
 21
10.86709093788508
 31
0
  0
LINE
  8
1
 62
7
 10
24.4207993595917
 20
15.86942802347448
 30
0
 11
23.32079935959176
 21
15.86942802347448
 31
0
  0
LINE
  8
1
 62
7
 10
23.32079935959176
 20
-12.1304158364845
 30
0
 11
23.32079935959176
 21
-32.88057197652552
 31
0
  0
LINE
  8
1
 62
7
 10
22.92079935959167
 20
-12.1304158364845
 30
0
 11
22.92079935959167
 21
-32.88057197652552
 31
0
  0
LINE
  8
1
 62
7
 10
19.67064489358828
 20
-12.1304158364845
 30
0
 11
19.67064489358828
 21
-33.38057197652552
 31
0
  0
LINE
  8
1
 62
7
 10
19.32064489358828
 20
-12.1304158364845
 30
0
 11
19.32064489358828
 21
-33.13057197652554
 31
0
  0
LINE
  8
1
 62
7
 10
0.120799359591684
 20
-39.88057197652552
 30
0
 11
1.920799359591674
 21
-39.88057197652552
 31
0
  0
LINE
  8
1
 62
3
  6
DASHDOT
 10
37.62079935959169
 20
-0.130571976525517
 30
0
 11
42.6207993595917
 21
-0.130571976525517
 31
0
  0
LINE
  8
1
 62
7
 10
19.32064489358828
 20
32.86942802347448
 30
0
 11
8.619644893588299
 21
32.86942802347451
 31
0
  0
LINE
  8
1
 62
7
 10
19.32064489358828
 20
-18.23057197652554
 30
0
 11
4.892008554191184
 21
-18.23057197652554
 31
0
  0
LINE
  8
1
 62
7
 10
19.32064489358828
 20
-33.13057197652554
 30
0
 11
8.619644893588299
 21
-33.13057197652557
 31
0
  0
LINE
  8
1
 62
7
 10
19.67064489358828
 20
-33.38057197652552
 30
0
 11
22.52079935959169
 21
-33.38057197652552
 31
0
  0
LINE
  8
1
 62
7
 10
19.67064489358828
 20
33.11942802347448
 30
0
 11
22.52079935959169
 21
33.11942802347448
 31
0
  0
LINE
  8
1
 62
7
 10
22.52079935959169
 20
33.11942802347448
 30
0
 11
22.52079935959169
 21
22.86942802347448
 31
0
  0
LINE
  8
1
 62
7
 10
19.67064489358828
 20
33.11942802347448
 30
0
 11
19.67064489358828
 21
11.86942802347448
 31
0
  0
LINE
  8
1
 62
7
 10
22.92079935959167
 20
32.61942802347448
 30
0
 11
22.52079935959169
 21
32.61942802347448
 31
0
  0
LINE
  8
1
 62
3
  6
DASHDOT
 10
103.5707993595918
 20
-0.1305719765255171
 30
0
 11
97.5707993595918
 21
-0.1305719765255171
 31
0
  0
LINE
  8
1
 62
3
  6
DASHDOT
 10
100.5707993595918
 20
2.869428023474483
 30
0
 11
100.5707993595918
 21
-3.130571976525517
 31
0
  0
LINE
  8
1
 62
7
 10
120.0211378100821
 20
9.944385625315094
 30
0
 11
117.1897126082413
 21
8.309661522842013
 31
0
  0
LINE
  8
1
 62
7
 10
120.9576294831858
 20
12.79447042163386
 30
0
 11
123.7890546850266
 21
14.42919452410695
 31
0
  0
LINE
  8
1
 62
7
 10
124.7890546850266
 20
12.69714371653807
 30
0
 11
121.9576294831858
 21
11.06241961406498
 31
0
  0
LINE
  8
1
 62
7
 10
116.1897126082413
 20
10.04171233041088
 30
0
 11
119.0211378100821
 21
11.67643643288397
 31
0
  0
LINE
  8
1
 62
7
 10
82.1204609091016
 20
11.67643643288397
 30
0
 11
84.9518861109424
 21
10.0417123304109
 31
0
  0
LINE
  8
1
 62
7
 10
79.18396923599789
 20
11.062419614065
 30
0
 11
76.35254403415706
 21
12.69714371653808
 31
0
  0
LINE
  8
1
 62
7
 10
77.35254403415708
 20
14.42919452410696
 30
0
 11
80.18396923599791
 21
12.79447042163386
 31
0
  0
LINE
  8
1
 62
7
 10
83.95188611094243
 20
8.309661522842013
 30
0
 11
81.1204609091016
 21
9.944385625315103
 31
0
  0
LINE
  8
1
 62
7
 10
99.57079935959179
 20
-22.01253798777562
 30
0
 11
99.57079935959179
 21
-18.74308978282946
 31
0
  0
LINE
  8
1
 62
7
 10
101.5707993595918
 20
-24.24860596527541
 30
0
 11
101.5707993595918
 21
-27.51805417022159
 31
0
  0
LINE
  8
1
 62
7
 10
99.57079935959179
 20
-27.51805417022157
 30
0
 11
99.57079935959179
 21
-24.2486059652754
 31
0
  0
LINE
  8
1
 62
7
 10
101.5707993595918
 20
-18.74308978282944
 30
0
 11
101.5707993595918
 21
-22.01253798777562
 31
0
  0
LINE
  8
1
 62
7
 10
98.57079935959182
 20
5.526282272966866
 30
0
 11
98.57079935959182
 21
7.369428430985585
 31
0
  0
LINE
  8
1
 62
7
 10
102.5707993595918
 20
7.369428430985585
 30
0
 11
102.5707993595918
 21
5.526282272966866
 31
0
  0
LINE
  8
1
 62
7
 10
131.5707993595917
 20
-12.15398663293686
 30
0
 11
131.5707993595918
 21
-29.20375549673878
 31
0
  0
LINE
  8
1
 62
7
 10
88.54738470318077
 20
-31.13057197652552
 30
0
 11
71.4976158393785
 21
-31.13057197652552
 31
0
  0
LINE
  8
1
 62
7
 10
69.57079935959177
 20
11.89284267988546
 30
0
 11
69.57079935959177
 21
28.94261154368774
 31
0
  0
LINE
  8
1
 62
7
 10
112.5942140160029
 20
30.86942802347448
 30
0
 11
129.643982879805
 21
30.86942802347448
 31
0
  0
LINE
  8
1
 62
7
 10
101.5710506127714
 20
56.41889182927174
 30
0
 11
101.5710506127714
 21
54.61253483033676
 31
0
  0
LINE
  8
1
 62
7
 10
101.0534216782103
 20
56.41889182927174
 30
0
 11
101.0534216782103
 21
54.61253483033676
 31
0
  0
LINE
  8
1
 62
7
 10
99.6946457249874
 20
56.41889182927174
 30
0
 11
99.6946457249874
 21
54.61253483033676
 31
0
  0
LINE
  8
1
 62
7
 10
100.1799228511385
 20
56.45124363768184
 30
0
 11
100.1799228511385
 21
54.61253483033676
 31
0
  0
LINE
  8
1
 62
7
 10
71.4976158393785
 20
30.86942802347448
 30
0
 11
88.54738470318074
 21
30.86942802347448
 31
0
  0
LINE
  8
1
 62
7
 10
131.5707993595918
 20
28.94261154368774
 30
0
 11
131.5707993595918
 21
11.89284267988553
 31
0
  0
LINE
  8
1
 62
7
 10
129.643982879805
 20
-31.13057197652552
 30
0
 11
112.5942140160029
 21
-31.13057197652552
 31
0
  0
LINE
  8
1
 62
7
 10
69.57079935959177
 20
-29.20375549673878
 30
0
 11
69.57079935959177
 21
-12.15398663293649
 31
0
  0
LINE
  8
1
 62
7
 10
98.97079935959171
 20
54.61253483033676
 30
0
 11
102.1707993595918
 21
54.61253483033676
 31
0
  0
LINE
  8
1
 62
7
 10
98.97079935959171
 20
54.61253483033676
 30
0
 11
98.9707993595917
 21
33.08090947191337
 31
0
  0
LINE
  8
1
 62
7
 10
100.5707993595918
 20
54.61253483033676
 30
0
 11
100.5707993595918
 21
33.11942802347448
 31
0
  0
LINE
  8
1
 62
7
 10
102.1707993595918
 20
54.61253483033676
 30
0
 11
102.1707993595918
 21
33.08090947191334
 31
0
  0
LINE
  8
1
 62
7
 10
99.24801755505889
 20
54.61253483033676
 30
0
 11
99.24801755505889
 21
56.45124363768184
 31
0
  0
LINE
  8
1
 62
7
 10
102.0113869495519
 20
54.61253483033676
 30
0
 11
102.0113869495519
 21
56.43745045144966
 31
0
  0
LINE
  8
1
 62
3
  6
DASHED
 10
98.57079935959182
 20
7.369428430985585
 30
0
 11
98.57079935959179
 21
10.86942802347449
 31
0
  0
LINE
  8
1
 62
7
  6
DASHED
 10
99.17079935959178
 20
7.369428430985585
 30
0
 11
99.17079935959178
 21
10.86942802347449
 31
0
  0
LINE
  8
1
 62
3
  6
DASHDOT
 10
100.5707993595918
 20
5.369428430985585
 30
0
 11
100.5707993595918
 21
24.8694280234745
 31
0
  0
LINE
  8
1
 62
7
 10
98.57079935959182
 20
7.369428430985585
 30
0
 11
102.5707993595918
 21
7.369428430985585
 31
0
  0
LINE
  8
1
 62
7
  6
DASHED
 10
98.04335927505964
 20
22.73613848791213
 30
0
 11
98.04335927505964
 21
10.86942802347449
 31
0
  0
LINE
  8
1
 62
7
  6
DASHED
 10
103.0433592750597
 20
22.73613848791213
 30
0
 11
103.0433592750597
 21
10.86942802347449
 31
0
  0
LINE
  8
1
 62
7
  6
DASHED
 10
98.04335927505964
 20
10.86942802347449
 30
0
 11
103.0433592750597
 21
10.86942802347449
 31
0
  0
LINE
  8
1
 62
7
  6
DASHED
 10
101.9707993595918
 20
10.86942802347449
 30
0
 11
101.9707993595918
 21
7.369428430985585
 31
0
  0
LINE
  8
1
 62
3
  6
DASHED
 10
102.5707993595918
 20
10.86942802347449
 30
0
 11
102.5707993595918
 21
7.369428430985585
 31
0
  0
LINE
  8
1
 62
3
  6
DASHDOT
 10
124.0820998340445
 20
23.38072849792717
 30
0
 11
130.0925074741301
 21
29.39113613801283
 31
0
  0
LINE
  8
1
 62
3
  6
DASHDOT
 10
77.05949888513911
 20
23.38072849792715
 30
0
 11
71.04909124505345
 21
29.3911361380128
 31
0
  0
LINE
  8
1
 62
3
  6
DASHDOT
 10
77.05949888513914
 20
-23.64187245097821
 30
0
 11
71.04909124505349
 21
-29.65228009106386
 31
0
  0
LINE
  8
1
 62
3
  6
DASHDOT
 10
124.0820998340445
 20
-23.64187245097818
 30
0
 11
130.0925074741301
 21
-29.65228009106383
 31
0
  0
LINE
  8
1
 62
3
  6
DASHED
 10
90.04451991796299
 20
-3.898521168956634
 30
0
 11
94.67181987402546
 21
-1.226948293702838
 31
0
  0
LINE
  8
1
 62
7
  6
DASHED
 10
90.344519917963
 20
-4.418136411227309
 30
0
 11
94.8180773209279
 21
-1.835326840390282
 31
0
  0
LINE
  8
1
 62
3
  6
DASHDOT
 10
97.10669774445405
 20
-2.130571976525522
 30
0
 11
78.92016426498086
 21
-12.63057197652549
 31
0
  0
LINE
  8
1
 62
7
  6
DASHED
 10
96.2180773209279
 20
-4.260197970986712
 30
0
 11
91.744519917963
 21
-6.843007541823738
 31
0
  0
LINE
  8
1
 62
3
  6
DASHED
 10
96.67181987402543
 20
-4.691049908840589
 30
0
 11
92.04451991796299
 21
-7.362622784094398
 31
0
  0
LINE
  8
1
 62
7
  6
DASHED
 10
79.53136723867141
 20
-9.42262750957002
 30
0
 11
89.80823996022903
 21
-3.489272277351205
 31
0
  0
LINE
  8
1
 62
7
  6
DASHED
 10
92.30823996022906
 20
-7.81939929627346
 30
0
 11
89.80823996022903
 21
-3.489272277351205
 31
0
  0
LINE
  8
1
 62
7
  6
DASHED
 10
82.03136723867144
 20
-13.75275452849228
 30
0
 11
92.30823996022906
 21
-7.81939929627346
 31
0
  0
LINE
  8
1
 62
3
  6
DASHDOT
 10
-35.19867240963028
 20
-0.1305719765255162
 30
0
 11
-30.19867240963028
 21
-0.1305719765255162
 31
0
  0
LINE
  8
1
 62
7
 10
-35.19867240963028
 20
15.36942802347448
 30
0
 11
-35.19867240963028
 21
-15.93057197652553
 31
0
  0
LINE
  8
1
 62
7
 10
-39.39867240963027
 20
15.86942802347448
 30
0
 11
-35.69867240963028
 21
15.86942802347448
 31
0
  0
LINE
  8
1
 62
7
 10
-64.19982687563369
 20
32.86942802347448
 30
0
 11
-53.49882687563368
 21
32.86942802347448
 31
0
  0
LINE
  8
1
 62
7
 10
-53.14882687563368
 20
-33.38057197652552
 30
0
 11
-53.14882687563368
 21
33.11942802347448
 31
0
  0
LINE
  8
1
 62
7
 10
-48.39867240963027
 20
15.86942802347448
 30
0
 11
-49.49867240963022
 21
15.86942802347448
 31
0
  0
LINE
  8
1
 62
7
 10
-35.39867240963027
 20
-31.12902813622944
 30
0
 11
-35.39867240963027
 21
-16.13057197652552
 31
0
  0
LINE
  8
1
 62
7
 10
-49.89867240963029
 20
-32.88057197652552
 30
0
 11
-49.49867240963022
 21
-32.88057197652552
 31
0
  0
LINE
  8
1
 62
7
 10
-49.89867240963029
 20
22.86942802347448
 30
0
 11
-50.29867240963027
 21
24.36224834650204
 31
0
  0
LINE
  8
1
 62
7
 10
-49.49867240963022
 20
17.86942802347448
 30
0
 11
-49.51230207911465
 21
22.97295564151551
 31
0
  0
LINE
  8
1
 62
7
 10
-49.89867240963029
 20
24.41490934553701
 30
0
 11
-49.51230207911465
 21
22.97295564151551
 31
0
  0
LINE
  8
1
 62
7
 10
-49.89867240963029
 20
24.41490934553701
 30
0
 11
-49.51230207911465
 21
22.97295564151551
 31
0
  0
LINE
  8
1
 62
7
 10
-49.89867240963029
 20
32.61942802347448
 30
0
 11
-49.89867240963029
 21
24.41490934553701
 31
0
  0
LINE
  8
1
 62
7
 10
-50.29867240963027
 20
32.61942802347448
 30
0
 11
-49.89867240963029
 21
32.61942802347448
 31
0
  0
LINE
  8
1
 62
7
 10
-50.29867240963027
 20
32.61942802347448
 30
0
 11
-49.89867240963029
 21
32.61942802347448
 31
0
  0
LINE
  8
1
 62
7
 10
-50.29867240963027
 20
32.61942802347448
 30
0
 11
-49.89867240963029
 21
32.61942802347448
 31
0
  0
LINE
  8
1
 62
7
 10
-53.14882687563368
 20
33.11942802347448
 30
0
 11
-50.29867240963027
 21
33.11942802347447
 31
0
  0
LINE
  8
1
 62
7
 10
-49.89867240963029
 20
22.86942802347448
 30
0
 11
-49.89867240963029
 21
-32.88057197652552
 31
0
  0
LINE
  8
1
 62
7
 10
-53.14882687563368
 20
-33.38057197652552
 30
0
 11
-50.29867240963027
 21
-33.38057197652552
 31
0
  0
LINE
  8
1
 62
7
 10
-48.29867240963027
 20
31.56942802347447
 30
0
 11
-48.29867240963027
 21
26.1694280234745
 31
0
  0
LINE
  8
1
 62
7
 10
-49.89867240963029
 20
25.86942802347448
 30
0
 11
-49.89867240963029
 21
31.86942802347448
 31
0
  0
LINE
  8
1
 62
7
 10
-49.89867240963029
 20
25.86942802347448
 30
0
 11
-48.59867240963035
 21
25.86942802347448
 31
0
  0
LINE
  8
1
 62
7
 10
-48.59867240963035
 20
31.86942802347448
 30
0
 11
-48.29867240963027
 21
31.56942802347447
 31
0
  0
LINE
  8
1
 62
7
 10
-48.59867240963035
 20
25.86942802347448
 30
0
 11
-48.29867240963027
 21
26.1694280234745
 31
0
  0
LINE
  8
1
 62
7
 10
-49.89867240963029
 20
31.86942802347448
 30
0
 11
-48.59867240963035
 21
31.86942802347448
 31
0
  0
LINE
  8
1
 62
7
 10
-49.3986724096303
 20
31.86942802347448
 30
0
 11
-49.3986724096303
 21
25.86942802347448
 31
0
  0
LINE
  8
1
 62
7
 10
-49.49867240963022
 20
17.86942802347448
 30
0
 11
-49.49867240963022
 21
-32.88057197652552
 31
0
  0
LINE
  8
1
 62
7
 10
-50.29867240963027
 20
-33.38057197652552
 30
0
 11
-50.29867240963027
 21
33.11942802347447
 31
0
  0
LINE
  8
1
 62
7
 10
-47.39867240963027
 20
22.86709093788508
 30
0
 11
-40.39867240963027
 21
22.86709093788508
 31
0
  0
LINE
  8
1
 62
7
 10
-39.39867240963027
 20
-31.62902813622944
 30
0
 11
-35.89867240963027
 21
-31.62902813622944
 31
0
  0
LINE
  8
1
 62
7
 10
-39.89867240963027
 20
-32.62840514541108
 30
0
 11
-39.89867240963027
 21
-32.12902813622944
 31
0
  0
LINE
  8
1
 62
7
 10
-45.39867240963027
 20
-33.12840514541108
 30
0
 11
-40.39867240963027
 21
-33.12840514541108
 31
0
  0
LINE
  8
1
 62
7
 10
-47.39867240963027
 20
-31.62902813622944
 30
0
 11
-46.39867240963027
 21
-31.62902813622944
 31
0
  0
LINE
  8
1
 62
7
 10
-48.39867240963027
 20
-16.13057197652552
 30
0
 11
-49.49867240963022
 21
-16.13057197652552
 31
0
  0
LINE
  8
1
 62
7
 10
-64.19982687563369
 20
-33.13057197652557
 30
0
 11
-53.49882687563368
 21
-33.13057197652555
 31
0
  0
LINE
  8
1
 62
7
 10
-72.69867240963028
 20
30.86942802347448
 30
0
 11
-72.69867240963028
 21
-42.63057197652552
 31
0
  0
LINE
  8
1
 62
3
  6
DASHDOT
 10
-75.69867240963028
 20
-37.63057197652552
 30
0
 11
-67.89867240963029
 21
-37.63057197652552
 31
0
  0
LINE
  8
1
 62
7
 10
-53.49882687563368
 20
32.86942802347448
 30
0
 11
-53.49882687563368
 21
-33.13057197652555
 31
0
  0
LINE
  8
1
 62
7
 10
-65.09808792441937
 20
56.08243302180705
 30
0
 11
-65.09808792441937
 21
54.61253483033676
 31
0
  0
LINE
  8
1
 62
7
 10
-64.25370572491657
 20
56.05331639423793
 30
0
 11
-64.25370572491657
 21
54.61253483033676
 31
0
  0
LINE
  8
1
 62
7
 10
-64.51575537303809
 20
56.08243302180705
 30
0
 11
-64.51575537303809
 21
54.61253483033676
 31
0
  0
LINE
  8
1
 62
7
 10
-64.83603827629777
 20
56.11154964937612
 30
0
 11
-64.83603827629777
 21
54.61253483033676
 31
0
  0
LINE
  8
1
 62
7
 10
-63.89867240963028
 20
54.61253483033676
 30
0
 11
-63.89867240963028
 21
32.86942802347448
 31
0
  0
LINE
  8
1
 62
7
 10
-65.49867240963029
 20
54.61253483033676
 30
0
 11
-65.49867240963029
 21
32.75610523848908
 31
0
  0
LINE
  8
1
 62
7
 10
-65.49867240963029
 20
54.61253483033676
 30
0
 11
-63.89867240963028
 21
54.61253483033676
 31
0
  0
LINE
  8
1
 62
3
  6
DASHDOT
 10
-72.69867240963028
 20
-0.1305719765255162
 30
0
 11
-77.69867240963029
 21
-0.1305719765255162
 31
0
  0
LINE
  8
1
 62
7
 10
-47.89867240963027
 20
-18.63057197652555
 30
0
 11
-49.49867240963022
 21
-18.63057197652555
 31
0
  0
LINE
  8
1
 62
7
 10
-47.89867240963027
 20
-27.63057197652555
 30
0
 11
-49.49867240963022
 21
-27.63057197652555
 31
0
  0
LINE
  8
1
 62
7
 10
-70.89867240963029
 20
-42.63057197652552
 30
0
 11
-70.89867240963029
 21
30.86942802347448
 31
0
  0
LINE
  8
1
 62
7
 10
-70.89867240963029
 20
30.86942802347448
 30
0
 11
-72.69867240963028
 21
30.86942802347448
 31
0
  0
LINE
  8
1
 62
7
 10
-70.89867240963029
 20
-42.63057197652552
 30
0
 11
-72.69867240963028
 21
-42.63057197652552
 31
0
  0
LINE
  8
1
 62
7
 10
-50.29867240963027
 20
22.86942802347448
 30
0
 11
-49.89867240963029
 21
22.86942802347448
 31
0
  0
LINE
  8
1
 62
7
 10
-50.29867240963027
 20
-23.13057197652555
 30
0
 11
-49.89867240963029
 21
-23.13057197652555
 31
0
  0
LINE
  8
1
 62
7
 10
-45.89867240963027
 20
-32.12902813622944
 30
0
 11
-45.89867240963027
 21
-32.62840514541108
 31
0
  0
LINE
  8
1
 62
7
 10
-39.89867240963027
 20
-32.12902813622944
 30
0
 11
-39.89867240963027
 21
22.36709093788508
 31
0
  0
LINE
  8
1
 62
7
 10
-47.89867240963027
 20
-16.63057197652552
 30
0
 11
-47.89867240963027
 21
-31.12902813622944
 31
0
  0
LINE
  8
1
 62
7
 10
-47.89867240963027
 20
16.36942802347448
 30
0
 11
-47.89867240963027
 21
22.36709093788508
 31
0
  0
ARC
  8
1
 62
7
 10
36.92079935959172
 20
-31.12902813622944
 30
0
 40
0.5
 50
270
 51
0
  0
ARC
  8
1
 62
7
 10
33.42079935959172
 20
-32.12902813622944
 30
0
 40
0.4999999999999965
 50
90
 51
180
  0
ARC
  8
1
 62
7
 10
32.42079935959172
 20
-32.63057197652552
 30
0
 40
0.5
 50
270
 51
0
  0
ARC
  8
1
 62
7
 10
27.4207993595917
 20
-32.63057197652552
 30
0
 40
0.5
 50
180
 51
270
  0
ARC
  8
1
 62
7
 10
26.4207993595917
 20
-32.12902813622944
 30
0
 40
0.5
 50
0
 51
90
  0
ARC
  8
1
 62
7
 10
25.4207993595917
 20
-31.12902813622944
 30
0
 40
0.5
 50
180
 51
270
  0
ARC
  8
1
 62
7
 10
37.12079935959169
 20
15.36942802347448
 30
0
 40
0.5
 50
0
 51
90
  0
ARC
  8
1
 62
7
 10
32.42079935959172
 20
22.36709093788508
 30
0
 40
0.5
 50
0
 51
90
  0
ARC
  8
1
 62
7
 10
25.4207993595917
 20
22.36709093788508
 30
0
 40
0.5
 50
90
 51
180
  0
ARC
  8
1
 62
7
 10
24.4207993595917
 20
16.36942802347448
 30
0
 40
0.5
 50
270
 51
0
  0
ARC
  8
1
 62
7
 10
33.42079935959172
 20
16.36942802347448
 30
0
 40
0.5
 50
180
 51
270
  0
ARC
  8
1
 62
7
 10
24.4207993595917
 20
-16.63057197652552
 30
0
 40
0.5
 50
0
 51
90
  0
ARC
  8
1
 62
7
 10
37.42079935959172
 20
-15.93057197652552
 30
0
 40
0.1999999999999993
 50
270
 51
0
  0
ARC
  8
1
 62
7
 10
7.619644893588299
 20
-24.13057197652554
 30
0
 40
6.499999999999979
 50
114.8116315025705
 51
151.2522289560972
  0
ARC
  8
1
 62
7
 10
8.619644893588299
 20
-25.63057197652558
 30
0
 40
7.499999999999999
 50
206.7244707948547
 51
270
  0
ARC
  8
1
 62
7
 10
8.619644893588299
 20
25.36942802347448
 30
0
 40
7.500000000000032
 50
90
 51
153.2755292051448
  0
ARC
  8
1
 62
7
 10
7.619644893588299
 20
23.86942802347448
 30
0
 40
6.499999999999985
 50
208.747771043903
 51
245.1883684974295
  0
ARC
  8
1
 62
7
 10
120.4893836466339
 20
11.36942802347448
 30
0
 40
10.00000000000002
 50
306.0190623131793
 51
113.9809376868206
  0
ARC
  8
1
 62
7
 10
80.65221507254974
 20
11.36942802347449
 30
0
 40
9.999999999999991
 50
66.01906231317915
 51
233.980937686821
  0
ARC
  8
1
 62
7
 10
100.5707993595918
 20
-23.13057197652552
 30
0
 40
10
 50
186.019062313179
 51
353.9809376868209
  0
ARC
  8
1
 62
7
 10
100.5707993595918
 20
-0.130571976525517
 30
0
 40
22.99999999999996
 50
184.3011527567915
 51
235.6988472432085
  0
ARC
  8
1
 62
7
 10
100.5707993595918
 20
-0.130571976525517
 30
0
 40
23.00000000000001
 50
64.30115275679151
 51
115.6988472432084
  0
ARC
  8
1
 62
7
 10
82.82079935959182
 20
-0.1305719765255241
 30
0
 40
15.00000000000012
 50
142.4224895441974
 51
180.0000000000001
  0
ARC
  8
1
 62
7
 10
100.5707993595918
 20
-0.130571976525517
 30
0
 40
32.75000000000006
 50
299.9999999999999
 51
359.9999999999999
  0
ARC
  8
1
 62
7
 10
100.5707993595918
 20
-0.130571976525517
 30
0
 40
32.75000000000011
 50
180
 51
240
  0
ARC
  8
1
 62
7
 10
100.5707993595918
 20
-0.130571976525517
 30
0
 40
25.25000000000004
 50
305.0000000000002
 51
354.9999999999999
  0
ARC
  8
1
 62
7
 10
100.5707993595918
 20
-0.130571976525517
 30
0
 40
25.25000000000004
 50
185
 51
235
  0
ARC
  8
1
 62
7
 10
100.5707993595918
 20
-0.130571976525517
 30
0
 40
25.25000000000001
 50
64.99999999999992
 51
115.0000000000001
  0
ARC
  8
1
 62
7
 10
100.5707993595918
 20
-0.130571976525517
 30
0
 40
32.75000000000001
 50
60.00000000000001
 51
120
  0
ARC
  8
1
 62
7
 10
109.4460594007442
 20
15.23886520950849
 30
0
 40
14.99999999999998
 50
22.42248954419776
 51
59.99999999999999
  0
ARC
  8
1
 62
7
 10
107.860964374619
 20
15.5032373498567
 30
0
 40
7.999999999999899
 50
33.8814642837418
 51
65.00000000000058
  0
ARC
  8
1
 62
7
 10
109.4457993595918
 20
-15.50252289369933
 30
0
 40
15.00000000000002
 50
262.4224895441979
 51
299.9999999999999
  0
ARC
  8
1
 62
7
 10
110.4649928866474
 20
-14.26094474051064
 30
0
 40
7.999999999999989
 50
273.8814642837414
 51
305.0000000000003
  0
ARC
  8
1
 62
7
 10
118.3207993595918
 20
-0.130571976525517
 30
0
 40
15
 50
359.9999999999997
 51
37.577510455802
  0
ARC
  8
1
 62
7
 10
117.7551579016744
 20
-1.63400853892263
 30
0
 40
8.000000000000044
 50
354.9999999999997
 51
26.11853571625853
  0
ARC
  8
1
 62
7
 10
90.67660583253625
 20
-14.26094474051063
 30
0
 40
8.000000000000034
 50
235
 51
266.1185357162589
  0
ARC
  8
1
 62
7
 10
91.69579935959182
 20
-15.50252289369931
 30
0
 40
15.0000000000001
 50
239.9999999999999
 51
277.5775104558021
  0
ARC
  8
1
 62
7
 10
91.69579935959182
 20
15.24137894064826
 30
0
 40
15.00000000000002
 50
120
 51
157.5775104558023
  0
ARC
  8
1
 62
7
 10
93.28063434456469
 20
15.50323734985669
 30
0
 40
7.999999999999997
 50
115
 51
146.1185357162586
  0
ARC
  8
1
 62
7
 10
100.5707993595918
 20
-0.130571976525517
 30
0
 40
5.999999999999997
 50
109.4712206344906
 51
70.52877936550931
  0
ARC
  8
1
 62
7
 10
80.65221507254974
 20
11.36942802347449
 30
0
 40
8.500000000000018
 50
25.41833270655325
 51
274.5816672934467
  0
ARC
  8
1
 62
7
 10
91.03899209471153
 20
16.30550572666071
 30
0
 40
2.999999999999999
 50
205.4183327065536
 51
300.1108172950893
  0
ARC
  8
1
 62
7
 10
81.57083489761742
 20
-0.0938235927551937
 30
0
 40
3.000000000000001
 50
359.8891827049101
 51
94.58166729344647
  0
ARC
  8
1
 62
7
 10
110.0389565566859
 20
-16.60339806348205
 30
0
 40
2.999999999999976
 50
119.8891827049091
 51
214.5816672934473
  0
ARC
  8
1
 62
7
 10
100.5707993595918
 20
-23.13057197652552
 30
0
 40
8.499999999999996
 50
145.4183327065534
 51
34.58166729344632
  0
ARC
  8
1
 62
7
 10
91.1026421624977
 20
-16.60339806348204
 30
0
 40
3.000000000000009
 50
325.4183327065532
 51
60.11081729508959
  0
ARC
  8
1
 62
7
 10
110.1026066244722
 20
16.30550572666068
 30
0
 40
3.000000000000027
 50
239.8891827049092
 51
334.581667293447
  0
ARC
  8
1
 62
7
 10
120.4893836466339
 20
11.36942802347448
 30
0
 40
8.500000000000014
 50
265.4183327065535
 51
154.5816672934464
  0
ARC
  8
1
 62
7
 10
119.5707638215663
 20
-0.09382359275522922
 30
0
 40
2.999999999999998
 50
85.41833270655492
 51
180.1108172950898
  0
ARC
  8
1
 62
7
 10
100.5707993595918
 20
-0.130571976525517
 30
0
 40
22.99999999999997
 50
304.3011527567916
 51
355.6988472432085
  0
ARC
  8
1
 62
7
 10
83.38644081750921
 20
-1.634008538922608
 30
0
 40
8.000000000000009
 50
153.881464283741
 51
185.0000000000001
  0
ARC
  8
1
 62
7
 10
100.5707993595918
 20
-0.130571976525517
 30
0
 40
42.50000000000002
 50
223.1628971402917
 51
226.8371028597083
  0
ARC
  8
1
 62
7
 10
100.5707993595918
 20
-0.130571976525517
 30
0
 40
42.50000000000003
 50
133.1628971402917
 51
136.8371028597084
  0
ARC
  8
1
 62
7
 10
100.5707993595918
 20
-0.130571976525517
 30
0
 40
42.5
 50
43.16289714029166
 51
46.8371028597084
  0
ARC
  8
1
 62
7
 10
100.5707993595918
 20
-0.130571976525517
 30
0
 40
42.49999999999996
 50
313.1628971402916
 51
316.8371028597083
  0
ARC
  8
1
 62
7
 10
130.4863081034773
 20
-2.380535663901804
 30
0
 40
6.999999999999994
 50
126.019062313179
 51
175.6988472432084
  0
ARC
  8
1
 62
7
 10
113.5800280206742
 20
26.90200040650295
 30
0
 40
7.000000000000006
 50
244.3011527567914
 51
293.9809376868211
  0
ARC
  8
1
 62
7
 10
87.56157069850946
 20
26.90200040650295
 30
0
 40
6.999999999999996
 50
246.0190623131791
 51
295.6988472432084
  0
ARC
  8
1
 62
7
 10
70.65529061570635
 20
-2.380535663901797
 30
0
 40
7.00000000000002
 50
4.301152756791698
 51
53.98093768682077
  0
ARC
  8
1
 62
7
 10
83.66451927678868
 20
-24.91318067217768
 30
0
 40
7.000000000000007
 50
6.019062313179069
 51
55.69884724320819
  0
ARC
  8
1
 62
7
 10
117.4770794423949
 20
-24.9131806721777
 30
0
 40
7.000000000000028
 50
124.3011527567914
 51
173.9809376868209
  0
ARC
  8
1
 62
3
  6
DASHDOT
 10
100.5707993595918
 20
-0.130571976525517
 30
0
 40
37.49999999999998
 50
37.49999999999998
 51
52.49999999999999
  0
ARC
  8
1
 62
3
  6
DASHDOT
 10
100.5707993595918
 20
-0.130571976525517
 30
0
 40
37.49999999999995
 50
127.5
 51
142.5
  0
ARC
  8
1
 62
3
  6
DASHDOT
 10
100.5707993595918
 20
-0.130571976525517
 30
0
 40
37.49999999999995
 50
217.5
 51
232.5
  0
ARC
  8
1
 62
3
  6
DASHDOT
 10
100.5707993595918
 20
-0.130571976525517
 30
0
 40
37.49999999999996
 50
307.5
 51
322.5
  0
ARC
  8
1
 62
7
 10
-64.19982687563369
 20
-25.63057197652557
 30
0
 40
7.499999999999999
 50
206.7244707948551
 51
270
  0
ARC
  8
1
 62
7
 10
-35.69867240963028
 20
15.36942802347448
 30
0
 40
0.5
 50
0
 51
90
  0
ARC
  8
1
 62
7
 10
-39.39867240963027
 20
16.36942802347448
 30
0
 40
0.5
 50
180
 51
270
  0
ARC
  8
1
 62
7
 10
-35.39867240963027
 20
-15.93057197652553
 30
0
 40
0.1999999999999904
 50
270
 51
0
  0
ARC
  8
1
 62
7
 10
-48.39867240963027
 20
-16.63057197652552
 30
0
 40
0.5
 50
0
 51
90
  0
ARC
  8
1
 62
7
 10
-48.39867240963027
 20
16.36942802347448
 30
0
 40
0.5
 50
270
 51
0
  0
ARC
  8
1
 62
7
 10
-47.39867240963027
 20
22.36709093788508
 30
0
 40
0.5
 50
90
 51
180
  0
ARC
  8
1
 62
7
 10
-40.39867240963027
 20
22.36709093788508
 30
0
 40
0.5
 50
0
 51
90
  0
ARC
  8
1
 62
7
 10
-47.39867240963027
 20
-31.12902813622944
 30
0
 40
0.5
 50
180
 51
270
  0
ARC
  8
1
 62
7
 10
-46.39867240963027
 20
-32.12902813622944
 30
0
 40
0.5
 50
0
 51
90
  0
ARC
  8
1
 62
7
 10
-45.39867240963027
 20
-32.62840514541108
 30
0
 40
0.5
 50
180
 51
270
  0
ARC
  8
1
 62
7
 10
-40.39867240963027
 20
-32.62840514541108
 30
0
 40
0.5
 50
270
 51
0
  0
ARC
  8
1
 62
7
 10
-39.39867240963027
 20
-32.12902813622944
 30
0
 40
0.4999999999999965
 50
90
 51
180
  0
ARC
  8
1
 62
7
 10
-35.89867240963027
 20
-31.12902813622944
 30
0
 40
0.5
 50
270
 51
0
  0
ARC
  8
1
 62
7
 10
-64.19982687563369
 20
25.36942802347448
 30
0
 40
7.499999999999996
 50
90
 51
153.2755292051455
  0
CIRCLE
  8
1
 62
7
 10
120.4893836466339
 20
11.36942802347448
 30
0
 40
1.5
  0
CIRCLE
  8
1
 62
7
 10
120.4893836466339
 20
11.36942802347448
 30
0
 40
4.5
  0
CIRCLE
  8
1
 62
7
 10
80.65221507254974
 20
11.36942802347449
 30
0
 40
1.5
  0
CIRCLE
  8
1
 62
7
 10
100.5707993595918
 20
-23.13057197652552
 30
0
 40
1.5
  0
CIRCLE
  8
1
 62
7
 10
100.5707993595918
 20
28.86942802347447
 30
0
 40
3
  0
CIRCLE
  8
1
 62
7
 10
75.45606264984308
 20
-14.63057197652551
 30
0
 40
3
  0
CIRCLE
  8
1
 62
7
 10
125.6855360693405
 20
-14.63057197652552
 30
0
 40
2.999999999999986
  0
CIRCLE
  8
1
 62
7
 10
100.5707993595918
 20
-0.130571976525517
 30
0
 40
33.25
  0
CIRCLE
  8
1
 62
7
 10
100.5707993595918
 20
-0.130571976525517
 30
0
 40
12
  0
CIRCLE
  8
1
 62
7
 10
127.0873036540873
 20
26.38593231797
 30
0
 40
2.25
  0
CIRCLE
  8
1
 62
7
 10
100.5707993595918
 20
-23.13057197652552
 30
0
 40
4.5
  0
CIRCLE
  8
1
 62
7
 10
80.65221507254974
 20
11.36942802347449
 30
0
 40
4.5
  0
CIRCLE
  8
1
 62
7
 10
100.5707993595918
 20
-0.130571976525517
 30
0
 40
16
  0
CIRCLE
  8
1
 62
7
 10
120.4893836466339
 20
11.36942802347448
 30
0
 40
6.5
  0
CIRCLE
  8
1
 62
7
 10
80.65221507254974
 20
11.36942802347449
 30
0
 40
6.5
  0
CIRCLE
  8
1
 62
7
 10
100.5707993595918
 20
-23.13057197652552
 30
0
 40
6.5
  0
CIRCLE
  8
1
 62
7
 10
74.05429506509621
 20
26.38593231797
 30
0
 40
2.249999999999972
  0
CIRCLE
  8
1
 62
7
 10
74.05429506509621
 20
-26.64707627102107
 30
0
 40
2.249999999999901
  0
CIRCLE
  8
1
 62
7
 10
127.0873036540873
 20
-26.64707627102101
 30
0
 40
2.25
  0
TEXT
  8
1
 62
7
 10
-69.03100698650118
 20
84.49166205488969
 30
0
 40
3
  1
DC2301
 41
0.9
  7
SIMPLEX
  0
TEXT
  8
1
 62
7
 10
-69.03100698650118
 20
89.74166205488969
 30
0
 40
3
  1
TMAB 0.6
 41
0.9
  7
SIMPLEX
  0
ENDSEC
  0
EOF
