  0
SECTION
  2
HEADER
  9
$ACADVER
  1
AC1009
  9
$INSBASE
 10
0
 20
0
  9
$EXTMIN
 10
-90.5
 20
-55
  9
$EXTMAX
 10
173.25
 20
120.4831373109588
  9
$LIMMIN
 10
-90.5
 20
-55
  9
$LIMMAX
 10
173.25
 20
120.4831373109588
  9
$VIEWCTR
 10
10
 20
10
  9
$VIEWSIZE
 40
10
  9
$SNAPMODE
 70
0
  9
$SNAPUNIT
 10
1
 20
1
  9
$SNAPBASE
 10
0
 20
0
  9
$SNAPANG
 50
0
  9
$SNAPSTYLE
 70
0
  9
$SNAPISOPAIR
 70
0
  9
$GRIDMODE
 70
0
  9
$GRIDUNIT
 10
0
 20
0
  9
$ORTHOMODE
 70
0
  9
$REGENMODE
 70
1
  9
$FILLMODE
 70
1
  9
$QTEXTMODE
 70
0
  9
$DRAGMODE
 70
2
  9
$LTSCALE
 40
1
  9
$OSMODE
 70
0
  9
$ATTMODE
 70
1
  9
$TEXTSIZE
 40
3.5
  9
$TRACEWID
 40
0.5
  9
$TEXTSTYLE
  7
STANDARD
  9
$CLAYER
  8
0
  9
$CELTYPE
  6
BYLAYER
  9
$CECOLOR
 62
256
  9
$DIMSCALE
 40
1
  9
$DIMASZ
 40
0.18
  9
$DIMEXO
 40
0.0625
  9
$DIMDLI
 40
0.38
  9
$DIMRND
 40
0
  9
$DIMDLE
 40
0
  9
$DIMEXE
 40
0.18
  9
$DIMTP
 40
0
  9
$DIMTM
 40
0
  9
$DIMTXT
 40
0.18
  9
$DIMCEN
 40
0.09
  9
$DIMTSZ
 40
0
  9
$DIMTOL
 70
0
  9
$DIMLIM
 70
0
  9
$DIMTIH
 70
1
  9
$DIMTOH
 70
1
  9
$DIMSE1
 70
0
  9
$DIMSE2
 70
0
  9
$DIMTAD
 70
0
  9
$DIMZIN
 70
0
  9
$DIMBLK
  1

  9
$DIMASO
 70
1
  9
$DIMSHO
 70
1
  9
$DIMPOST
  1

  9
$DIMAPOST
  1

  9
$DIMALT
 70
0
  9
$DIMALTD
 70
2
  9
$DIMALTF
 40
25.4
  9
$DIMLFAC
 40
1
  9
$DIMTOFL
 70
0
  9
$DIMTVP
 40
0
  9
$DIMTIX
 70
0
  9
$DIMSOXD
 70
0
  9
$DIMSAH
 70
0
  9
$DIMBLK1
  1

  9
$DIMBLK2
  1

  9
$DIMSTYLE
  2
*UNNAMED
  9
$DIMCLRD
 70
0
  9
$DIMCLRE
 70
0
  9
$DIMCLRT
 70
0
  9
$DIMTFAC
 40
1
  9
$DIMGAP
 40
0.09
  9
$LUNITS
 70
2
  9
$LUPREC
 70
4
  9
$AXISMODE
 70
0
  9
$AXISUNIT
 10
0
 20
0
  9
$SKETCHINC
 40
0.1
  9
$FILLETRAD
 40
2
  9
$AUNITS
 70
0
  9
$AUPREC
 70
0
  9
$MENU
  1
ACAD
  9
$ELEVATION
 40
0
  9
$THICKNESS
 40
0
  9
$VIEWDIR
 10
0
 20
0
 30
1
  9
$LIMCHECK
 70
0
  9
$BLIPMODE
 70
1
  9
$CHAMFERA
 40
0
  9
$CHAMFERB
 40
0
  9
$FASTZOOM
 70
1
  9
$SKPOLY
 70
0
  9
$ANGBASE
 50
0
  9
$ANGDIR
 70
0
  9
$PDMODE
 70
0
  9
$PDSIZE
 40
0
  9
$PLINEWID
 40
0
  9
$COORDS
 70
2
  0
ENDSEC
  0
SECTION
  2
TABLES
  0
TABLE
  2
DIMSTYLE
 70
0
  0
ENDTAB
  0
TABLE
  2
LTYPE
 70
9
  0
LTYPE
  2
CONTINUOUS
 70
64
  3
Solid line
 72
65
 73
0
 40
0
  0
LTYPE
  2
BORDER
 70
64
  3
__ __ . __ __ .
 72
65
 73
6
 40
12.14638157894737
 49
3.470394736842105
 49
-1.735197368421053
 49
3.470394736842105
 49
-1.735197368421053
 49
0
 49
-1.735197368421053
  0
LTYPE
  2
CENTER
 70
64
  3
____ _ ____ _
 72
65
 73
4
 40
13.88157894736842
 49
8.675986842105264
 49
-1.735197368421053
 49
1.735197368421053
 49
-1.735197368421053
  0
LTYPE
  2
DASHDOT
 70
64
  3
__ . __ . __ .
 72
65
 73
4
 40
6.940789473684211
 49
3.470394736842105
 49
-1.735197368421053
 49
0
 49
-1.735197368421053
  0
LTYPE
  2
DASHED
 70
64
  3
__ __ __ __ __
 72
65
 73
2
 40
5.205592105263158
 49
3.470394736842105
 49
-1.735197368421053
  0
LTYPE
  2
DIVIDE
 70
64
  3
__ . . __ . . 
 72
65
 73
6
 40
8.675986842105264
 49
3.470394736842105
 49
-1.735197368421053
 49
0
 49
-1.735197368421053
 49
0
 49
-1.735197368421053
  0
LTYPE
  2
DOT
 70
64
  3
..............
 72
65
 73
4
 40
3.470394736842105
 49
0
 49
-1.735197368421053
 49
0
 49
-1.735197368421053
  0
LTYPE
  2
HIDDEN
 70
64
  3
_ _ _ _ _ _ _
 72
65
 73
2
 40
2.602796052631579
 49
1.735197368421053
 49
-0.8675986842105263
  0
LTYPE
  2
PHANTOM
 70
64
  3
_____ _ _ _____ _ _ 
 72
65
 73
6
 40
17.35197368421053
 49
8.675986842105264
 49
-1.735197368421053
 49
1.735197368421053
 49
-1.735197368421053
 49
1.735197368421053
 49
-1.735197368421053
  0
ENDTAB
  0
TABLE
  2
LAYER
 70
3
  0
LAYER
  2
1
 70
0
 62
7
  6
CONTINUOUS
  0
LAYER
  2
0
 70
0
 62
7
  6
CONTINUOUS
  0
ENDTAB
  0
TABLE
  2
STYLE
 70
4
  0
STYLE
  2
STANDARD
 70
0
 40
0
 41
1
 50
0
 71
0
 42
3.5
  3
txt
  4

  0
STYLE
  2
SIMPLEX
 70
0
 40
0
 41
1
 50
0
 71
0
 42
3.5
  3
simplex
  4

  0
STYLE
  2
COMPLEX
 70
0
 40
0
 41
1
 50
0
 71
0
 42
3.5
  3
complex
  4

  0
STYLE
  2
ITALIC
 70
0
 40
0
 41
1
 50
0
 71
0
 42
3.5
  3
italic
  4

  0
ENDTAB
  0
TABLE
  2
VIEW
 70
0
  0
ENDTAB
  0
ENDSEC
  0
SECTION
  2
BLOCKS
  0
ENDSEC
  0
SECTION
  2
ENTITIES
  0
LINE
  8
1
 62
3
  6
DASHDOT
 10
45.49999999999999
 20
0
 30
0
 11
40.5
 21
0
 31
0
  0
LINE
  8
1
 62
7
 10
21.49999999999999
 20
-22.5
 30
0
 11
24.99999999999999
 21
-22.5
 31
0
  0
LINE
  8
1
 62
7
 10
21.49999999999999
 20
22.5
 30
0
 11
25
 21
22.5
 31
0
  0
LINE
  8
1
 62
7
 10
24.49999999999999
 20
-30.00000000000003
 30
0
 11
24.99999999999999
 21
-30.00000000000003
 31
0
  0
LINE
  8
1
 62
7
 10
24.49999999999999
 20
-42.75
 30
0
 11
24.49999999999999
 21
-30.00000000000003
 31
0
  0
LINE
  8
1
 62
7
 10
21.10000000000002
 20
-14.99999999999999
 30
0
 11
21.10000000000002
 21
-42.5
 31
0
  0
LINE
  8
1
 62
7
 10
21.49999999999999
 20
-14.99999999999999
 30
0
 11
21.49999999999999
 21
-42.75
 31
0
  0
LINE
  8
1
 62
7
 10
25
 20
-14.99999999999999
 30
0
 11
24.99999999999999
 21
-42
 31
0
  0
LINE
  8
1
 62
3
  6
DASHDOT
 10
32
 20
6.5
 30
0
 11
31.99999999999997
 21
32.99998946955515
 31
0
  0
LINE
  8
1
 62
7
 10
30.09999999999999
 20
9.5
 30
0
 11
30.09999999999998
 21
15.99998946955515
 31
0
  0
LINE
  8
1
 62
7
 10
33.89999999999998
 20
15.99998946955515
 30
0
 11
33.89999999999999
 21
9.5
 31
0
  0
LINE
  8
1
 62
3
 10
29.49999999999999
 20
9.5
 30
0
 11
29.49999999999998
 21
15.99998946955515
 31
0
  0
LINE
  8
1
 62
3
 10
34.49999999999999
 20
15.99998946955515
 30
0
 11
34.49999999999999
 21
9.5
 31
0
  0
LINE
  8
1
 62
7
 10
28.99999999999998
 20
15.99998946955515
 30
0
 11
34.99999999999997
 21
15.99998946955515
 31
0
  0
LINE
  8
1
 62
7
 10
34.99999999999997
 20
29.99998946955515
 30
0
 11
34.99999999999997
 21
15.99998946955515
 31
0
  0
LINE
  8
1
 62
7
 10
28.99999999999998
 20
15.99998946955515
 30
0
 11
28.99999999999998
 21
29.99998946955515
 31
0
  0
LINE
  8
1
 62
7
 10
20.5
 20
-7.492321565203511
 30
0
 11
40.49999999999999
 21
-7.492321565203511
 31
0
  0
LINE
  8
1
 62
7
 10
20.5
 20
7.5
 30
0
 11
40.49999999999999
 21
7.5
 31
0
  0
LINE
  8
1
 62
7
 10
20.5
 20
9.5
 30
0
 11
40.49999999999999
 21
9.5
 31
0
  0
LINE
  8
1
 62
7
 10
26.79999999999999
 20
-19.99999999999999
 30
0
 11
26
 21
-19.99999999999999
 31
0
  0
LINE
  8
1
 62
7
 10
25
 20
-14.99999999999999
 30
0
 11
20.99999999999998
 21
-14.99999999999999
 31
0
  0
LINE
  8
1
 62
7
 10
20.5
 20
14.5
 30
0
 11
20.5
 21
-14.49999999999999
 31
0
  0
LINE
  8
1
 62
7
 10
27.29999999999999
 20
-20.49999999999999
 30
0
 11
27.29999999999999
 21
-38.99962221439434
 31
0
  0
LINE
  8
1
 62
7
 10
27.79999999999999
 20
-39.49962221439433
 30
0
 11
28.99999999999999
 21
-39.49962221439433
 31
0
  0
LINE
  8
1
 62
7
 10
29.49999999999999
 20
-39.99962221439433
 30
0
 11
29.49999999999999
 21
-40.99981196036936
 31
0
  0
LINE
  8
1
 62
7
 10
29.99999999999999
 20
-41.49981196036936
 30
0
 11
35.99999999999999
 21
-41.49981196036936
 31
0
  0
LINE
  8
1
 62
7
 10
36.49999999999999
 20
-40.99981196036936
 30
0
 11
36.49999999999999
 21
-39.99962221439433
 31
0
  0
LINE
  8
1
 62
7
 10
36.99999999999999
 20
-39.49962221439433
 30
0
 11
39.79999999999998
 21
-39.49962221439433
 31
0
  0
LINE
  8
1
 62
7
 10
40.29999999999998
 20
-38.99962221439434
 30
0
 11
40.29999999999998
 21
-19.99999999999999
 31
0
  0
LINE
  8
1
 62
7
 10
40.29999999999998
 20
-19.99999999999999
 30
0
 11
40.49999999999999
 21
-19.99999999999999
 31
0
  0
LINE
  8
1
 62
7
 10
40.49999999999999
 20
-19.99999999999999
 30
0
 11
40.49999999999999
 21
19.5
 31
0
  0
LINE
  8
1
 62
7
 10
27.29999999999999
 20
20.5
 30
0
 11
27.29999999999999
 21
29.49998946955515
 31
0
  0
LINE
  8
1
 62
7
 10
27.79999999999999
 20
29.99998946955515
 30
0
 11
35.99999999999999
 21
29.99998946955515
 31
0
  0
LINE
  8
1
 62
7
 10
36.49999999999999
 20
29.49998946955515
 30
0
 11
36.49999999999999
 21
20.5
 31
0
  0
LINE
  8
1
 62
7
 10
36.99999999999999
 20
20
 30
0
 11
39.99999999999999
 21
20
 31
0
  0
LINE
  8
1
 62
7
 10
26.79999999999999
 20
20
 30
0
 11
26
 21
20
 31
0
  0
LINE
  8
1
 62
7
 10
25.49999999999999
 20
30.06582624879366
 30
0
 11
25.5
 21
15.5
 31
0
  0
LINE
  8
1
 62
7
 10
25
 20
15
 30
0
 11
20.99999999999998
 21
15
 31
0
  0
LINE
  8
1
 62
7
 10
8.455104373335601
 20
70.92711124288152
 30
0
 11
8.455104373335601
 21
74.27736577882311
 31
0
  0
LINE
  8
1
 62
7
 10
8.709419488942672
 20
70.92711124288152
 30
0
 11
8.709419488942672
 21
74.27736577882311
 31
0
  0
LINE
  8
1
 62
7
 10
9.744895626664441
 20
74.27736577882311
 30
0
 11
9.744895626664441
 21
70.92711124288152
 31
0
  0
LINE
  8
1
 62
7
 10
9.49058051105737
 20
74.27736577882311
 30
0
 11
9.49058051105737
 21
70.92711124288152
 31
0
  0
LINE
  8
1
 62
7
 10
7.850000000000023
 20
70.92711124288152
 30
0
 11
7.850000000000023
 21
42.49478940414087
 31
0
  0
LINE
  8
1
 62
7
 10
10.35000000000002
 20
70.92711124288152
 30
0
 11
10.35000000000002
 21
42.50000000000001
 31
0
  0
LINE
  8
1
 62
7
 10
7.850000000000023
 20
70.92711124288152
 30
0
 11
10.35000000000002
 21
70.92711124288152
 31
0
  0
LINE
  8
1
 62
3
  6
DASHDOT
 10
-3
 20
-49
 30
0
 11
5.099999999999991
 21
-49
 31
0
  0
LINE
  8
1
 62
7
 10
0
 20
-55
 30
0
 11
2.099999999999991
 21
-55
 31
0
  0
LINE
  8
1
 62
7
 10
2.099999999999991
 20
41
 30
0
 11
2.099999999999991
 21
-55
 31
0
  0
LINE
  8
1
 62
7
 10
0
 20
41
 30
0
 11
0
 21
-55
 31
0
  0
LINE
  8
1
 62
7
 10
0
 20
-51.75
 30
0
 11
2.099999999999991
 21
-51.75
 31
0
  0
LINE
  8
1
 62
7
 10
0
 20
-46.25
 30
0
 11
2.099999999999991
 21
-46.25
 31
0
  0
LINE
  8
1
 62
7
 10
2.099999999999991
 20
-22.5
 30
0
 11
0
 21
-22.5
 31
0
  0
LINE
  8
1
 62
7
 10
0
 20
22.5
 30
0
 11
2.099999999999991
 21
22.5
 31
0
  0
LINE
  8
1
 62
7
 10
0
 20
41
 30
0
 11
2.099999999999991
 21
41
 31
0
  0
LINE
  8
1
 62
7
 10
21.10000000000002
 20
42.5
 30
0
 11
21.10000000000002
 21
15
 31
0
  0
LINE
  8
1
 62
7
 10
21.10000000000002
 20
23.10000000000002
 30
0
 11
7.100000000000023
 21
23.10000000000002
 31
0
  0
LINE
  8
1
 62
7
 10
7.100000000000023
 20
-23.10000000000002
 30
0
 11
21.10000000000002
 21
-23.10000000000002
 31
0
  0
LINE
  8
1
 62
7
 10
21.10000000000002
 20
-42.5
 30
0
 11
8.100000000000023
 21
-42.5
 31
0
  0
LINE
  8
1
 62
7
 10
24.99999999999999
 20
-23.75
 30
0
 11
25.49999999999999
 21
-23.75
 31
0
  0
LINE
  8
1
 62
7
 10
24.99999999999999
 20
-37.00000000000003
 30
0
 11
25.49999999999999
 21
-37.00000000000003
 31
0
  0
LINE
  8
1
 62
7
 10
25.5
 20
-15.49999999999999
 30
0
 11
25.49999999999999
 21
-42
 31
0
  0
LINE
  8
1
 62
7
 10
25.49999999999999
 20
-34.50000000000003
 30
0
 11
27.29999999999999
 21
-34.50000000000003
 31
0
  0
LINE
  8
1
 62
7
 10
25.49999999999999
 20
-25.50000000000003
 30
0
 11
27.29999999999999
 21
-25.50000000000003
 31
0
  0
LINE
  8
1
 62
7
 10
24.99999999999999
 20
-42
 30
0
 11
25.49999999999999
 21
-42
 31
0
  0
LINE
  8
1
 62
7
 10
26.39999999999999
 20
33.89999999999998
 30
0
 11
26.89999999999999
 21
34.39999999999998
 31
0
  0
LINE
  8
1
 62
7
 10
26.89999999999999
 20
40.59999999999997
 30
0
 11
26.39999999999999
 21
41.09999999999997
 31
0
  0
LINE
  8
1
 62
7
 10
25.49999999999999
 20
41.09999999999997
 30
0
 11
25.49999999999999
 21
33.89999999999998
 31
0
  0
LINE
  8
1
 62
7
 10
24.99999999999999
 20
33.89999999999998
 30
0
 11
26.39999999999999
 21
33.89999999999998
 31
0
  0
LINE
  8
1
 62
7
 10
26.89999999999999
 20
40.59999999999997
 30
0
 11
26.89999999999999
 21
34.39999999999998
 31
0
  0
LINE
  8
1
 62
7
 10
24.99999999999999
 20
41.09999999999997
 30
0
 11
26.39999999999999
 21
41.09999999999997
 31
0
  0
LINE
  8
1
 62
7
 10
24.49999999999999
 20
42.75
 30
0
 11
24.49999999999999
 21
30
 31
0
  0
LINE
  8
1
 62
7
 10
24.49999999999999
 20
33
 30
0
 11
24.99999999999999
 21
33
 31
0
  0
LINE
  8
1
 62
7
 10
24.49999999999999
 20
31.86602540378442
 30
0
 11
24.99999999999999
 21
30
 31
0
  0
LINE
  8
1
 62
7
 10
24.99999999999999
 20
31.93185165257813
 30
0
 11
25.49999999999999
 21
30.06582624879366
 31
0
  0
LINE
  8
1
 62
7
 10
24.99999999999999
 20
42
 30
0
 11
24.99999999999999
 21
31.93185165257813
 31
0
  0
LINE
  8
1
 62
7
 10
24.49999999999999
 20
42
 30
0
 11
24.99999999999999
 21
42
 31
0
  0
LINE
  8
1
 62
7
 10
24.49999999999999
 20
-42.75
 30
0
 11
21.49999999999999
 21
-42.75
 31
0
  0
LINE
  8
1
 62
7
 10
24.99999999999999
 20
30
 30
0
 11
25
 21
15
 31
0
  0
LINE
  8
1
 62
7
 10
24.49999999999999
 20
30
 30
0
 11
24.99999999999999
 21
30
 31
0
  0
LINE
  8
1
 62
7
 10
21.49999999999999
 20
42.75
 30
0
 11
24.49999999999999
 21
42.75
 31
0
  0
LINE
  8
1
 62
3
  6
DASHDOT
 10
0
 20
0
 30
0
 11
-5
 21
0
 31
0
  0
LINE
  8
1
 62
7
 10
9.08352987950347
 20
70.92711124288152
 30
0
 11
9.08352987950347
 21
74.25673021942981
 31
0
  0
LINE
  8
1
 62
7
 10
21.49999999999999
 20
42.75
 30
0
 11
24.49999999999999
 21
42.75
 31
0
  0
LINE
  8
1
 62
7
 10
21.49999999999999
 20
42.75
 30
0
 11
21.49999999999999
 21
15
 31
0
  0
LINE
  8
1
 62
7
 10
8.100000000000023
 20
42.5
 30
0
 11
21.10000000000002
 21
42.5
 31
0
  0
LINE
  8
1
 62
7
 10
99.33548938766811
 20
16.83813805281358
 30
0
 11
102.5192378864668
 21
15
 31
0
  0
LINE
  8
1
 62
7
 10
105.5192378864668
 20
13.26794919243116
 30
0
 11
108.7029863852657
 21
11.42981113961758
 31
0
  0
LINE
  8
1
 62
7
 10
109.7029863852656
 20
13.16186194718642
 30
0
 11
106.5192378864668
 21
15
 31
0
  0
LINE
  8
1
 62
7
 10
103.5192378864668
 20
16.7320508075689
 30
0
 11
100.335489387668
 21
18.57018886038242
 31
0
  0
LINE
  8
1
 62
3
  6
DASHDOT
 10
135.5
 20
0
 30
0
 11
125.5
 21
0
 31
0
  0
LINE
  8
1
 62
3
  6
DASHDOT
 10
130.5
 20
-5
 30
0
 11
130.5
 21
5
 31
0
  0
LINE
  8
1
 62
7
 10
130.429846659793
 20
71.23073203382272
 30
0
 11
130.429846659793
 21
42.74994243866134
 31
0
  0
LINE
  8
1
 62
7
 10
171.5
 20
36.66060555964674
 30
0
 11
171.5
 21
12.10630001280326
 31
0
  0
LINE
  8
1
 62
7
 10
93.8393944403532
 20
-41
 30
0
 11
118.3936999871968
 21
-40.99999999999999
 31
0
  0
LINE
  8
1
 62
7
 10
89.4999999999999
 20
36.66060555964674
 30
0
 11
89.4999999999999
 21
12.10630001280303
 31
0
  0
LINE
  8
1
 62
7
 10
93.8393944403532
 20
41
 30
0
 11
118.3936999871968
 21
41
 31
0
  0
LINE
  8
1
 62
7
 10
128
 20
71.23073203382272
 30
0
 11
133
 21
71.23073203382272
 31
0
  0
LINE
  8
1
 62
7
 10
133
 20
71.23073203382272
 30
0
 11
133
 21
42.67683798033778
 31
0
  0
LINE
  8
1
 62
7
 10
128
 20
71.23073203382272
 30
0
 11
128
 21
42.61008475316724
 31
0
  0
LINE
  8
1
 62
7
 10
131.0695540734568
 20
74.80601760292592
 30
0
 11
131.0695540734568
 21
71.23073203382272
 31
0
  0
LINE
  8
1
 62
7
 10
131.6359667421384
 20
74.74308286196131
 30
0
 11
131.6359667421384
 21
71.23073203382272
 31
0
  0
LINE
  8
1
 62
7
 10
132.20237941082
 20
74.68014812099671
 30
0
 11
132.20237941082
 21
71.23073203382272
 31
0
  0
LINE
  8
1
 62
7
 10
128.7976205891799
 20
71.23073203382272
 30
0
 11
128.7976205891799
 21
74.68014812099671
 31
0
  0
LINE
  8
1
 62
7
 10
129.3640332578615
 20
71.23073203382272
 30
0
 11
129.3640332578615
 21
74.74308286196131
 31
0
  0
LINE
  8
1
 62
7
 10
129.9304459265431
 20
71.23073203382272
 30
0
 11
129.9304459265431
 21
74.80601760292592
 31
0
  0
LINE
  8
1
 62
7
 10
131.5
 20
-35.40832691319595
 30
0
 11
131.5
 21
-31.73205080756892
 31
0
  0
LINE
  8
1
 62
7
 10
131.5
 20
-28.26794919243118
 30
0
 11
131.5
 21
-24.59167308680398
 31
0
  0
LINE
  8
1
 62
7
 10
129.5000000000001
 20
-24.59167308680405
 30
0
 11
129.5
 21
-28.26794919243116
 31
0
  0
LINE
  8
1
 62
7
 10
129.5
 20
-31.73205080756892
 30
0
 11
129.5000000000001
 21
-35.40832691319602
 31
0
  0
LINE
  8
1
 62
7
 10
160.664510612332
 20
18.57018886038239
 30
0
 11
157.4807621135332
 21
16.73205080756891
 31
0
  0
LINE
  8
1
 62
7
 10
154.4807621135333
 20
15.00000000000003
 30
0
 11
151.2970136147344
 21
13.1618619471864
 31
0
  0
LINE
  8
1
 62
7
 10
152.2970136147344
 20
11.42981113961763
 30
0
 11
155.4807621135332
 21
13.26794919243116
 31
0
  0
LINE
  8
1
 62
7
 10
158.4807621135332
 20
15.00000000000004
 30
0
 11
161.664510612332
 21
16.83813805281362
 31
0
  0
LINE
  8
1
 62
7
 10
128
 20
7.071067811865476
 30
0
 11
128
 21
9.5
 31
0
  0
LINE
  8
1
 62
7
 10
128
 20
9.5
 30
0
 11
133
 21
9.5
 31
0
  0
LINE
  8
1
 62
7
 10
133
 20
9.5
 30
0
 11
133
 21
7.071067811865476
 31
0
  0
LINE
  8
1
 62
7
 10
89.4999999999999
 20
-12.10630001280303
 30
0
 11
89.4999999999999
 21
-36.66060555964671
 31
0
  0
LINE
  8
1
 62
7
 10
142.6063000128033
 20
41
 30
0
 11
167.1606055596466
 21
41
 31
0
  0
LINE
  8
1
 62
7
 10
171.5
 20
-12.10630001280324
 30
0
 11
171.5
 21
-36.66060555964671
 31
0
  0
LINE
  8
1
 62
7
 10
142.6063000128033
 20
-41
 30
0
 11
167.1606055596466
 21
-41
 31
0
  0
LINE
  8
1
 62
7
  6
DASHED
 10
127.5
 20
15.99998946955515
 30
0
 11
127.5
 21
29.84962311319862
 31
0
  0
LINE
  8
1
 62
7
  6
DASHED
 10
127.5
 20
15.99998946955515
 30
0
 11
133.5
 21
15.99998946955515
 31
0
  0
LINE
  8
1
 62
3
  6
DASHED
 10
133
 20
15.99998946955515
 30
0
 11
133
 21
9.5
 31
0
  0
LINE
  8
1
 62
3
  6
DASHED
 10
128
 20
9.5
 30
0
 11
128
 21
15.99998946955515
 31
0
  0
LINE
  8
1
 62
7
  6
DASHED
 10
132.4
 20
15.99998946955515
 30
0
 11
132.4
 21
9.5
 31
0
  0
LINE
  8
1
 62
7
  6
DASHED
 10
128.6
 20
9.5
 30
0
 11
128.6
 21
15.99998946955515
 31
0
  0
LINE
  8
1
 62
7
  6
DASHED
 10
118.1436026590818
 20
-10.59807094613088
 30
0
 11
106.1494680905788
 21
-17.52288776795264
 31
0
  0
LINE
  8
1
 62
7
  6
DASHED
 10
118.1436026590818
 20
-10.59807094613088
 30
0
 11
115.1436026590818
 21
-5.401918523424271
 31
0
  0
LINE
  8
1
 62
3
  6
DASHED
 10
115.3936026590818
 20
-5.834931225316474
 30
0
 11
123.1262756430421
 21
-1.370470396471639
 31
0
  0
LINE
  8
1
 62
3
  6
DASHED
 10
117.8936026590818
 20
-10.16505824423866
 30
0
 11
125.6262756430421
 21
-5.70059741539383
 31
0
  0
LINE
  8
1
 62
7
  6
DASHED
 10
115.6936026590818
 20
-6.354546467587149
 30
0
 11
123.266688771038
 21
-1.982223162252993
 31
0
  0
LINE
  8
1
 62
7
  6
DASHED
 10
117.5936026590818
 20
-9.645443001967998
 30
0
 11
125.166688771038
 21
-5.273119696633849
 31
0
  0
LINE
  8
1
 62
3
  6
DASHDOT
 10
126.60288568297
 20
-2.249999999999985
 30
0
 11
101.9211616751135
 21
-16.50000000000001
 31
0
  0
LINE
  8
1
 62
3
  6
DASHDOT
 10
130.5
 20
6.5
 30
0
 11
130.5
 21
33.00000000000001
 31
0
  0
LINE
  8
1
 62
7
  6
DASHED
 10
133.5
 20
29.84962311319862
 30
0
 11
133.5
 21
15.99998946955515
 31
0
  0
LINE
  8
1
 62
7
  6
DASHED
 10
103.1494680905788
 20
-12.32673534524602
 30
0
 11
115.1436026590818
 21
-5.401918523424271
 31
0
  0
LINE
  8
1
 62
3
  6
DASHDOT
 10
169.2140962699635
 20
38.71409626996346
 30
0
 11
161.0823682863182
 21
30.58236828631816
 31
0
  0
LINE
  8
1
 62
3
  6
DASHDOT
 10
91.78590373003652
 20
38.71409626996345
 30
0
 11
99.91763171368183
 21
30.58236828631817
 31
0
  0
LINE
  8
1
 62
3
  6
DASHDOT
 10
91.78590373003655
 20
-38.71409626996346
 30
0
 11
99.91763171368183
 21
-30.58236828631817
 31
0
  0
LINE
  8
1
 62
3
  6
DASHDOT
 10
169.2140962699635
 20
-38.71409626996345
 30
0
 11
161.0823682863182
 21
-30.58236828631817
 31
0
  0
LINE
  8
1
 62
7
 10
-49.00000000000001
 20
-39.99962221439433
 30
0
 11
-49.00000000000001
 21
-40.99981196036936
 31
0
  0
LINE
  8
1
 62
7
 10
-56.00000000000001
 20
-39.99962221439433
 30
0
 11
-56.00000000000001
 21
-40.99981196036936
 31
0
  0
LINE
  8
1
 62
7
 10
-60.50000000000001
 20
-30.00000000000003
 30
0
 11
-61.00000000000001
 21
-30.00000000000003
 31
0
  0
LINE
  8
1
 62
7
 10
-60.50000000000001
 20
30
 30
0
 11
-61.00000000000001
 21
30
 31
0
  0
LINE
  8
1
 62
3
  6
DASHDOT
 10
-40.00000000000001
 20
0
 30
0
 11
-45
 21
0
 31
0
  0
LINE
  8
1
 62
7
 10
-60.00000000000001
 20
30.06582624879366
 30
0
 11
-60.00000000000001
 21
-42
 31
0
  0
LINE
  8
1
 62
7
 10
-49.00000000000001
 20
29.49998946955515
 30
0
 11
-49.00000000000001
 21
20.5
 31
0
  0
LINE
  8
1
 62
7
 10
-49.50000000000001
 20
29.99998946955515
 30
0
 11
-57.7
 21
29.99998946955515
 31
0
  0
LINE
  8
1
 62
7
 10
-64.00000000000001
 20
-42.75
 30
0
 11
-64.00000000000001
 21
42.75
 31
0
  0
LINE
  8
1
 62
7
 10
-60.50000000000001
 20
-42
 30
0
 11
-60.50000000000001
 21
30
 31
0
  0
LINE
  8
1
 62
7
 10
-64.39999999999998
 20
42.5
 30
0
 11
-64.39999999999998
 21
-42.5
 31
0
  0
LINE
  8
1
 62
7
 10
-58.7
 20
-19.99999999999999
 30
0
 11
-59.5
 21
-19.99999999999999
 31
0
  0
LINE
  8
1
 62
7
 10
-57.7
 20
-39.49962221439433
 30
0
 11
-56.50000000000001
 21
-39.49962221439433
 31
0
  0
LINE
  8
1
 62
7
 10
-55.50000000000001
 20
-41.49981196036936
 30
0
 11
-49.50000000000001
 21
-41.49981196036936
 31
0
  0
LINE
  8
1
 62
7
 10
-48.50000000000001
 20
-39.49962221439433
 30
0
 11
-45.70000000000002
 21
-39.49962221439433
 31
0
  0
LINE
  8
1
 62
7
 10
-45.20000000000002
 20
-38.99962221439434
 30
0
 11
-45.20000000000002
 21
-19.99999999999999
 31
0
  0
LINE
  8
1
 62
7
 10
-45.20000000000002
 20
-19.99999999999999
 30
0
 11
-45.00000000000001
 21
-19.99999999999999
 31
0
  0
LINE
  8
1
 62
7
 10
-77.0448956266644
 20
70.92711124288152
 30
0
 11
-77.0448956266644
 21
74.27736577882311
 31
0
  0
LINE
  8
1
 62
7
 10
-76.79058051105733
 20
70.92711124288152
 30
0
 11
-76.79058051105733
 21
74.27736577882311
 31
0
  0
LINE
  8
1
 62
7
 10
-75.75510437333556
 20
74.27736577882311
 30
0
 11
-75.75510437333556
 21
70.92711124288152
 31
0
  0
LINE
  8
1
 62
7
 10
-76.00941948894263
 20
74.27736577882311
 30
0
 11
-76.00941948894263
 21
70.92711124288152
 31
0
  0
LINE
  8
1
 62
7
 10
-77.64999999999998
 20
70.92711124288152
 30
0
 11
-75.14999999999998
 21
70.92711124288152
 31
0
  0
LINE
  8
1
 62
7
 10
-75.14999999999998
 20
70.92711124288152
 30
0
 11
-75.14999999999998
 21
42.49478940414087
 31
0
  0
LINE
  8
1
 62
7
 10
-77.64999999999998
 20
70.92711124288152
 30
0
 11
-77.64999999999998
 21
42.49478940414087
 31
0
  0
LINE
  8
1
 62
3
  6
DASHDOT
 10
-88.5
 20
-49
 30
0
 11
-80.40000000000001
 21
-49
 31
0
  0
LINE
  8
1
 62
7
 10
-85.5
 20
-55
 30
0
 11
-83.40000000000001
 21
-55
 31
0
  0
LINE
  8
1
 62
7
 10
-83.40000000000001
 20
41
 30
0
 11
-83.40000000000001
 21
-55
 31
0
  0
LINE
  8
1
 62
7
 10
-85.5
 20
41
 30
0
 11
-85.5
 21
-55
 31
0
  0
LINE
  8
1
 62
7
 10
-85.5
 20
41
 30
0
 11
-83.40000000000001
 21
41
 31
0
  0
LINE
  8
1
 62
7
 10
-64.39999999999998
 20
-42.5
 30
0
 11
-77.39999999999998
 21
-42.5
 31
0
  0
LINE
  8
1
 62
7
 10
-75.14999999999998
 20
42.5
 30
0
 11
-64.39999999999998
 21
42.5
 31
0
  0
LINE
  8
1
 62
7
 10
-60.00000000000001
 20
-34.50000000000003
 30
0
 11
-58.2
 21
-34.50000000000003
 31
0
  0
LINE
  8
1
 62
7
 10
-60.00000000000001
 20
-25.50000000000003
 30
0
 11
-58.2
 21
-25.50000000000003
 31
0
  0
LINE
  8
1
 62
7
 10
-60.50000000000001
 20
-42
 30
0
 11
-60.00000000000001
 21
-42
 31
0
  0
LINE
  8
1
 62
7
 10
-59.10000000000001
 20
33.89999999999998
 30
0
 11
-58.60000000000001
 21
34.39999999999998
 31
0
  0
LINE
  8
1
 62
7
 10
-58.60000000000001
 20
40.59999999999997
 30
0
 11
-59.10000000000001
 21
41.09999999999997
 31
0
  0
LINE
  8
1
 62
7
 10
-60.00000000000001
 20
41.09999999999997
 30
0
 11
-60.00000000000001
 21
33.89999999999998
 31
0
  0
LINE
  8
1
 62
7
 10
-60.50000000000001
 20
33.89999999999998
 30
0
 11
-59.10000000000001
 21
33.89999999999998
 31
0
  0
LINE
  8
1
 62
7
 10
-58.60000000000001
 20
40.59999999999997
 30
0
 11
-58.60000000000001
 21
34.39999999999998
 31
0
  0
LINE
  8
1
 62
7
 10
-60.50000000000001
 20
41.09999999999997
 30
0
 11
-59.10000000000001
 21
41.09999999999997
 31
0
  0
LINE
  8
1
 62
7
 10
-61.00000000000001
 20
31.86602540378442
 30
0
 11
-60.50000000000001
 21
30
 31
0
  0
LINE
  8
1
 62
7
 10
-60.50000000000001
 20
31.93185165257813
 30
0
 11
-60.00000000000001
 21
30.06582624879366
 31
0
  0
LINE
  8
1
 62
7
 10
-60.50000000000001
 20
42
 30
0
 11
-60.50000000000001
 21
31.93185165257813
 31
0
  0
LINE
  8
1
 62
7
 10
-61.00000000000001
 20
42
 30
0
 11
-60.50000000000001
 21
42
 31
0
  0
LINE
  8
1
 62
7
 10
-61.00000000000001
 20
-42.75000000000001
 30
0
 11
-64.00000000000001
 21
-42.75
 31
0
  0
LINE
  8
1
 62
7
 10
-61.00000000000001
 20
42.75
 30
0
 11
-61.00000000000001
 21
-42.75000000000001
 31
0
  0
LINE
  8
1
 62
7
 10
-64.00000000000001
 20
42.75
 30
0
 11
-61.00000000000001
 21
42.75
 31
0
  0
LINE
  8
1
 62
7
 10
-77.64999999999998
 20
42.49478940414087
 30
0
 11
-75.13707089154823
 21
42.49478940414087
 31
0
  0
LINE
  8
1
 62
3
  6
DASHDOT
 10
-85.5
 20
0
 30
0
 11
-90.5
 21
0
 31
0
  0
LINE
  8
1
 62
7
 10
-76.41647012049653
 20
70.92711124288152
 30
0
 11
-76.41647012049653
 21
74.25673021942981
 31
0
  0
LINE
  8
1
 62
7
 10
-58.2
 20
-20.49999999999999
 30
0
 11
-58.2
 21
-38.99962221439434
 31
0
  0
LINE
  8
1
 62
7
 10
-45.50000000000001
 20
20
 30
0
 11
-48.50000000000001
 21
20
 31
0
  0
LINE
  8
1
 62
7
 10
-58.7
 20
20
 30
0
 11
-59.5
 21
20
 31
0
  0
LINE
  8
1
 62
7
 10
-58.2
 20
29.49998946955515
 30
0
 11
-58.2
 21
20.5
 31
0
  0
LINE
  8
1
 62
7
 10
-45.00000000000001
 20
-19.99999999999999
 30
0
 11
-45.00000000000001
 21
19.5
 31
0
  0
ARC
  8
1
 62
7
 10
39.99999999999999
 20
19.5
 30
0
 40
0.5
 50
0
 51
90
  0
ARC
  8
1
 62
7
 10
36.99999999999999
 20
20.5
 30
0
 40
0.5
 50
180
 51
270
  0
ARC
  8
1
 62
7
 10
35.99999999999999
 20
29.49998946955515
 30
0
 40
0.5
 50
0
 51
90
  0
ARC
  8
1
 62
7
 10
27.79999999999999
 20
29.49998946955515
 30
0
 40
0.5
 50
90
 51
180
  0
ARC
  8
1
 62
7
 10
26.79999999999999
 20
20.5
 30
0
 40
0.5
 50
270
 51
0
  0
ARC
  8
1
 62
7
 10
26
 20
-19.49999999999999
 30
0
 40
0.5
 50
180
 51
270
  0
ARC
  8
1
 62
7
 10
26
 20
19.5
 30
0
 40
0.5
 50
90
 51
180
  0
ARC
  8
1
 62
7
 10
25
 20
15.5
 30
0
 40
0.5
 50
270
 51
0
  0
ARC
  8
1
 62
7
 10
20.99999999999998
 20
14.5
 30
0
 40
0.5
 50
90
 51
180
  0
ARC
  8
1
 62
7
 10
20.99999999999998
 20
-14.49999999999999
 30
0
 40
0.4999999999999787
 50
180
 51
270
  0
ARC
  8
1
 62
7
 10
25
 20
-15.49999999999999
 30
0
 40
0.5
 50
0
 51
90
  0
ARC
  8
1
 62
7
 10
26.79999999999999
 20
-20.49999999999999
 30
0
 40
0.5
 50
0
 51
90
  0
ARC
  8
1
 62
7
 10
27.79999999999999
 20
-38.99962221439434
 30
0
 40
0.5
 50
180
 51
270
  0
ARC
  8
1
 62
7
 10
28.99999999999999
 20
-39.99962221439433
 30
0
 40
0.5
 50
0
 51
90
  0
ARC
  8
1
 62
7
 10
29.99999999999999
 20
-40.99981196036936
 30
0
 40
0.5
 50
180
 51
270
  0
ARC
  8
1
 62
7
 10
35.99999999999999
 20
-40.99981196036936
 30
0
 40
0.5
 50
270
 51
0
  0
ARC
  8
1
 62
7
 10
36.99999999999999
 20
-39.99962221439433
 30
0
 40
0.5
 50
90
 51
180
  0
ARC
  8
1
 62
7
 10
39.79999999999998
 20
-38.99962221439434
 30
0
 40
0.4999999999999858
 50
270
 51
0
  0
ARC
  8
1
 62
7
 10
8.100000000000023
 20
-36.5
 30
0
 40
6
 50
180
 51
270
  0
ARC
  8
1
 62
7
 10
7.80979101754513
 20
28.77202871994916
 30
0
 40
5.716267408765616
 50
182.7276516887386
 51
262.8671519877296
  0
ARC
  8
1
 62
7
 10
7.80979101754513
 20
-28.77202871994922
 30
0
 40
5.716267408765643
 50
97.13284801227026
 51
177.2723483112609
  0
ARC
  8
1
 62
7
 10
8.100000000000023
 20
36.5
 30
0
 40
6
 50
90
 51
180
  0
ARC
  8
1
 62
7
 10
107.5875219438898
 20
-2.004582083196134
 30
0
 40
10.00000000000001
 50
146.3473568970545
 51
185
  0
ARC
  8
1
 62
7
 10
108.5
 20
-1.4210854715202e-014
 30
0
 40
20.00000000000006
 50
139.8479605493229
 51
180
  0
ARC
  8
1
 62
7
 10
130.5
 20
7.105427357601002e-015
 30
0
 40
33.00000000000007
 50
185
 51
234.9999999999999
  0
ARC
  8
1
 62
7
 10
130.5
 20
7.105427357601002e-015
 30
0
 40
42.00000000000006
 50
180
 51
239.9999999999999
  0
ARC
  8
1
 62
7
 10
141.5
 20
-19.05255888325764
 30
0
 40
20.00000000000003
 50
259.8479605493234
 51
299.9999999999999
  0
ARC
  8
1
 62
7
 10
130.5
 20
7.105427357601002e-015
 30
0
 40
32.99999999999999
 50
304.9999999999999
 51
354.9999999999999
  0
ARC
  8
1
 62
7
 10
130.5
 20
7.105427357601002e-015
 30
0
 40
42.00000000000004
 50
299.9999999999999
 51
359.9999999999999
  0
ARC
  8
1
 62
7
 10
130.5
 20
7.105427357601002e-015
 30
0
 40
32.99999999999999
 50
65.00000000000017
 51
115
  0
ARC
  8
1
 62
7
 10
130.5
 20
7.105427357601002e-015
 30
0
 40
42.00000000000002
 50
60.00000000000002
 51
120
  0
ARC
  8
1
 62
7
 10
130.5
 20
7.105427357601002e-015
 30
0
 40
30.00000000000002
 50
181.8901523342857
 51
238.1098476657143
  0
ARC
  8
1
 62
7
 10
152.5
 20
-1.4210854715202e-014
 30
0
 40
20
 50
359.9999999999997
 51
40.15203945067654
  0
ARC
  8
1
 62
7
 10
153.4124780561101
 20
-2.004582083196148
 30
0
 40
9.999999999999938
 50
354.9999999999998
 51
33.65264310294481
  0
ARC
  8
1
 62
7
 10
119.4999999999999
 20
-19.05255888325764
 30
0
 40
20
 50
240
 51
280.1520394506766
  0
ARC
  8
1
 62
7
 10
119.5
 20
19.05255888325766
 30
0
 40
20
 50
120
 51
160.1520394506768
  0
ARC
  8
1
 62
7
 10
120.7797799799639
 20
20.84507910184297
 30
0
 40
9.999999999999988
 50
115.0000000000001
 51
153.6526431029454
  0
ARC
  8
1
 62
7
 10
130.5
 20
7.105427357601002e-015
 30
0
 40
55.00000000000005
 50
131.8018441931411
 51
138.198155806859
  0
ARC
  8
1
 62
7
 10
130.5
 20
7.105427357601002e-015
 30
0
 40
55.00000000000001
 50
41.80184419314109
 51
48.19815580685903
  0
ARC
  8
1
 62
7
 10
130.5
 20
7.105427357601002e-015
 30
0
 40
54.99999999999992
 50
311.8018441931409
 51
318.198155806859
  0
ARC
  8
1
 62
7
 10
130.5
 20
7.105427357601002e-015
 30
0
 40
55.00000000000007
 50
221.801844193141
 51
228.1981558068589
  0
ARC
  8
1
 62
7
 10
104.5192378864668
 20
15
 30
0
 40
11.50000000000006
 50
70.62045918564098
 51
229.3795408143587
  0
ARC
  8
1
 62
7
 10
143.692258036074
 20
-18.8404970186468
 30
0
 40
10.00000000000003
 50
266.3473568970551
 51
305.0000000000002
  0
ARC
  8
1
 62
7
 10
117.3077419639258
 20
-18.8404970186468
 30
0
 40
9.999999999999957
 50
235.0000000000002
 51
273.6526431029459
  0
ARC
  8
1
 62
7
 10
140.220220020036
 20
20.84507910184294
 30
0
 40
10.00000000000004
 50
26.34735689705491
 51
65.0000000000002
  0
ARC
  8
1
 62
7
 10
141.5
 20
19.05255888325766
 30
0
 40
20.00000000000003
 50
19.84796054932324
 51
60.00000000000003
  0
ARC
  8
1
 62
7
 10
116.8467841131983
 20
19.12693639735299
 30
0
 40
3.499999999999902
 50
198.5091831443486
 51
305.5200570079845
  0
ARC
  8
1
 62
7
 10
104.5192378864668
 20
15
 30
0
 40
9.500000000000055
 50
18.50918314434789
 51
281.4908168556519
  0
ARC
  8
1
 62
7
 10
107.1089792399223
 20
2.260563602646997
 30
0
 40
3.500000000000015
 50
354.4799429920162
 51
101.4908168556531
  0
ARC
  8
1
 62
7
 10
130.5
 20
-30.00000000000004
 30
0
 40
11.5
 50
190.6204591856411
 51
349.3795408143584
  0
ARC
  8
1
 62
7
 10
120.762195126724
 20
-21.38750000000002
 30
0
 40
3.499999999999952
 50
318.5091831443477
 51
65.52005700798411
  0
ARC
  8
1
 62
7
 10
130.5
 20
-30.00000000000004
 30
0
 40
9.499999999999981
 50
138.5091831443478
 51
41.49081685565143
  0
ARC
  8
1
 62
7
 10
140.2378048732761
 20
-21.38750000000001
 30
0
 40
3.499999999999973
 50
114.4799429920155
 51
221.4908168556533
  0
ARC
  8
1
 62
7
 10
156.4807621135332
 20
15.00000000000004
 30
0
 40
11.50000000000001
 50
310.620459185641
 51
109.3795408143585
  0
ARC
  8
1
 62
7
 10
153.8910207600777
 20
2.260563602647039
 30
0
 40
3.500000000000001
 50
78.50918314434706
 51
185.5200570079841
  0
ARC
  8
1
 62
7
 10
156.4807621135332
 20
15.00000000000004
 30
0
 40
9.499999999999993
 50
258.5091831443482
 51
161.4908168556518
  0
ARC
  8
1
 62
7
 10
144.1532158868017
 20
19.12693639735302
 30
0
 40
3.500000000000038
 50
234.4799429920156
 51
341.4908168556523
  0
ARC
  8
1
 62
7
 10
130.5
 20
7.105427357601002e-015
 30
0
 40
7.499999999999995
 50
109.4712206344907
 51
70.52877936550928
  0
ARC
  8
1
 62
7
 10
90.52176401204311
 20
-1.31933592811987
 30
0
 40
9.999999999999973
 50
1.890152334285658
 51
49.37954081435848
  0
ARC
  8
1
 62
7
 10
111.6534604358989
 20
35.2818359281199
 30
0
 40
9.99999999999995
 50
250.6204591856419
 51
298.1098476657146
  0
ARC
  8
1
 62
7
 10
151.6316964238558
 20
-33.96250000000003
 30
0
 40
9.999999999999936
 50
121.8901523342856
 51
169.3795408143587
  0
ARC
  8
1
 62
7
 10
170.4782359879569
 20
-1.319335928119933
 30
0
 40
10.00000000000004
 50
130.6204591856417
 51
178.1098476657142
  0
ARC
  8
1
 62
7
 10
149.3465395641011
 20
35.2818359281199
 30
0
 40
10
 50
241.8901523342855
 51
289.3795408143587
  0
ARC
  8
1
 62
7
 10
109.3683035761442
 20
-33.96250000000003
 30
0
 40
9.999999999999993
 50
10.62045918564191
 51
58.1098476657145
  0
ARC
  8
1
 62
7
 10
130.5
 20
7.105427357601002e-015
 30
0
 40
30.00000000000009
 50
301.8901523342857
 51
358.1098476657143
  0
ARC
  8
1
 62
7
 10
130.5
 20
7.105427357601002e-015
 30
0
 40
29.99999999999999
 50
61.89015233428576
 51
118.1098476657142
  0
ARC
  8
1
 62
3
  6
DASHDOT
 10
130.5
 20
7.105427357601002e-015
 30
0
 40
48.99999999999998
 50
37.50000000000002
 51
52.50000000000002
  0
ARC
  8
1
 62
3
  6
DASHDOT
 10
130.5
 20
7.105427357601002e-015
 30
0
 40
49
 50
127.5
 51
142.5
  0
ARC
  8
1
 62
3
  6
DASHDOT
 10
130.5
 20
7.105427357601002e-015
 30
0
 40
49.00000000000001
 50
217.5
 51
232.5
  0
ARC
  8
1
 62
3
  6
DASHDOT
 10
130.5
 20
7.105427357601002e-015
 30
0
 40
49
 50
307.4999999999999
 51
322.4999999999999
  0
ARC
  8
1
 62
7
 10
-49.50000000000001
 20
29.49998946955515
 30
0
 40
0.5
 50
0
 51
90
  0
ARC
  8
1
 62
7
 10
-57.7
 20
29.49998946955515
 30
0
 40
0.5
 50
90
 51
180
  0
ARC
  8
1
 62
7
 10
-59.5
 20
-19.49999999999999
 30
0
 40
0.5
 50
180
 51
270
  0
ARC
  8
1
 62
7
 10
-57.7
 20
-38.99962221439434
 30
0
 40
0.5
 50
180
 51
270
  0
ARC
  8
1
 62
7
 10
-56.50000000000001
 20
-39.99962221439433
 30
0
 40
0.5
 50
0
 51
90
  0
ARC
  8
1
 62
7
 10
-55.50000000000001
 20
-40.99981196036936
 30
0
 40
0.5
 50
180
 51
270
  0
ARC
  8
1
 62
7
 10
-49.50000000000001
 20
-40.99981196036936
 30
0
 40
0.5
 50
270
 51
0
  0
ARC
  8
1
 62
7
 10
-48.50000000000001
 20
-39.99962221439433
 30
0
 40
0.5
 50
90
 51
180
  0
ARC
  8
1
 62
7
 10
-45.70000000000002
 20
-38.99962221439434
 30
0
 40
0.4999999999999858
 50
270
 51
0
  0
ARC
  8
1
 62
7
 10
-77.39999999999998
 20
36.5
 30
0
 40
5.999999999999968
 50
92.3880154632688
 51
180
  0
ARC
  8
1
 62
7
 10
-77.39999999999998
 20
-36.5
 30
0
 40
6
 50
180
 51
270
  0
ARC
  8
1
 62
7
 10
-58.7
 20
-20.49999999999999
 30
0
 40
0.5
 50
0
 51
90
  0
ARC
  8
1
 62
7
 10
-58.7
 20
20.5
 30
0
 40
0.5
 50
270
 51
0
  0
ARC
  8
1
 62
7
 10
-59.5
 20
19.5
 30
0
 40
0.5
 50
90
 51
180
  0
ARC
  8
1
 62
7
 10
-48.50000000000001
 20
20.5
 30
0
 40
0.5
 50
180
 51
270
  0
ARC
  8
1
 62
7
 10
-45.50000000000001
 20
19.5
 30
0
 40
0.5
 50
0
 51
90
  0
CIRCLE
  8
1
 62
7
 10
130.5
 20
7.105427357601002e-015
 30
0
 40
42.75
  0
CIRCLE
  8
1
 62
7
 10
130.5
 20
7.105427357601002e-015
 30
0
 40
19.99999999999989
  0
CIRCLE
  8
1
 62
7
 10
130.5
 20
37.5
 30
0
 40
3.599999999999909
  0
CIRCLE
  8
1
 62
7
 10
98.02404735808351
 20
-18.74999999999998
 30
0
 40
3.599999999999994
  0
CIRCLE
  8
1
 62
7
 10
162.9759526419164
 20
-18.75000000000001
 30
0
 40
3.599999999999994
  0
CIRCLE
  8
1
 62
7
 10
104.5192378864668
 20
15
 30
0
 40
7.5
  0
CIRCLE
  8
1
 62
7
 10
104.5192378864668
 20
15
 30
0
 40
2
  0
CIRCLE
  8
1
 62
7
 10
95.85176772185911
 20
34.64823227814082
 30
0
 40
2.75
  0
CIRCLE
  8
1
 62
7
 10
95.85176772185911
 20
-34.64823227814082
 30
0
 40
2.75
  0
CIRCLE
  8
1
 62
7
 10
165.1482322781408
 20
-34.64823227814082
 30
0
 40
2.75
  0
CIRCLE
  8
1
 62
7
 10
165.1482322781408
 20
34.64823227814082
 30
0
 40
2.75
  0
CIRCLE
  8
1
 62
7
 10
104.5192378864668
 20
15
 30
0
 40
5.499999999999901
  0
CIRCLE
  8
1
 62
7
 10
130.5
 20
-30.00000000000004
 30
0
 40
7.5
  0
CIRCLE
  8
1
 62
7
 10
130.5
 20
-30.00000000000004
 30
0
 40
2
  0
CIRCLE
  8
1
 62
7
 10
130.5
 20
-30.00000000000004
 30
0
 40
5.499999999999886
  0
CIRCLE
  8
1
 62
7
 10
156.4807621135332
 20
15.00000000000004
 30
0
 40
7.500000000000114
  0
CIRCLE
  8
1
 62
7
 10
156.4807621135332
 20
15.00000000000004
 30
0
 40
2
  0
CIRCLE
  8
1
 62
7
 10
156.4807621135332
 20
15.00000000000004
 30
0
 40
5.5
  0
CIRCLE
  8
1
 62
7
 10
130.5
 20
7.105427357601002e-015
 30
0
 40
15
  0
TEXT
  8
1
 62
7
 10
-86.3353746805623
 20
116.9831373109588
 30
0
 40
3.5
  1
TMAB 1.2
 41
0.9
  7
SIMPLEX
  0
TEXT
  8
1
 62
7
 10
-86.3353746805623
 20
111.7331373109588
 30
0
 40
3.5
  1
DC2302
 41
0.9
  7
SIMPLEX
  0
ENDSEC
  0
EOF
