  0
SECTION
  2
HEADER
  9
$ACADVER
  1
AC1009
  9
$INSBASE
 10
0
 20
0
  9
$EXTMIN
 10
-118.6736870789789
 20
-82.50000000000001
  9
$EXTMAX
 10
245.9375049242345
 20
133.1009389614131
  9
$LIMMIN
 10
-118.6736870789789
 20
-82.50000000000001
  9
$LIMMAX
 10
245.9375049242345
 20
133.1009389614131
  9
$VIEWCTR
 10
10
 20
10
  9
$VIEWSIZE
 40
10
  9
$SNAPMODE
 70
0
  9
$SNAPUNIT
 10
1
 20
1
  9
$SNAPBASE
 10
0
 20
0
  9
$SNAPANG
 50
0
  9
$SNAPSTYLE
 70
0
  9
$SNAPISOPAIR
 70
0
  9
$GRIDMODE
 70
0
  9
$GRIDUNIT
 10
0
 20
0
  9
$ORTHOMODE
 70
0
  9
$REGENMODE
 70
1
  9
$FILLMODE
 70
1
  9
$QTEXTMODE
 70
0
  9
$DRAGMODE
 70
2
  9
$LTSCALE
 40
1
  9
$OSMODE
 70
0
  9
$ATTMODE
 70
1
  9
$TEXTSIZE
 40
3.5
  9
$TRACEWID
 40
0.5
  9
$TEXTSTYLE
  7
STANDARD
  9
$CLAYER
  8
0
  9
$CELTYPE
  6
BYLAYER
  9
$CECOLOR
 62
256
  9
$DIMSCALE
 40
1
  9
$DIMASZ
 40
0.18
  9
$DIMEXO
 40
0.0625
  9
$DIMDLI
 40
0.38
  9
$DIMRND
 40
0
  9
$DIMDLE
 40
0
  9
$DIMEXE
 40
0.18
  9
$DIMTP
 40
0
  9
$DIMTM
 40
0
  9
$DIMTXT
 40
0.18
  9
$DIMCEN
 40
0.09
  9
$DIMTSZ
 40
0
  9
$DIMTOL
 70
0
  9
$DIMLIM
 70
0
  9
$DIMTIH
 70
1
  9
$DIMTOH
 70
1
  9
$DIMSE1
 70
0
  9
$DIMSE2
 70
0
  9
$DIMTAD
 70
0
  9
$DIMZIN
 70
0
  9
$DIMBLK
  1

  9
$DIMASO
 70
1
  9
$DIMSHO
 70
1
  9
$DIMPOST
  1

  9
$DIMAPOST
  1

  9
$DIMALT
 70
0
  9
$DIMALTD
 70
2
  9
$DIMALTF
 40
25.4
  9
$DIMLFAC
 40
1
  9
$DIMTOFL
 70
0
  9
$DIMTVP
 40
0
  9
$DIMTIX
 70
0
  9
$DIMSOXD
 70
0
  9
$DIMSAH
 70
0
  9
$DIMBLK1
  1

  9
$DIMBLK2
  1

  9
$DIMSTYLE
  2
*UNNAMED
  9
$DIMCLRD
 70
0
  9
$DIMCLRE
 70
0
  9
$DIMCLRT
 70
0
  9
$DIMTFAC
 40
1
  9
$DIMGAP
 40
0.09
  9
$LUNITS
 70
2
  9
$LUPREC
 70
4
  9
$AXISMODE
 70
0
  9
$AXISUNIT
 10
0
 20
0
  9
$SKETCHINC
 40
0.1
  9
$FILLETRAD
 40
2
  9
$AUNITS
 70
0
  9
$AUPREC
 70
0
  9
$MENU
  1
ACAD
  9
$ELEVATION
 40
0
  9
$THICKNESS
 40
0
  9
$VIEWDIR
 10
0
 20
0
 30
1
  9
$LIMCHECK
 70
0
  9
$BLIPMODE
 70
1
  9
$CHAMFERA
 40
0
  9
$CHAMFERB
 40
0
  9
$FASTZOOM
 70
1
  9
$SKPOLY
 70
0
  9
$ANGBASE
 50
0
  9
$ANGDIR
 70
0
  9
$PDMODE
 70
0
  9
$PDSIZE
 40
0
  9
$PLINEWID
 40
0
  9
$COORDS
 70
2
  0
ENDSEC
  0
SECTION
  2
TABLES
  0
TABLE
  2
DIMSTYLE
 70
0
  0
ENDTAB
  0
TABLE
  2
LTYPE
 70
9
  0
LTYPE
  2
CONTINUOUS
 70
64
  3
Solid line
 72
65
 73
0
 40
0
  0
LTYPE
  2
BORDER
 70
64
  3
__ __ . __ __ .
 72
65
 73
6
 40
16.79130489488483
 49
4.797515684252808
 49
-2.398757842126404
 49
4.797515684252808
 49
-2.398757842126404
 49
0
 49
-2.398757842126404
  0
LTYPE
  2
CENTER
 70
64
  3
____ _ ____ _
 72
65
 73
4
 40
19.19006273701123
 49
11.99378921063202
 49
-2.398757842126404
 49
2.398757842126404
 49
-2.398757842126404
  0
LTYPE
  2
DASHDOT
 70
64
  3
__ . __ . __ .
 72
65
 73
4
 40
9.595031368505616
 49
4.797515684252808
 49
-2.398757842126404
 49
0
 49
-2.398757842126404
  0
LTYPE
  2
DASHED
 70
64
  3
__ __ __ __ __
 72
65
 73
2
 40
7.196273526379212
 49
4.797515684252808
 49
-2.398757842126404
  0
LTYPE
  2
DIVIDE
 70
64
  3
__ . . __ . . 
 72
65
 73
6
 40
11.99378921063202
 49
4.797515684252808
 49
-2.398757842126404
 49
0
 49
-2.398757842126404
 49
0
 49
-2.398757842126404
  0
LTYPE
  2
DOT
 70
64
  3
..............
 72
65
 73
4
 40
4.797515684252808
 49
0
 49
-2.398757842126404
 49
0
 49
-2.398757842126404
  0
LTYPE
  2
HIDDEN
 70
64
  3
_ _ _ _ _ _ _
 72
65
 73
2
 40
3.598136763189606
 49
2.398757842126404
 49
-1.199378921063202
  0
LTYPE
  2
PHANTOM
 70
64
  3
_____ _ _ _____ _ _ 
 72
65
 73
6
 40
23.98757842126404
 49
11.99378921063202
 49
-2.398757842126404
 49
2.398757842126404
 49
-2.398757842126404
 49
2.398757842126404
 49
-2.398757842126404
  0
ENDTAB
  0
TABLE
  2
LAYER
 70
3
  0
LAYER
  2
1
 70
0
 62
7
  6
CONTINUOUS
  0
LAYER
  2
0
 70
0
 62
7
  6
CONTINUOUS
  0
ENDTAB
  0
TABLE
  2
STYLE
 70
4
  0
STYLE
  2
STANDARD
 70
0
 40
0
 41
1
 50
0
 71
0
 42
3.5
  3
txt
  4

  0
STYLE
  2
SIMPLEX
 70
0
 40
0
 41
1
 50
0
 71
0
 42
3.5
  3
simplex
  4

  0
STYLE
  2
COMPLEX
 70
0
 40
0
 41
1
 50
0
 71
0
 42
3.5
  3
complex
  4

  0
STYLE
  2
ITALIC
 70
0
 40
0
 41
1
 50
0
 71
0
 42
3.5
  3
italic
  4

  0
ENDTAB
  0
TABLE
  2
VIEW
 70
0
  0
ENDTAB
  0
ENDSEC
  0
SECTION
  2
BLOCKS
  0
ENDSEC
  0
SECTION
  2
ENTITIES
  0
LINE
  8
1
 62
7
 10
30.40000000000005
 20
-67.75
 30
0
 11
30.40000000000005
 21
-47.49999999999999
 31
0
  0
LINE
  8
1
 62
7
 10
25.70000000000005
 20
67.75
 30
0
 11
25.70000000000005
 21
22.49999999999998
 31
0
  0
LINE
  8
1
 62
3
  6
DASHDOT
 10
52
 20
0
 30
0
 11
57
 21
0
 31
0
  0
LINE
  8
1
 62
3
  6
DASHDOT
 10
39.5
 20
45.99999999999999
 30
0
 11
39.5
 21
12.5
 31
0
  0
LINE
  8
1
 62
7
 10
35.5
 20
23.5
 30
0
 11
43.5
 21
23.5
 31
0
  0
LINE
  8
1
 62
7
 10
37.1
 20
15.5
 30
0
 11
37.1
 21
23.5
 31
0
  0
LINE
  8
1
 62
7
 10
41.90000000000001
 20
23.5
 30
0
 11
41.90000000000001
 21
15.5
 31
0
  0
LINE
  8
1
 62
3
 10
36.5
 20
15.5
 30
0
 11
36.5
 21
23.5
 31
0
  0
LINE
  8
1
 62
3
 10
42.5
 20
23.5
 30
0
 11
42.5
 21
15.5
 31
0
  0
LINE
  8
1
 62
7
 10
35.5
 20
23.5
 30
0
 11
35.5
 21
42.99999999999999
 31
0
  0
LINE
  8
1
 62
7
 10
43.5
 20
42.99999999999999
 30
0
 11
43.5
 21
23.5
 31
0
  0
LINE
  8
1
 62
7
 10
52
 20
12.5
 30
0
 11
22
 21
12.5
 31
0
  0
LINE
  8
1
 62
7
 10
22
 20
15.5
 30
0
 11
52
 21
15.5
 31
0
  0
LINE
  8
1
 62
7
 10
22
 20
-12.50000000000001
 30
0
 11
52
 21
-12.5
 31
0
  0
LINE
  8
1
 62
7
 10
45.30000000000001
 20
42.99999999999999
 30
0
 11
34.30000000000001
 21
42.99999999999999
 31
0
  0
LINE
  8
1
 62
7
 10
46.30000000000001
 20
29.49999999999999
 30
0
 11
46.30000000000001
 21
41.99999999999999
 31
0
  0
LINE
  8
1
 62
7
 10
47.30000000000001
 20
28.49999999999999
 30
0
 11
51
 21
28.49999999999999
 31
0
  0
LINE
  8
1
 62
7
 10
33.30000000000001
 20
29.49999999999999
 30
0
 11
33.30000000000001
 21
41.99999999999999
 31
0
  0
LINE
  8
1
 62
7
 10
29
 20
28.49999999999999
 30
0
 11
32.30000000000001
 21
28.49999999999999
 31
0
  0
LINE
  8
1
 62
7
 10
28
 20
23.49999999999999
 30
0
 11
28
 21
27.49999999999999
 31
0
  0
LINE
  8
1
 62
7
 10
22
 20
22.49999999999999
 30
0
 11
27
 21
22.49999999999999
 31
0
  0
LINE
  8
1
 62
7
 10
25.70000000000004
 20
-22.5
 30
0
 11
25.70000000000005
 21
-67.75
 31
0
  0
LINE
  8
1
 62
7
 10
25.20000000000005
 20
-22.5
 30
0
 11
25.20000000000005
 21
-67.50000000000001
 31
0
  0
LINE
  8
1
 62
7
 10
31.20000000000005
 20
-28.49999999999999
 30
0
 11
31.20000000000005
 21
-66.53672573724259
 31
0
  0
LINE
  8
1
 62
7
 10
32.20000000000005
 20
-54.33739716558868
 30
0
 11
33.30000000000001
 21
-54.33739716558868
 31
0
  0
LINE
  8
1
 62
7
 10
32.20000000000005
 20
-40.66260283441135
 30
0
 11
33.30000000000001
 21
-40.66260283441135
 31
0
  0
LINE
  8
1
 62
7
 10
22
 20
-22.5
 30
0
 11
22
 21
22.49999999999999
 31
0
  0
LINE
  8
1
 62
7
 10
27
 20
-22.5
 30
0
 11
22
 21
-22.5
 31
0
  0
LINE
  8
1
 62
7
 10
28
 20
-27.49999999999999
 30
0
 11
28
 21
-23.49999999999999
 31
0
  0
LINE
  8
1
 62
7
 10
32.30000000000001
 20
-28.49999999999999
 30
0
 11
29
 21
-28.49999999999999
 31
0
  0
LINE
  8
1
 62
7
 10
33.30000000000001
 20
-59.00000000000001
 30
0
 11
33.30000000000001
 21
-29.49999999999999
 31
0
  0
LINE
  8
1
 62
7
 10
36.30000000000001
 20
-60.00000000000001
 30
0
 11
34.30000000000001
 21
-60.00000000000001
 31
0
  0
LINE
  8
1
 62
7
 10
37.30000000000001
 20
-62.00000000000001
 30
0
 11
37.30000000000001
 21
-61.00000000000001
 31
0
  0
LINE
  8
1
 62
7
 10
45.30000000000001
 20
-63.00000000000001
 30
0
 11
38.30000000000001
 21
-63.00000000000001
 31
0
  0
LINE
  8
1
 62
7
 10
46.30000000000001
 20
-61.00000000000001
 30
0
 11
46.30000000000001
 21
-62.00000000000001
 31
0
  0
LINE
  8
1
 62
7
 10
50.79999999999999
 20
-60.00000000000001
 30
0
 11
47.30000000000001
 21
-60.00000000000001
 31
0
  0
LINE
  8
1
 62
7
 10
51.79999999999999
 20
-36.00000000000001
 30
0
 11
51.79999999999999
 21
-59.00000000000001
 31
0
  0
LINE
  8
1
 62
7
 10
47.30000000000001
 20
-35.00000000000001
 30
0
 11
50.79999999999999
 21
-35.00000000000001
 31
0
  0
LINE
  8
1
 62
7
 10
46.30000000000001
 20
-29.49999999999999
 30
0
 11
46.30000000000001
 21
-34.00000000000001
 31
0
  0
LINE
  8
1
 62
7
 10
51
 20
-28.49999999999999
 30
0
 11
47.30000000000001
 21
-28.49999999999999
 31
0
  0
LINE
  8
1
 62
7
 10
52
 20
27.49999999999999
 30
0
 11
52
 21
-27.49999999999999
 31
0
  0
LINE
  8
1
 62
7
 10
31.20000000000005
 20
-47.49999999999999
 30
0
 11
30.40000000000005
 21
-47.49999999999999
 31
0
  0
LINE
  8
1
 62
7
 10
0
 20
-82.50000000000001
 30
0
 11
2.399999999999977
 21
-82.50000000000001
 31
0
  0
LINE
  8
1
 62
7
 10
0
 20
-71.75000000000001
 30
0
 11
2.399999999999977
 21
-71.75000000000001
 31
0
  0
LINE
  8
1
 62
3
  6
DASHDOT
 10
-3
 20
-75.00000000000001
 30
0
 11
5.399999999999971
 21
-74.99999999999999
 31
0
  0
LINE
  8
1
 62
7
 10
0
 20
-78.25000000000001
 30
0
 11
2.400000000000091
 21
-78.25
 31
0
  0
LINE
  8
1
 62
7
 10
2.399999999999977
 20
-32.49999999999999
 30
0
 11
0
 21
-32.49999999999999
 31
0
  0
LINE
  8
1
 62
7
 10
0
 20
32.5
 30
0
 11
2.399999999999977
 21
32.5
 31
0
  0
LINE
  8
1
 62
7
 10
0
 20
62.50000000000001
 30
0
 11
0
 21
-82.50000000000001
 31
0
  0
LINE
  8
1
 62
7
 10
0
 20
62.50000000000001
 30
0
 11
2.399999999999977
 21
62.50000000000006
 31
0
  0
LINE
  8
1
 62
7
 10
25.20000000000005
 20
67.5
 30
0
 11
8.299999999999955
 21
67.5
 31
0
  0
LINE
  8
1
 62
7
 10
25.20000000000005
 20
33.5
 30
0
 11
8.299999999999955
 21
33.5
 31
0
  0
LINE
  8
1
 62
7
 10
2.399999999999977
 20
64.26696164036753
 30
0
 11
2.399999999999977
 21
-82.50000000000001
 31
0
  0
LINE
  8
1
 62
7
 10
25.20000000000005
 20
67.5
 30
0
 11
25.20000000000005
 21
22.49999999999999
 31
0
  0
LINE
  8
1
 62
7
 10
8.299999999999955
 20
-33.49999999999999
 30
0
 11
25.20000000000005
 21
-33.49999999999999
 31
0
  0
LINE
  8
1
 62
7
 10
8.299999999999955
 20
-67.50000000000001
 30
0
 11
25.20000000000005
 21
-67.50000000000001
 31
0
  0
LINE
  8
1
 62
7
 10
12.83046916720627
 20
94.03376807458507
 30
0
 11
12.83046916720627
 21
67.5
 31
0
  0
LINE
  8
1
 62
7
 10
10.23046916720625
 20
94.03376807458507
 30
0
 11
12.83046916720627
 21
94.03376807458507
 31
0
  0
LINE
  8
1
 62
7
 10
11.770074716046
 20
99.03376807458507
 30
0
 11
11.770074716046
 21
94.03376807458507
 31
0
  0
LINE
  8
1
 62
7
 10
12.17778317319585
 20
99.03376807458507
 30
0
 11
12.17778317319585
 21
94.03376807458507
 31
0
  0
LINE
  8
1
 62
7
 10
11.29086361836664
 20
94.03376807458507
 30
0
 11
11.29086361836664
 21
99.03376807458507
 31
0
  0
LINE
  8
1
 62
7
 10
10.88315516121679
 20
94.03376807458507
 30
0
 11
10.88315516121679
 21
99.03376807458507
 31
0
  0
LINE
  8
1
 62
7
 10
25.70000000000005
 20
67.75
 30
0
 11
30.40000000000005
 21
67.75
 31
0
  0
LINE
  8
1
 62
7
 10
30.40000000000005
 20
47.50000000000001
 30
0
 11
31.20000000000005
 21
47.50000000000001
 31
0
  0
LINE
  8
1
 62
7
 10
31.20000000000005
 20
47.50000000000001
 30
0
 11
31.20000000000005
 21
28.49999999999999
 31
0
  0
LINE
  8
1
 62
7
 10
25.70000000000005
 20
32.99999999999999
 30
0
 11
31.20000000000005
 21
32.99999999999999
 31
0
  0
LINE
  8
1
 62
7
 10
31.20000000000005
 20
-32.99999999999999
 30
0
 11
25.70000000000005
 21
-32.99999999999999
 31
0
  0
LINE
  8
1
 62
7
 10
30.40000000000005
 20
-67.75
 30
0
 11
25.70000000000005
 21
-67.75
 31
0
  0
LINE
  8
1
 62
7
 10
34.20000000000007
 20
65
 30
0
 11
34.20000000000007
 21
56.00000000000001
 31
0
  0
LINE
  8
1
 62
7
 10
31.40000000000006
 20
55.50000000000001
 30
0
 11
33.70000000000007
 21
55.50000000000001
 31
0
  0
LINE
  8
1
 62
7
 10
31.40000000000006
 20
65.5
 30
0
 11
33.70000000000007
 21
65.5
 31
0
  0
LINE
  8
1
 62
7
 10
30.40000000000005
 20
66.5
 30
0
 11
31.40000000000006
 21
66.5
 31
0
  0
LINE
  8
1
 62
7
 10
32.10000000000005
 20
65.5
 30
0
 11
32.10000000000005
 21
55.50000000000001
 31
0
  0
LINE
  8
1
 62
7
 10
33.70000000000007
 20
65.5
 30
0
 11
34.20000000000007
 21
65
 31
0
  0
LINE
  8
1
 62
7
 10
33.70000000000007
 20
55.50000000000001
 30
0
 11
34.20000000000007
 21
56.00000000000001
 31
0
  0
LINE
  8
1
 62
7
 10
30.40000000000005
 20
47.50000000000001
 30
0
 11
30.40000000000005
 21
67.75
 31
0
  0
LINE
  8
1
 62
7
 10
30.45885855344865
 20
54.50000000000001
 30
0
 11
31.40000000000006
 21
54.50000000000001
 31
0
  0
LINE
  8
1
 62
7
 10
31.40000000000006
 20
50.61729314364247
 30
0
 11
31.40000000000006
 21
66.5
 31
0
  0
LINE
  8
1
 62
7
 10
30.40000000000005
 20
50.4856406460551
 30
0
 11
31.20000000000005
 21
47.50000000000001
 31
0
  0
LINE
  8
1
 62
7
 10
31.40000000000006
 20
50.61729314364247
 30
0
 11
32.20000000000005
 21
47.63165249758738
 31
0
  0
LINE
  8
1
 62
7
 10
32.20000000000005
 20
-28.50000000000001
 30
0
 11
32.20000000000005
 21
-66.53672573724259
 31
0
  0
LINE
  8
1
 62
7
 10
31.20000000000005
 20
-66.53672573724259
 30
0
 11
32.20000000000005
 21
-66.53672573724259
 31
0
  0
LINE
  8
1
 62
7
 10
31.20000000000001
 20
-38.49999999999999
 30
0
 11
32.20000000000001
 21
-38.49999999999999
 31
0
  0
LINE
  8
1
 62
7
 10
32.20000000000005
 20
47.63165249758738
 30
0
 11
32.20000000000005
 21
28.49999999999999
 31
0
  0
LINE
  8
1
 62
7
 10
31.20000000000001
 20
-58.28122618943675
 30
0
 11
32.20000000000001
 21
-58.28122618943675
 31
0
  0
LINE
  8
1
 62
3
  6
DASHDOT
 10
0
 20
0
 30
0
 11
-5
 21
0
 31
0
  0
LINE
  8
1
 62
7
 10
10.23046916720625
 20
94.03376807458507
 30
0
 11
10.23046916720625
 21
67.5
 31
0
  0
LINE
  8
1
 62
7
 10
175.6875049242345
 20
94.03376807458507
 30
0
 11
175.6875049242345
 21
67.70385882651003
 31
0
  0
LINE
  8
1
 62
7
 10
178.1730768966772
 20
94.03376807458507
 30
0
 11
178.1730768966772
 21
67.74999846370494
 31
0
  0
LINE
  8
1
 62
7
 10
180.6875049242345
 20
94.03376807458507
 30
0
 11
180.6875049242345
 21
67.70385882651003
 31
0
  0
LINE
  8
1
 62
7
 10
115.6875049242345
 20
53.85164807134502
 30
0
 11
115.6875049242345
 21
26.14980879471206
 31
0
  0
LINE
  8
1
 62
7
 10
115.6875049242345
 20
-26.14980879471206
 30
0
 11
115.6875049242345
 21
-53.85164807134504
 31
0
  0
LINE
  8
1
 62
7
 10
240.6875049242345
 20
-26.14980879471206
 30
0
 11
240.6875049242345
 21
-53.85164807134505
 31
0
  0
LINE
  8
1
 62
7
 10
240.6875049242345
 20
53.85164807134505
 30
0
 11
240.6875049242345
 21
26.14980879471206
 31
0
  0
LINE
  8
1
 62
7
 10
204.3373137189466
 20
-62.5
 30
0
 11
232.0391529955796
 21
-62.5
 31
0
  0
LINE
  8
1
 62
7
 10
124.3358568528895
 20
-62.5
 30
0
 11
152.0376961295225
 21
-62.5
 31
0
  0
LINE
  8
1
 62
7
 10
204.3373137189466
 20
62.49999999999999
 30
0
 11
232.0391529955796
 21
62.49999999999999
 31
0
  0
LINE
  8
1
 62
7
 10
124.3358568528895
 20
62.49999999999999
 30
0
 11
152.0376961295224
 21
62.49999999999999
 31
0
  0
LINE
  8
1
 62
7
 10
175.6875049242345
 20
94.03376807458507
 30
0
 11
180.6875049242345
 21
94.03376807458507
 31
0
  0
LINE
  8
1
 62
7
 10
178.8889837884807
 20
99.03376807458507
 30
0
 11
178.8889837884807
 21
94.03376807458507
 31
0
  0
LINE
  8
1
 62
7
 10
179.4160622440594
 20
99.03376807458507
 30
0
 11
179.4160622440594
 21
94.03376807458507
 31
0
  0
LINE
  8
1
 62
7
 10
180.0485563907539
 20
99.03376807458507
 30
0
 11
180.0485563907539
 21
94.03376807458507
 31
0
  0
LINE
  8
1
 62
7
 10
176.3264534577152
 20
94.03376807458507
 30
0
 11
176.3264534577152
 21
99.03376807458507
 31
0
  0
LINE
  8
1
 62
7
 10
176.9589476044097
 20
94.03376807458507
 30
0
 11
176.9589476044097
 21
99.03376807458507
 31
0
  0
LINE
  8
1
 62
7
 10
177.4860260599884
 20
94.03376807458507
 30
0
 11
177.4860260599884
 21
99.03376807458507
 31
0
  0
LINE
  8
1
 62
7
 10
174.6875049242345
 20
12
 30
0
 11
174.6875049242345
 21
15.5
 31
0
  0
LINE
  8
1
 62
7
 10
174.6875049242345
 20
15.5
 30
0
 11
181.6875049242345
 21
15.5
 31
0
  0
LINE
  8
1
 62
7
 10
181.6875049242345
 20
15.5
 30
0
 11
181.6875049242345
 21
12
 31
0
  0
LINE
  8
1
 62
7
 10
176.6875049242345
 20
-40.66260283441135
 30
0
 11
176.6875049242345
 21
-45.82294901687516
 31
0
  0
LINE
  8
1
 62
7
 10
179.6875049242345
 20
-40.66260283441135
 30
0
 11
179.6875049242345
 21
-45.82294901687516
 31
0
  0
LINE
  8
1
 62
7
 10
176.6875049242345
 20
-49.17705098312486
 30
0
 11
176.6875049242345
 21
-54.33739716558868
 31
0
  0
LINE
  8
1
 62
7
 10
179.6875049242345
 20
-49.17705098312486
 30
0
 11
179.6875049242345
 21
-54.33739716558868
 31
0
  0
LINE
  8
1
 62
7
 10
214.1523519628319
 20
19.032263311529
 30
0
 11
218.6213428491676
 21
21.61243640276092
 31
0
  0
LINE
  8
1
 62
7
 10
212.6523519628319
 20
21.63033952288232
 30
0
 11
217.1213428491676
 21
24.21051261411423
 31
0
  0
LINE
  8
1
 62
7
 10
221.5260803588232
 20
23.28948738588576
 30
0
 11
225.9950712451589
 21
25.86966047711767
 31
0
  0
LINE
  8
1
 62
7
 10
220.0260803588232
 20
25.88756359723907
 30
0
 11
224.4950712451589
 21
28.46773668847099
 31
0
  0
LINE
  8
1
 62
7
 10
134.8489294896459
 20
23.28948738588579
 30
0
 11
130.3799386033102
 21
25.8696604771177
 31
0
  0
LINE
  8
1
 62
7
 10
136.3489294896459
 20
25.8875635972391
 30
0
 11
131.8799386033102
 21
28.46773668847102
 31
0
  0
LINE
  8
1
 62
7
 10
143.7226578856372
 20
21.63033952288235
 30
0
 11
139.2536669993015
 21
24.21051261411426
 31
0
  0
LINE
  8
1
 62
7
 10
142.2226578856372
 20
19.03226331152904
 30
0
 11
137.7536669993015
 21
21.61243640276096
 31
0
  0
LINE
  8
1
 62
3
  6
DASHDOT
 10
178.1875049242345
 20
46
 30
0
 11
178.1875049242345
 21
12.5
 31
0
  0
LINE
  8
1
 62
3
  6
DASHED
 10
181.1875049242345
 20
23.5
 30
0
 11
181.1875049242345
 21
15.5
 31
0
  0
LINE
  8
1
 62
7
  6
DASHED
 10
180.5875049242345
 20
23.5
 30
0
 11
180.5875049242345
 21
15.5
 31
0
  0
LINE
  8
1
 62
7
  6
DASHED
 10
175.7875049242346
 20
15.5
 30
0
 11
175.7875049242346
 21
23.5
 31
0
  0
LINE
  8
1
 62
3
  6
DASHED
 10
175.1875049242345
 20
15.5
 30
0
 11
175.1875049242345
 21
23.5
 31
0
  0
LINE
  8
1
 62
7
  6
DASHED
 10
174.1875049242345
 20
23.5
 30
0
 11
174.1875049242345
 21
42.81354925721527
 31
0
  0
LINE
  8
1
 62
7
  6
DASHED
 10
174.1875049242345
 20
23.5
 30
0
 11
182.1875049242345
 21
23.5
 31
0
  0
LINE
  8
1
 62
7
  6
DASHED
 10
182.1875049242345
 20
42.81354925721527
 30
0
 11
182.1875049242345
 21
23.5
 31
0
  0
LINE
  8
1
 62
7
  6
DASHED
 10
159.8359079353002
 20
-15.21410161513775
 30
0
 11
143.1098836413097
 21
-24.87087624374539
 31
0
  0
LINE
  8
1
 62
7
  6
DASHED
 10
139.1098836413097
 20
-17.94267301346988
 30
0
 11
155.8359079353002
 21
-8.285898384862236
 31
0
  0
LINE
  8
1
 62
3
  6
DASHDOT
 10
138.3503363501503
 20
-22.99999999999996
 30
0
 11
169.9602635882823
 21
-4.750000000000018
 31
0
  0
LINE
  8
1
 62
7
  6
DASHED
 10
159.8359079353002
 20
-15.21410161513775
 30
0
 11
155.8359079353002
 21
-8.285898384862236
 31
0
  0
LINE
  8
1
 62
3
  6
DASHED
 10
159.3359079353002
 20
-14.34807621135331
 30
0
 11
169.1785801457427
 21
-8.665406761109107
 31
0
  0
LINE
  8
1
 62
7
  6
DASHED
 10
159.0359079353002
 20
-13.82846096908264
 30
0
 11
168.7635932152641
 21
-8.212179254103557
 31
0
  0
LINE
  8
1
 62
3
  6
DASHED
 10
156.3359079353002
 20
-9.151923788646677
 30
0
 11
166.1785801457427
 21
-3.469254338402477
 31
0
  0
LINE
  8
1
 62
7
  6
DASHED
 10
156.6359079353002
 20
-9.671539030917348
 30
0
 11
166.3635932152641
 21
-4.055257315938276
 31
0
  0
LINE
  8
1
 62
3
  6
DASHDOT
 10
178.1875049242345
 20
5
 30
0
 11
178.1875049242345
 21
-5
 31
0
  0
LINE
  8
1
 62
3
  6
DASHDOT
 10
183.1875049242345
 20
0
 30
0
 11
173.1875049242345
 21
0
 31
0
  0
LINE
  8
1
 62
3
  6
DASHDOT
 10
235.6399308956415
 20
57.45242597140697
 30
0
 11
226.8010961308097
 21
48.61359120657514
 31
0
  0
LINE
  8
1
 62
3
  6
DASHDOT
 10
120.7350789528275
 20
57.45242597140702
 30
0
 11
129.5739137176593
 21
48.61359120657519
 31
0
  0
LINE
  8
1
 62
3
  6
DASHDOT
 10
120.7350789528274
 20
-57.45242597140697
 30
0
 11
129.5739137176593
 21
-48.61359120657514
 31
0
  0
LINE
  8
1
 62
3
  6
DASHDOT
 10
235.6399308956415
 20
-57.45242597140708
 30
0
 11
226.8010961308096
 21
-48.61359120657525
 31
0
  0
LINE
  8
1
 62
7
 10
-81.3736870789789
 20
28.49999999999999
 30
0
 11
-81.47368707897878
 21
28.49999999999999
 31
0
  0
LINE
  8
1
 62
7
 10
-80.3736870789789
 20
29.49999999999999
 30
0
 11
-80.3736870789789
 21
42.49999999999999
 31
0
  0
LINE
  8
1
 62
7
 10
-81.3736870789789
 20
-28.50000000000001
 30
0
 11
-81.47368707897878
 21
-28.50000000000001
 31
0
  0
LINE
  8
1
 62
7
 10
-83.2736870789788
 20
-47.49999999999999
 30
0
 11
-82.47368707897878
 21
-47.49999999999999
 31
0
  0
LINE
  8
1
 62
7
 10
-81.47368707897878
 20
-54.33739716558868
 30
0
 11
-80.3736870789789
 21
-54.33739716558868
 31
0
  0
LINE
  8
1
 62
7
 10
-81.47368707897878
 20
-40.66260283441135
 30
0
 11
-80.3736870789789
 21
-40.66260283441135
 31
0
  0
LINE
  8
1
 62
3
  6
DASHDOT
 10
-61.67368707897889
 20
0
 30
0
 11
-56.67368707897889
 21
0
 31
0
  0
LINE
  8
1
 62
7
 10
-80.3736870789789
 20
29.49999999999999
 30
0
 11
-80.3736870789789
 21
38.72474025397472
 31
0
  0
LINE
  8
1
 62
7
 10
-66.3736870789789
 20
-35.00000000000001
 30
0
 11
-62.8736870789789
 21
-35.00000000000001
 31
0
  0
LINE
  8
1
 62
7
 10
-62.67368707897889
 20
-28.49999999999999
 30
0
 11
-66.3736870789789
 21
-28.49999999999999
 31
0
  0
LINE
  8
1
 62
7
 10
-61.8736870789789
 20
-36.00000000000001
 30
0
 11
-61.8736870789789
 21
-59.00000000000001
 31
0
  0
LINE
  8
1
 62
7
 10
-67.3736870789789
 20
-61.00000000000001
 30
0
 11
-67.3736870789789
 21
-62.00000000000001
 31
0
  0
LINE
  8
1
 62
7
 10
-67.3736870789789
 20
-61.00000000000001
 30
0
 11
-67.3736870789789
 21
-62.00000000000001
 31
0
  0
LINE
  8
1
 62
7
 10
-61.8736870789789
 20
-36.00000000000001
 30
0
 11
-61.8736870789789
 21
-59.00000000000001
 31
0
  0
LINE
  8
1
 62
7
 10
-61.8736870789789
 20
-36.00000000000001
 30
0
 11
-61.8736870789789
 21
-59.00000000000001
 31
0
  0
LINE
  8
1
 62
7
 10
-62.8736870789789
 20
-60.00000000000001
 30
0
 11
-66.3736870789789
 21
-60.00000000000001
 31
0
  0
LINE
  8
1
 62
7
 10
-68.3736870789789
 20
-63.00000000000001
 30
0
 11
-75.3736870789789
 21
-63.00000000000001
 31
0
  0
LINE
  8
1
 62
7
 10
-68.3736870789789
 20
-63.00000000000001
 30
0
 11
-75.3736870789789
 21
-63.00000000000001
 31
0
  0
LINE
  8
1
 62
7
 10
-76.3736870789789
 20
-62.00000000000001
 30
0
 11
-76.3736870789789
 21
-61.00000000000001
 31
0
  0
LINE
  8
1
 62
7
 10
-77.3736870789789
 20
-60.00000000000001
 30
0
 11
-79.3736870789789
 21
-60.00000000000001
 31
0
  0
LINE
  8
1
 62
7
 10
-77.3736870789789
 20
-60.00000000000001
 30
0
 11
-79.3736870789789
 21
-60.00000000000001
 31
0
  0
LINE
  8
1
 62
7
 10
-80.3736870789789
 20
-59.00000000000001
 30
0
 11
-80.3736870789789
 21
-29.49999999999999
 31
0
  0
LINE
  8
1
 62
7
 10
-80.3736870789789
 20
-59.00000000000001
 30
0
 11
-80.3736870789789
 21
-29.49999999999999
 31
0
  0
LINE
  8
1
 62
7
 10
-82.2736870789788
 20
50.61729314364247
 30
0
 11
-81.47368707897878
 21
47.63165249758738
 31
0
  0
LINE
  8
1
 62
7
 10
-113.6736870789789
 20
-82.50000000000001
 30
0
 11
-111.2736870789789
 21
-82.50000000000001
 31
0
  0
LINE
  8
1
 62
7
 10
-113.6736870789789
 20
62.50000000000001
 30
0
 11
-113.6736870789789
 21
-82.50000000000001
 31
0
  0
LINE
  8
1
 62
7
 10
-111.2736870789789
 20
64.26696164036753
 30
0
 11
-111.2736870789789
 21
-82.50000000000001
 31
0
  0
LINE
  8
1
 62
7
 10
-113.6736870789789
 20
62.50000000000001
 30
0
 11
-111.2736870789789
 21
62.50000000000006
 31
0
  0
LINE
  8
1
 62
7
 10
-88.47368707897878
 20
67.5
 30
0
 11
-105.3736870789789
 21
67.5
 31
0
  0
LINE
  8
1
 62
7
 10
-88.47368707897878
 20
67.5
 30
0
 11
-88.47368707897878
 21
-67.50000000000001
 31
0
  0
LINE
  8
1
 62
7
 10
-105.3736870789789
 20
-67.50000000000001
 30
0
 11
-88.47368707897878
 21
-67.50000000000001
 31
0
  0
LINE
  8
1
 62
7
 10
-100.8432179117726
 20
94.03376807458507
 30
0
 11
-100.8432179117726
 21
67.5
 31
0
  0
LINE
  8
1
 62
7
 10
-103.4432179117726
 20
94.03376807458507
 30
0
 11
-100.8432179117726
 21
94.03376807458507
 31
0
  0
LINE
  8
1
 62
7
 10
-101.9036123629329
 20
99.03376807458507
 30
0
 11
-101.9036123629329
 21
94.03376807458507
 31
0
  0
LINE
  8
1
 62
7
 10
-101.495903905783
 20
99.03376807458507
 30
0
 11
-101.495903905783
 21
94.03376807458507
 31
0
  0
LINE
  8
1
 62
7
 10
-102.3828234606122
 20
94.03376807458507
 30
0
 11
-102.3828234606122
 21
99.03376807458507
 31
0
  0
LINE
  8
1
 62
7
 10
-102.7905319177621
 20
94.03376807458507
 30
0
 11
-102.7905319177621
 21
99.03376807458507
 31
0
  0
LINE
  8
1
 62
7
 10
-87.97368707897886
 20
67.75
 30
0
 11
-83.2736870789788
 21
67.75
 31
0
  0
LINE
  8
1
 62
7
 10
-83.2736870789788
 20
-67.75
 30
0
 11
-87.97368707897886
 21
-67.74999999999999
 31
0
  0
LINE
  8
1
 62
7
 10
-87.97368707897886
 20
67.75
 30
0
 11
-87.97368707897886
 21
-67.74999999999999
 31
0
  0
LINE
  8
1
 62
7
 10
-79.47368707897878
 20
65
 30
0
 11
-79.47368707897878
 21
56.00000000000001
 31
0
  0
LINE
  8
1
 62
7
 10
-82.2736870789788
 20
55.50000000000001
 30
0
 11
-79.97368707897878
 21
55.50000000000001
 31
0
  0
LINE
  8
1
 62
7
 10
-82.2736870789788
 20
65.5
 30
0
 11
-79.97368707897878
 21
65.5
 31
0
  0
LINE
  8
1
 62
7
 10
-83.2736870789788
 20
66.5
 30
0
 11
-82.2736870789788
 21
66.5
 31
0
  0
LINE
  8
1
 62
7
 10
-81.57368707897881
 20
65.5
 30
0
 11
-81.57368707897881
 21
55.50000000000001
 31
0
  0
LINE
  8
1
 62
7
 10
-79.97368707897878
 20
65.5
 30
0
 11
-79.47368707897878
 21
65
 31
0
  0
LINE
  8
1
 62
7
 10
-79.97368707897878
 20
55.50000000000001
 30
0
 11
-79.47368707897878
 21
56.00000000000001
 31
0
  0
LINE
  8
1
 62
7
 10
-82.2736870789788
 20
66.5
 30
0
 11
-82.2736870789788
 21
50.61729314364247
 31
0
  0
LINE
  8
1
 62
7
 10
-83.2736870789788
 20
50.4856406460551
 30
0
 11
-82.47368707897878
 21
47.50000000000001
 31
0
  0
LINE
  8
1
 62
7
 10
-82.2736870789788
 20
50.61729314364247
 30
0
 11
-81.47368707897878
 21
47.63165249758738
 31
0
  0
LINE
  8
1
 62
7
 10
-82.47368707897878
 20
-66.53672573724259
 30
0
 11
-81.47368707897878
 21
-66.53672573724259
 31
0
  0
LINE
  8
1
 62
7
 10
-81.47368707897878
 20
47.63165249758738
 30
0
 11
-81.47368707897878
 21
-66.53672573724259
 31
0
  0
LINE
  8
1
 62
7
 10
-82.47368707897878
 20
47.50000000000001
 30
0
 11
-82.47368707897878
 21
-66.53672573724259
 31
0
  0
LINE
  8
1
 62
3
  6
DASHDOT
 10
-113.6736870789789
 20
0
 30
0
 11
-118.6736870789789
 21
0
 31
0
  0
LINE
  8
1
 62
7
 10
-103.4432179117726
 20
94.03376807458507
 30
0
 11
-103.4432179117726
 21
67.5
 31
0
  0
LINE
  8
1
 62
7
 10
-83.2736870789788
 20
67.75
 30
0
 11
-83.2736870789788
 21
-67.75
 31
0
  0
LINE
  8
1
 62
3
  6
DASHDOT
 10
-116.6736870789789
 20
-75
 30
0
 11
-108.2736870789789
 21
-75
 31
0
  0
LINE
  8
1
 62
7
 10
-66.8736870789789
 20
28.49999999999999
 30
0
 11
-62.17368707897889
 21
28.49999999999999
 31
0
  0
LINE
  8
1
 62
7
 10
-61.67368707897889
 20
27.99999999999999
 30
0
 11
-61.67368707897889
 21
11.76373051856434
 31
0
  0
LINE
  8
1
 62
7
 10
-66.8736870789789
 20
11.26373051856434
 30
0
 11
-62.17368707897889
 21
11.26373051856434
 31
0
  0
LINE
  8
1
 62
7
 10
-61.67368707897889
 20
11.26373051856434
 30
0
 11
-61.67368707897889
 21
-27.49999999999999
 31
0
  0
LINE
  8
1
 62
7
 10
-67.3736870789789
 20
41.99999999999999
 30
0
 11
-67.3736870789789
 21
-62.00000000000001
 31
0
  0
LINE
  8
1
 62
7
 10
-80.3736870789789
 20
-59.00000000000001
 30
0
 11
-80.3736870789789
 21
-29.49999999999999
 31
0
  0
LINE
  8
1
 62
7
 10
-79.8736870789789
 20
42.99999999999999
 30
0
 11
-68.3736870789789
 21
42.99999999999999
 31
0
  0
LINE
  8
1
 62
7
 10
-82.47368707897878
 20
47.50000000000001
 30
0
 11
-83.2736870789788
 21
47.50000000000001
 31
0
  0
ARC
  8
1
 62
7
 10
47.30000000000001
 20
29.49999999999999
 30
0
 40
1
 50
180
 51
270
  0
ARC
  8
1
 62
7
 10
34.30000000000001
 20
-59.00000000000001
 30
0
 40
1
 50
180
 51
270
  0
ARC
  8
1
 62
7
 10
45.30000000000001
 20
-62.00000000000001
 30
0
 40
1
 50
270
 51
0
  0
ARC
  8
1
 62
7
 10
38.30000000000001
 20
-62.00000000000001
 30
0
 40
1
 50
180
 51
270
  0
ARC
  8
1
 62
7
 10
27
 20
-23.49999999999999
 30
0
 40
1
 50
0
 51
90
  0
ARC
  8
1
 62
7
 10
27
 20
23.49999999999999
 30
0
 40
1
 50
270
 51
0
  0
ARC
  8
1
 62
7
 10
29
 20
27.49999999999999
 30
0
 40
1
 50
90
 51
180
  0
ARC
  8
1
 62
7
 10
34.30000000000001
 20
41.99999999999999
 30
0
 40
1
 50
90
 51
180
  0
ARC
  8
1
 62
7
 10
45.30000000000001
 20
41.99999999999999
 30
0
 40
1
 50
0
 51
90
  0
ARC
  8
1
 62
7
 10
32.30000000000001
 20
29.49999999999999
 30
0
 40
1
 50
270
 51
0
  0
ARC
  8
1
 62
7
 10
29
 20
-27.49999999999999
 30
0
 40
1
 50
180
 51
270
  0
ARC
  8
1
 62
7
 10
32.30000000000001
 20
-29.49999999999999
 30
0
 40
1
 50
0
 51
90
  0
ARC
  8
1
 62
7
 10
36.30000000000001
 20
-61.00000000000001
 30
0
 40
1
 50
0
 51
90
  0
ARC
  8
1
 62
7
 10
47.30000000000001
 20
-61.00000000000001
 30
0
 40
1
 50
90
 51
180
  0
ARC
  8
1
 62
7
 10
50.79999999999999
 20
-59.00000000000001
 30
0
 40
1
 50
270
 51
0
  0
ARC
  8
1
 62
7
 10
50.79999999999999
 20
-36.00000000000001
 30
0
 40
1
 50
0
 51
90
  0
ARC
  8
1
 62
7
 10
47.30000000000001
 20
-34.00000000000001
 30
0
 40
1
 50
180
 51
270
  0
ARC
  8
1
 62
7
 10
47.30000000000001
 20
-29.49999999999999
 30
0
 40
1
 50
90
 51
180
  0
ARC
  8
1
 62
7
 10
51
 20
-27.49999999999999
 30
0
 40
1
 50
270
 51
0
  0
ARC
  8
1
 62
7
 10
51
 20
27.49999999999999
 30
0
 40
1
 50
0
 51
90
  0
ARC
  8
1
 62
7
 10
8.299999999999955
 20
40.49999999999999
 30
0
 40
7.00000000000001
 50
212.5569318374548
 51
270
  0
ARC
  8
1
 62
7
 10
8.299999999999955
 20
60.50000000000001
 30
0
 40
6.999999999999993
 50
90
 51
147.4430681625453
  0
ARC
  8
1
 62
7
 10
8.299999999999955
 20
-60.5
 30
0
 40
6.999999999999956
 50
212.5569318374541
 51
270
  0
ARC
  8
1
 62
7
 10
8.299999999999955
 20
-40.49999999999999
 30
0
 40
7
 50
90
 51
147.443068162546
  0
ARC
  8
1
 62
7
 10
178.1875049242345
 20
-3.552713678800501e-015
 30
0
 40
82.5
 50
220.7490543774704
 51
229.2509456225297
  0
ARC
  8
1
 62
7
 10
178.1875049242345
 20
-3.552713678800501e-015
 30
0
 40
82.50000000000004
 50
310.7490543774704
 51
319.2509456225296
  0
ARC
  8
1
 62
7
 10
178.1875049242345
 20
-3.552713678800501e-015
 30
0
 40
82.5
 50
40.7490543774704
 51
49.25094562252959
  0
ARC
  8
1
 62
7
 10
178.1875049242345
 20
-3.552713678800501e-015
 30
0
 40
82.49999999999996
 50
130.7490543774703
 51
139.2509456225296
  0
ARC
  8
1
 62
7
 10
178.1875049242345
 20
-3.552713678800501e-015
 30
0
 40
47.50000000000001
 50
289.946071626425
 51
10.05392837357503
  0
ARC
  8
1
 62
7
 10
178.1875049242345
 20
-3.552713678800501e-015
 30
0
 40
67.00000000000001
 50
300.0000000000001
 51
359.9999999999999
  0
ARC
  8
1
 62
7
 10
178.1875049242345
 20
-3.552713678800501e-015
 30
0
 40
54.00000000000001
 50
305
 51
354.9999999999999
  0
ARC
  8
1
 62
7
 10
178.1875049242345
 20
-3.552713678800501e-015
 30
0
 40
54.00000000000001
 50
64.99999999999996
 51
114.9999999999999
  0
ARC
  8
1
 62
7
 10
178.1875049242345
 20
-3.552713678800501e-015
 30
0
 40
67.00000000000001
 50
60.00000000000001
 51
119.9999999999999
  0
ARC
  8
1
 62
7
 10
196.6875049242345
 20
32.04293994002421
 30
0
 40
30.00000000000002
 50
10.79677826737212
 51
60.00000000000002
  0
ARC
  8
1
 62
7
 10
193.4017623468997
 20
32.62708033331937
 30
0
 40
18.00000000000005
 50
13.93164785486191
 51
64.99999999999996
  0
ARC
  8
1
 62
7
 10
178.1875049242345
 20
-3.552713678800501e-015
 30
0
 40
67
 50
180.0000000000001
 51
240
  0
ARC
  8
1
 62
7
 10
178.1875049242345
 20
-3.552713678800501e-015
 30
0
 40
53.99999999999995
 50
185.0000000000001
 51
235
  0
ARC
  8
1
 62
7
 10
196.6875049242345
 20
-32.04293994002423
 30
0
 40
30.00000000000001
 50
250.796778267372
 51
300.0000000000002
  0
ARC
  8
1
 62
7
 10
198.8362566328722
 20
-29.48947359440371
 30
0
 40
17.99999999999996
 50
253.931647854862
 51
304.9999999999999
  0
ARC
  8
1
 62
7
 10
142.3244957929317
 20
-3.137606738915716
 30
0
 40
18
 50
133.9316478548617
 51
185.0000000000002
  0
ARC
  8
1
 62
7
 10
141.1875049242345
 20
-3.197442310920451e-014
 30
0
 40
30.00000000000001
 50
130.796778267372
 51
180.0000000000001
  0
ARC
  8
1
 62
7
 10
178.1875049242345
 20
-3.552713678800501e-015
 30
0
 40
12.50000000000001
 50
106.260204708312
 51
73.73979529168805
  0
ARC
  8
1
 62
7
 10
147.7447881799937
 20
-49.36842105263158
 30
0
 40
15
 50
3.512121671837464
 51
58.34020989913942
  0
ARC
  8
1
 62
7
 10
178.1875049242345
 20
-3.552713678800501e-015
 30
0
 40
42.99999999999996
 50
181.6597901008607
 51
238.3402098991393
  0
ARC
  8
1
 62
7
 10
157.5387532155968
 20
-29.48947359440371
 30
0
 40
17.99999999999999
 50
235
 51
286.0683521451383
  0
ARC
  8
1
 62
7
 10
178.1875049242345
 20
-3.552713678800501e-015
 30
0
 40
47.49999999999996
 50
169.9460716264249
 51
250.0539283735751
  0
ARC
  8
1
 62
7
 10
208.6302216684754
 20
-49.36842105263158
 30
0
 40
14.99999999999998
 50
121.6597901008607
 51
176.4878783281625
  0
ARC
  8
1
 62
7
 10
159.6875049242345
 20
-32.04293994002423
 30
0
 40
29.99999999999998
 50
240
 51
289.203221732628
  0
ARC
  8
1
 62
7
 10
178.1875049242345
 20
-47.50000000000001
 30
0
 40
15.49999999999995
 50
183.5121216718374
 51
356.4878783281627
  0
ARC
  8
1
 62
7
 10
205.7204533284195
 20
51.04837658704227
 30
0
 40
15
 50
241.6597901008608
 51
296.4878783281625
  0
ARC
  8
1
 62
7
 10
219.3237116039954
 20
23.74999999999999
 30
0
 40
15.49999999999999
 50
303.5121216718373
 51
116.4878783281629
  0
ARC
  8
1
 62
7
 10
236.1631700726604
 20
-1.679955534410716
 30
0
 40
14.99999999999998
 50
123.5121216718374
 51
178.3402098991392
  0
ARC
  8
1
 62
7
 10
120.2118397758087
 20
-1.679955534410666
 30
0
 40
14.99999999999997
 50
1.659790100860703
 51
56.48787832816301
  0
ARC
  8
1
 62
7
 10
120.2118397758087
 20
-1.679955534410666
 30
0
 40
14.99999999999997
 50
1.659790100860703
 51
56.48787832816301
  0
ARC
  8
1
 62
7
 10
137.0512982444737
 20
23.75000000000004
 30
0
 40
15.49999999999998
 50
63.51212167183757
 51
236.4878783281623
  0
ARC
  8
1
 62
7
 10
150.6545565200495
 20
51.04837658704229
 30
0
 40
14.99999999999999
 50
243.5121216718374
 51
298.3402098991391
  0
ARC
  8
1
 62
7
 10
214.0505140555374
 20
-3.137606738915746
 30
0
 40
17.99999999999996
 50
354.9999999999999
 51
46.06835214513824
  0
ARC
  8
1
 62
7
 10
215.1875049242345
 20
-5.684341886080801e-014
 30
0
 40
30
 50
359.9999999999999
 51
49.20322173262778
  0
ARC
  8
1
 62
7
 10
159.6875049242345
 20
32.04293994002423
 30
0
 40
29.99999999999996
 50
119.9999999999999
 51
169.2032217326279
  0
ARC
  8
1
 62
7
 10
162.9732475015693
 20
32.6270803333194
 30
0
 40
17.99999999999995
 50
114.9999999999997
 51
166.068352145138
  0
ARC
  8
1
 62
7
 10
178.1875049242345
 20
-3.552713678800501e-015
 30
0
 40
47.49999999999999
 50
49.94607162642497
 51
130.0539283735749
  0
ARC
  8
1
 62
7
 10
178.1875049242345
 20
-3.552713678800501e-015
 30
0
 40
42.99999999999999
 50
61.65979010086075
 51
118.3402098991393
  0
ARC
  8
1
 62
7
 10
178.1875049242345
 20
-3.552713678800501e-015
 30
0
 40
43.00000000000004
 50
301.6597901008608
 51
358.3402098991393
  0
ARC
  8
1
 62
3
  6
DASHDOT
 10
178.1875049242345
 20
-3.552713678800501e-015
 30
0
 40
75.00000000000004
 50
39.99999999999999
 51
49.99999999999999
  0
ARC
  8
1
 62
3
  6
DASHDOT
 10
178.1875049242345
 20
-3.552713678800501e-015
 30
0
 40
75.00000000000006
 50
130
 51
140
  0
ARC
  8
1
 62
3
  6
DASHDOT
 10
178.1875049242345
 20
-3.552713678800501e-015
 30
0
 40
75.00000000000004
 50
220
 51
230
  0
ARC
  8
1
 62
3
  6
DASHDOT
 10
178.1875049242345
 20
-3.552713678800501e-015
 30
0
 40
75.0000000000001
 50
309.9999999999999
 51
319.9999999999999
  0
ARC
  8
1
 62
7
 10
-81.3736870789789
 20
-29.50000000000001
 30
0
 40
1
 50
0
 51
90
  0
ARC
  8
1
 62
7
 10
-81.3736870789789
 20
29.49999999999999
 30
0
 40
1
 50
270
 51
0
  0
ARC
  8
1
 62
7
 10
-66.3736870789789
 20
-34.00000000000001
 30
0
 40
1
 50
180
 51
270
  0
ARC
  8
1
 62
7
 10
-62.67368707897889
 20
-27.49999999999999
 30
0
 40
1
 50
270
 51
0
  0
ARC
  8
1
 62
7
 10
-66.3736870789789
 20
-29.49999999999999
 30
0
 40
1
 50
90
 51
180
  0
ARC
  8
1
 62
7
 10
-66.3736870789789
 20
-34.00000000000001
 30
0
 40
1
 50
180
 51
270
  0
ARC
  8
1
 62
7
 10
-62.8736870789789
 20
-36.00000000000001
 30
0
 40
1
 50
0
 51
90
  0
ARC
  8
1
 62
7
 10
-68.3736870789789
 20
-62.00000000000001
 30
0
 40
1
 50
270
 51
0
  0
ARC
  8
1
 62
7
 10
-66.3736870789789
 20
-61.00000000000001
 30
0
 40
1
 50
90
 51
180
  0
ARC
  8
1
 62
7
 10
-62.8736870789789
 20
-59.00000000000001
 30
0
 40
1
 50
270
 51
0
  0
ARC
  8
1
 62
7
 10
-66.3736870789789
 20
-61.00000000000001
 30
0
 40
1
 50
90
 51
180
  0
ARC
  8
1
 62
7
 10
-66.3736870789789
 20
-61.00000000000001
 30
0
 40
1
 50
90
 51
180
  0
ARC
  8
1
 62
7
 10
-75.3736870789789
 20
-62.00000000000001
 30
0
 40
1
 50
180
 51
270
  0
ARC
  8
1
 62
7
 10
-75.3736870789789
 20
-62.00000000000001
 30
0
 40
1
 50
180
 51
270
  0
ARC
  8
1
 62
7
 10
-77.3736870789789
 20
-61.00000000000001
 30
0
 40
1
 50
0
 51
90
  0
ARC
  8
1
 62
7
 10
-77.3736870789789
 20
-61.00000000000001
 30
0
 40
1
 50
0
 51
90
  0
ARC
  8
1
 62
7
 10
-79.3736870789789
 20
-59.00000000000001
 30
0
 40
1
 50
180
 51
270
  0
ARC
  8
1
 62
7
 10
-68.3736870789789
 20
41.99999999999999
 30
0
 40
1
 50
0
 51
90
  0
ARC
  8
1
 62
7
 10
-105.3736870789789
 20
60.50000000000001
 30
0
 40
6.999999999999993
 50
90
 51
147.4430681625453
  0
ARC
  8
1
 62
7
 10
-105.3736870789789
 20
-60.5
 30
0
 40
6.999999999999967
 50
212.556931837454
 51
270
  0
ARC
  8
1
 62
7
 10
-66.8736870789789
 20
28.99999999999999
 30
0
 40
0.5
 50
180
 51
270
  0
ARC
  8
1
 62
7
 10
-62.17368707897889
 20
27.99999999999999
 30
0
 40
0.5
 50
0
 51
90
  0
ARC
  8
1
 62
7
 10
-62.17368707897889
 20
11.76373051856434
 30
0
 40
0.5
 50
270
 51
0
  0
ARC
  8
1
 62
7
 10
-66.8736870789789
 20
10.76373051856434
 30
0
 40
0.5
 50
90
 51
180
  0
ARC
  8
1
 62
7
 10
-79.8736870789789
 20
42.49999999999999
 30
0
 40
0.5
 50
90
 51
180
  0
CIRCLE
  8
1
 62
7
 10
231.2205135132256
 20
-53.03300858899107
 30
0
 40
3.25
  0
CIRCLE
  8
1
 62
7
 10
231.2205135132256
 20
53.03300858899107
 30
0
 40
3.25
  0
CIRCLE
  8
1
 62
7
 10
125.1544963352435
 20
-53.03300858899107
 30
0
 40
3.25
  0
CIRCLE
  8
1
 62
7
 10
125.1544963352435
 20
53.03300858899107
 30
0
 40
3.25
  0
CIRCLE
  8
1
 62
7
 10
230.5820418531931
 20
-30.25000000000006
 30
0
 40
5
  0
CIRCLE
  8
1
 62
7
 10
125.792967995276
 20
-30.24999999999999
 30
0
 40
5
  0
CIRCLE
  8
1
 62
7
 10
178.1875049242345
 20
60.49999999999999
 30
0
 40
5
  0
CIRCLE
  8
1
 62
7
 10
178.1875049242345
 20
-47.50000000000001
 30
0
 40
7
  0
CIRCLE
  8
1
 62
7
 10
178.1875049242345
 20
-47.50000000000001
 30
0
 40
10
  0
CIRCLE
  8
1
 62
7
 10
178.1875049242345
 20
-47.50000000000001
 30
0
 40
2.25
  0
CIRCLE
  8
1
 62
7
 10
178.1875049242345
 20
-47.50000000000001
 30
0
 40
12.5
  0
CIRCLE
  8
1
 62
7
 10
178.1875049242345
 20
-3.552713678800501e-015
 30
0
 40
28.5
  0
CIRCLE
  8
1
 62
7
 10
219.3237116039954
 20
23.74999999999999
 30
0
 40
7
  0
CIRCLE
  8
1
 62
7
 10
219.3237116039954
 20
23.74999999999999
 30
0
 40
10
  0
CIRCLE
  8
1
 62
7
 10
219.3237116039954
 20
23.74999999999999
 30
0
 40
2.25
  0
CIRCLE
  8
1
 62
7
 10
219.3237116039954
 20
23.74999999999999
 30
0
 40
12.5
  0
CIRCLE
  8
1
 62
7
 10
137.0512982444737
 20
23.75000000000004
 30
0
 40
12.5
  0
CIRCLE
  8
1
 62
7
 10
137.0512982444737
 20
23.75000000000004
 30
0
 40
7
  0
CIRCLE
  8
1
 62
7
 10
137.0512982444737
 20
23.75000000000004
 30
0
 40
7
  0
CIRCLE
  8
1
 62
7
 10
137.0512982444737
 20
23.75000000000004
 30
0
 40
2.25
  0
CIRCLE
  8
1
 62
7
 10
137.0512982444737
 20
23.75000000000004
 30
0
 40
10
  0
CIRCLE
  8
1
 62
7
 10
178.1875049242345
 20
-3.552713678800501e-015
 30
0
 40
67.75
  0
TEXT
  8
1
 62
7
 10
-95.20923506807591
 20
128.1009389614131
 30
0
 40
5
  1
TMAB 5
 41
0.9
  7
SIMPLEX
  0
TEXT
  8
1
 62
7
 10
-95.61394981197451
 20
119.6132210102241
 30
0
 40
5
  1
DC2304
 41
0.9
  7
SIMPLEX
  0
ENDSEC
  0
EOF
