  0
SECTION
  2
HEADER
  9
$ACADVER
  1
AC1009
  9
$INSBASE
 10
0
 20
0
  9
$EXTMIN
 10
-135
 20
-51.29352071005914
  9
$EXTMAX
 10
224.25
 20
212.7064792899409
  9
$LIMMIN
 10
-135
 20
-51.29352071005914
  9
$LIMMAX
 10
224.25
 20
212.7064792899409
  9
$VIEWCTR
 10
10
 20
10
  9
$VIEWSIZE
 40
10
  9
$SNAPMODE
 70
0
  9
$SNAPUNIT
 10
1
 20
1
  9
$SNAPBASE
 10
0
 20
0
  9
$SNAPANG
 50
0
  9
$SNAPSTYLE
 70
0
  9
$SNAPISOPAIR
 70
0
  9
$GRIDMODE
 70
0
  9
$GRIDUNIT
 10
0
 20
0
  9
$ORTHOMODE
 70
0
  9
$REGENMODE
 70
1
  9
$FILLMODE
 70
1
  9
$QTEXTMODE
 70
0
  9
$DRAGMODE
 70
2
  9
$LTSCALE
 40
1
  9
$OSMODE
 70
0
  9
$ATTMODE
 70
1
  9
$TEXTSIZE
 40
3.5
  9
$TRACEWID
 40
0.5
  9
$TEXTSTYLE
  7
STANDARD
  9
$CLAYER
  8
0
  9
$CELTYPE
  6
BYLAYER
  9
$CECOLOR
 62
256
  9
$DIMSCALE
 40
1
  9
$DIMASZ
 40
0.18
  9
$DIMEXO
 40
0.0625
  9
$DIMDLI
 40
0.38
  9
$DIMRND
 40
0
  9
$DIMDLE
 40
0
  9
$DIMEXE
 40
0.18
  9
$DIMTP
 40
0
  9
$DIMTM
 40
0
  9
$DIMTXT
 40
0.18
  9
$DIMCEN
 40
0.09
  9
$DIMTSZ
 40
0
  9
$DIMTOL
 70
0
  9
$DIMLIM
 70
0
  9
$DIMTIH
 70
1
  9
$DIMTOH
 70
1
  9
$DIMSE1
 70
0
  9
$DIMSE2
 70
0
  9
$DIMTAD
 70
0
  9
$DIMZIN
 70
0
  9
$DIMBLK
  1

  9
$DIMASO
 70
1
  9
$DIMSHO
 70
1
  9
$DIMPOST
  1

  9
$DIMAPOST
  1

  9
$DIMALT
 70
0
  9
$DIMALTD
 70
2
  9
$DIMALTF
 40
25.4
  9
$DIMLFAC
 40
1
  9
$DIMTOFL
 70
0
  9
$DIMTVP
 40
0
  9
$DIMTIX
 70
0
  9
$DIMSOXD
 70
0
  9
$DIMSAH
 70
0
  9
$DIMBLK1
  1

  9
$DIMBLK2
  1

  9
$DIMSTYLE
  2
*UNNAMED
  9
$DIMCLRD
 70
0
  9
$DIMCLRE
 70
0
  9
$DIMCLRT
 70
0
  9
$DIMTFAC
 40
1
  9
$DIMGAP
 40
0.09
  9
$LUNITS
 70
2
  9
$LUPREC
 70
4
  9
$AXISMODE
 70
0
  9
$AXISUNIT
 10
0
 20
0
  9
$SKETCHINC
 40
0.1
  9
$FILLETRAD
 40
2
  9
$AUNITS
 70
0
  9
$AUPREC
 70
0
  9
$MENU
  1
ACAD
  9
$ELEVATION
 40
0
  9
$THICKNESS
 40
0
  9
$VIEWDIR
 10
0
 20
0
 30
1
  9
$LIMCHECK
 70
0
  9
$BLIPMODE
 70
1
  9
$CHAMFERA
 40
0
  9
$CHAMFERB
 40
0
  9
$FASTZOOM
 70
1
  9
$SKPOLY
 70
0
  9
$ANGBASE
 50
0
  9
$ANGDIR
 70
0
  9
$PDMODE
 70
0
  9
$PDSIZE
 40
0
  9
$PLINEWID
 40
0
  9
$COORDS
 70
2
  0
ENDSEC
  0
SECTION
  2
TABLES
  0
TABLE
  2
DIMSTYLE
 70
0
  0
ENDTAB
  0
TABLE
  2
LTYPE
 70
9
  0
LTYPE
  2
CONTINUOUS
 70
64
  3
Solid line
 72
65
 73
0
 40
0
  0
LTYPE
  2
BORDER
 70
64
  3
__ __ . __ __ .
 72
65
 73
6
 40
16.54440789473684
 49
4.726973684210527
 49
-2.363486842105263
 49
4.726973684210527
 49
-2.363486842105263
 49
0
 49
-2.363486842105263
  0
LTYPE
  2
CENTER
 70
64
  3
____ _ ____ _
 72
65
 73
4
 40
18.90789473684211
 49
11.81743421052632
 49
-2.363486842105263
 49
2.363486842105263
 49
-2.363486842105263
  0
LTYPE
  2
DASHDOT
 70
64
  3
__ . __ . __ .
 72
65
 73
4
 40
9.453947368421053
 49
4.726973684210527
 49
-2.363486842105263
 49
0
 49
-2.363486842105263
  0
LTYPE
  2
DASHED
 70
64
  3
__ __ __ __ __
 72
65
 73
2
 40
7.090460526315789
 49
4.726973684210527
 49
-2.363486842105263
  0
LTYPE
  2
DIVIDE
 70
64
  3
__ . . __ . . 
 72
65
 73
6
 40
11.81743421052632
 49
4.726973684210527
 49
-2.363486842105263
 49
0
 49
-2.363486842105263
 49
0
 49
-2.363486842105263
  0
LTYPE
  2
DOT
 70
64
  3
..............
 72
65
 73
4
 40
4.726973684210527
 49
0
 49
-2.363486842105263
 49
0
 49
-2.363486842105263
  0
LTYPE
  2
HIDDEN
 70
64
  3
_ _ _ _ _ _ _
 72
65
 73
2
 40
3.545230263157895
 49
2.363486842105263
 49
-1.181743421052632
  0
LTYPE
  2
PHANTOM
 70
64
  3
_____ _ _ _____ _ _ 
 72
65
 73
6
 40
23.63486842105263
 49
11.81743421052632
 49
-2.363486842105263
 49
2.363486842105263
 49
-2.363486842105263
 49
2.363486842105263
 49
-2.363486842105263
  0
ENDTAB
  0
TABLE
  2
LAYER
 70
3
  0
LAYER
  2
1
 70
0
 62
7
  6
CONTINUOUS
  0
LAYER
  2
0
 70
0
 62
7
  6
CONTINUOUS
  0
ENDTAB
  0
TABLE
  2
STYLE
 70
4
  0
STYLE
  2
STANDARD
 70
0
 40
0
 41
1
 50
0
 71
0
 42
3.5
  3
txt
  4

  0
STYLE
  2
SIMPLEX
 70
0
 40
0
 41
1
 50
0
 71
0
 42
3.5
  3
simplex
  4

  0
STYLE
  2
COMPLEX
 70
0
 40
0
 41
1
 50
0
 71
0
 42
3.5
  3
complex
  4

  0
STYLE
  2
ITALIC
 70
0
 40
0
 41
1
 50
0
 71
0
 42
3.5
  3
italic
  4

  0
ENDTAB
  0
TABLE
  2
VIEW
 70
0
  0
ENDTAB
  0
ENDSEC
  0
SECTION
  2
BLOCKS
  0
ENDSEC
  0
SECTION
  2
ENTITIES
  0
LINE
  8
1
 62
7
 10
76.30000000000003
 20
23.77230553873447
 30
0
 11
76.30000000000003
 21
8.806479289940803
 31
0
  0
LINE
  8
1
 62
7
 10
76.50000000000009
 20
13.20647928994085
 30
0
 11
76.50000000000009
 21
9.20047928994085
 31
0
  0
LINE
  8
1
 62
7
 10
150.3354893876681
 20
10.54461734275444
 30
0
 11
153.5192378864668
 21
8.706479289940859
 31
0
  0
LINE
  8
1
 62
7
 10
156.5192378864668
 20
6.974428482372019
 30
0
 11
159.7029863852657
 21
5.136290429558443
 31
0
  0
LINE
  8
1
 62
7
 10
160.7029863852656
 20
6.868341237127282
 30
0
 11
157.5192378864668
 21
8.706479289940859
 31
0
  0
LINE
  8
1
 62
7
 10
154.5192378864668
 20
10.43853009750976
 30
0
 11
151.335489387668
 21
12.27666815032328
 31
0
  0
LINE
  8
1
 62
3
  6
DASHDOT
 10
186.5
 20
-6.293520710059141
 30
0
 11
176.5
 21
-6.293520710059141
 31
0
  0
LINE
  8
1
 62
3
  6
DASHDOT
 10
181.5
 20
-11.29352071005914
 30
0
 11
181.5
 21
-1.293520710059141
 31
0
  0
LINE
  8
1
 62
7
 10
222.5
 20
30.3670848495876
 30
0
 11
222.5
 21
5.812779302744133
 31
0
  0
LINE
  8
1
 62
7
 10
143.5
 20
-47.29352071005916
 30
0
 11
169.3936999871968
 21
-47.29352071005914
 31
0
  0
LINE
  8
1
 62
7
 10
140.4999999999999
 20
30.3670848495876
 30
0
 11
140.4999999999999
 21
5.812779302743877
 31
0
  0
LINE
  8
1
 62
7
 10
144.8393944403533
 20
34.70647928994084
 30
0
 11
169.3936999871968
 21
34.70647928994086
 31
0
  0
LINE
  8
1
 62
7
 10
182.5
 20
-41.70184762325508
 30
0
 11
182.5
 21
-38.02557151762807
 31
0
  0
LINE
  8
1
 62
7
 10
182.5
 20
-34.56146990249033
 30
0
 11
182.5
 21
-30.88519379686312
 31
0
  0
LINE
  8
1
 62
7
 10
180.5000000000001
 20
-30.88519379686321
 30
0
 11
180.5
 21
-34.5614699024903
 31
0
  0
LINE
  8
1
 62
7
 10
180.5
 20
-38.02557151762807
 30
0
 11
180.5000000000001
 21
-41.70184762325516
 31
0
  0
LINE
  8
1
 62
7
 10
211.664510612332
 20
12.27666815032325
 30
0
 11
208.4807621135332
 21
10.43853009750976
 31
0
  0
LINE
  8
1
 62
7
 10
205.4807621135333
 20
8.706479289940887
 30
0
 11
202.2970136147344
 21
6.868341237127254
 31
0
  0
LINE
  8
1
 62
7
 10
203.2970136147344
 20
5.1362904295585
 30
0
 11
206.4807621135332
 21
6.974428482372019
 31
0
  0
LINE
  8
1
 62
7
 10
209.4807621135332
 20
8.706479289940887
 30
0
 11
212.664510612332
 21
10.54461734275449
 31
0
  0
LINE
  8
1
 62
7
 10
179
 20
0.7775471018063342
 30
0
 11
179
 21
3.206479289940859
 31
0
  0
LINE
  8
1
 62
7
 10
179
 20
3.206479289940859
 30
0
 11
184
 21
3.206479289940847
 31
0
  0
LINE
  8
1
 62
7
 10
184
 20
3.206479289940847
 30
0
 11
184
 21
0.7775471018063342
 31
0
  0
LINE
  8
1
 62
7
 10
140.4999999999999
 20
-18.39982072286216
 30
0
 11
140.5
 21
-44.29352071005916
 31
0
  0
LINE
  8
1
 62
7
 10
193.6063000128033
 20
34.70647928994086
 30
0
 11
218.1606055596467
 21
34.70647928994084
 31
0
  0
LINE
  8
1
 62
7
 10
222.5
 20
-18.39982072286239
 30
0
 11
222.5
 21
-44.29352071005916
 31
0
  0
LINE
  8
1
 62
7
 10
193.6063000128033
 20
-47.29352071005914
 30
0
 11
219.5
 21
-47.29352071005916
 31
0
  0
LINE
  8
1
 62
7
  6
DASHED
 10
178.5
 20
9.706468759496005
 30
0
 11
178.5
 21
23.55610240313948
 31
0
  0
LINE
  8
1
 62
7
  6
DASHED
 10
178.5
 20
9.706468759496005
 30
0
 11
184.5
 21
9.706468759496005
 31
0
  0
LINE
  8
1
 62
3
  6
DASHED
 10
184
 20
9.706468759496005
 30
0
 11
184
 21
3.206479289940847
 31
0
  0
LINE
  8
1
 62
3
  6
DASHED
 10
179
 20
3.206479289940859
 30
0
 11
179
 21
9.706468759496005
 31
0
  0
LINE
  8
1
 62
7
  6
DASHED
 10
183.4
 20
9.706468759496005
 30
0
 11
183.4
 21
3.206479289940859
 31
0
  0
LINE
  8
1
 62
7
  6
DASHED
 10
179.6
 20
3.206479289940859
 30
0
 11
179.6
 21
9.706468759496005
 31
0
  0
LINE
  8
1
 62
7
  6
DASHED
 10
169.1436026590818
 20
-16.89159165619003
 30
0
 11
157.1494680905788
 21
-23.81640847801177
 31
0
  0
LINE
  8
1
 62
7
  6
DASHED
 10
169.1436026590818
 20
-16.89159165619003
 30
0
 11
166.1436026590818
 21
-11.69543923348344
 31
0
  0
LINE
  8
1
 62
3
  6
DASHED
 10
166.3936026590818
 20
-12.12845193537565
 30
0
 11
174.1262756430419
 21
-7.663991106530756
 31
0
  0
LINE
  8
1
 62
3
  6
DASHED
 10
168.8936026590818
 20
-16.45857895429779
 30
0
 11
176.6262756430421
 21
-11.99411812545296
 31
0
  0
LINE
  8
1
 62
7
  6
DASHED
 10
166.6936026590817
 20
-12.64806717764632
 30
0
 11
174.2666887710379
 21
-8.275743872312161
 31
0
  0
LINE
  8
1
 62
7
  6
DASHED
 10
168.5936026590818
 20
-15.93896371202715
 30
0
 11
176.166688771038
 21
-11.56664040669294
 31
0
  0
LINE
  8
1
 62
3
  6
DASHDOT
 10
177.60288568297
 20
-8.543520710059113
 30
0
 11
152.9211616751135
 21
-22.79352071005914
 31
0
  0
LINE
  8
1
 62
3
  6
DASHDOT
 10
181.5
 20
0.2064792899408587
 30
0
 11
181.5
 21
26.70647928994086
 31
0
  0
LINE
  8
1
 62
7
  6
DASHED
 10
184.5
 20
23.55610240313948
 30
0
 11
184.5
 21
9.706468759496005
 31
0
  0
LINE
  8
1
 62
7
  6
DASHED
 10
154.1494680905788
 20
-18.62025605530516
 30
0
 11
166.1436026590818
 21
-11.69543923348344
 31
0
  0
LINE
  8
1
 62
3
  6
DASHDOT
 10
220.2140962699635
 20
32.42057555990434
 30
0
 11
212.0823682863182
 21
24.28884757625903
 31
0
  0
LINE
  8
1
 62
3
  6
DASHDOT
 10
142.7859037300365
 20
32.42057555990431
 30
0
 11
150.9176317136818
 21
24.28884757625903
 31
0
  0
LINE
  8
1
 62
3
  6
DASHDOT
 10
142.7859037300366
 20
-45.00761698002259
 30
0
 11
150.9176317136818
 21
-36.87588899637731
 31
0
  0
LINE
  8
1
 62
3
  6
DASHDOT
 10
220.2140962699635
 20
-45.00761698002259
 30
0
 11
212.0823682863182
 21
-36.87588899637731
 31
0
  0
LINE
  8
1
 62
3
  6
DASHDOT
 10
-51.28590373003794
 20
-45.00761698002398
 30
0
 11
-59.41763171368325
 21
-36.87588899637871
 31
0
  0
LINE
  8
1
 62
3
  6
DASHDOT
 10
-128.7140962699649
 20
-45.00761698002125
 30
0
 11
-120.5823682863196
 21
-36.87588899637598
 31
0
  0
LINE
  8
1
 62
3
  6
DASHDOT
 10
-128.7140962699622
 20
32.4205755599057
 30
0
 11
-120.5823682863169
 21
24.28884757626042
 31
0
  0
LINE
  8
1
 62
3
  6
DASHDOT
 10
-51.28590373003522
 20
32.420575559903
 30
0
 11
-59.41763171368052
 21
24.28884757625772
 31
0
  0
LINE
  8
1
 62
7
 10
-49
 20
30.3670848495876
 30
0
 11
-49
 21
12.21270915722627
 31
0
  0
LINE
  8
1
 62
7
 10
-71.45276300900861
 20
34.70647928994086
 30
0
 11
-53.33939444035332
 21
34.70647928994086
 31
0
  0
LINE
  8
1
 62
7
 10
-131
 20
30.3670848495876
 30
0
 11
-131
 21
12.10159425094304
 31
0
  0
LINE
  8
1
 62
7
 10
-126.6606055596467
 20
34.70647928994086
 30
0
 11
-108.549800347029
 21
34.70647928994086
 31
0
  0
LINE
  8
1
 62
3
  6
DASHDOT
 10
-85
 20
-6.293520710059141
 30
0
 11
-95
 21
-6.293520710059141
 31
0
  0
LINE
  8
1
 62
3
  6
DASHDOT
 10
-90
 20
-1.293520710059141
 30
0
 11
-90
 21
-11.29352071005914
 31
0
  0
LINE
  8
1
 62
7
 10
-59.83548938766802
 20
12.27666815032328
 30
0
 11
-63.01923788646684
 21
10.43853009750976
 31
0
  0
LINE
  8
1
 62
7
 10
-66.01923788646684
 20
8.706479289940859
 30
0
 11
-69.2029863852656
 21
6.868341237127282
 31
0
  0
LINE
  8
1
 62
7
 10
-68.2029863852656
 20
5.136290429558443
 30
0
 11
-65.01923788646684
 21
6.974428482372019
 31
0
  0
LINE
  8
1
 62
7
 10
-62.01923788646684
 20
8.706479289940859
 30
0
 11
-58.83548938766802
 21
10.54461734275444
 31
0
  0
LINE
  8
1
 62
7
 10
-121.1645106123319
 20
10.54461734275444
 30
0
 11
-117.9807621135332
 21
8.706479289940859
 31
0
  0
LINE
  8
1
 62
7
 10
-114.9807621135332
 20
6.974428482372019
 30
0
 11
-111.7970136147343
 21
5.136290429558443
 31
0
  0
LINE
  8
1
 62
7
 10
-110.7970136147344
 20
6.868341237127282
 30
0
 11
-113.9807621135332
 21
8.706479289940859
 31
0
  0
LINE
  8
1
 62
7
 10
-116.9807621135332
 20
10.43853009750976
 30
0
 11
-120.164510612332
 21
12.27666815032328
 31
0
  0
LINE
  8
1
 62
7
 10
-89
 20
-41.70184762325519
 30
0
 11
-89
 21
-38.02557151762809
 31
0
  0
LINE
  8
1
 62
7
 10
-89
 20
-34.5614699024903
 30
0
 11
-89
 21
-30.88519379686321
 31
0
  0
LINE
  8
1
 62
7
 10
-91
 20
-30.88519379686321
 30
0
 11
-90.99999999999989
 21
-34.5614699024903
 31
0
  0
LINE
  8
1
 62
7
 10
-91
 20
-38.02557151762809
 30
0
 11
-91
 21
-41.70184762325519
 31
0
  0
LINE
  8
1
 62
7
 10
182.0695540734564
 20
53.28746585970514
 30
0
 11
182.0695540734566
 21
49.93721132376354
 31
0
  0
LINE
  8
1
 62
7
 10
182.6359667421382
 20
53.28746585970514
 30
0
 11
182.6359667421382
 21
49.93721132376354
 31
0
  0
LINE
  8
1
 62
7
 10
183.2023794108199
 20
53.28746585970514
 30
0
 11
183.2023794108197
 21
49.93721132376354
 31
0
  0
LINE
  8
1
 62
7
 10
151.3131880084609
 20
-42.13718695109075
 30
0
 11
150.4317209873399
 21
-38.84750724307076
 31
0
  0
LINE
  8
1
 62
7
 10
148.0472016847499
 20
-45.40317327480164
 30
0
 11
151.3131880084609
 21
-42.13718695109075
 31
0
  0
LINE
  8
1
 62
7
 10
143.5857813981483
 20
-44.20773931191086
 30
0
 11
148.0472016847499
 21
-45.40317327480164
 31
0
  0
LINE
  8
1
 62
7
 10
142.3903474352576
 20
-39.74631902530926
 30
0
 11
143.5857813981483
 21
-44.20773931191086
 31
0
  0
LINE
  8
1
 62
7
 10
145.6563337589685
 20
-36.48033270159832
 30
0
 11
142.3903474352576
 21
-39.74631902530926
 31
0
  0
LINE
  8
1
 62
7
 10
145.6563337589684
 20
23.89329128147997
 30
0
 11
148.9460134669884
 21
24.77475830260106
 31
0
  0
LINE
  8
1
 62
7
 10
142.3903474352575
 20
27.15927760519095
 30
0
 11
145.6563337589684
 21
23.89329128147997
 31
0
  0
LINE
  8
1
 62
7
 10
143.5857813981483
 20
31.62069789179255
 30
0
 11
142.3903474352575
 21
27.15927760519095
 31
0
  0
LINE
  8
1
 62
7
 10
148.04720168475
 20
32.81613185468326
 30
0
 11
143.5857813981483
 21
31.62069789179255
 31
0
  0
LINE
  8
1
 62
7
 10
151.3131880084609
 20
29.55014553097235
 30
0
 11
148.04720168475
 21
32.81613185468326
 31
0
  0
LINE
  8
1
 62
7
 10
211.6868119915392
 20
29.55014553097245
 30
0
 11
212.5682790126602
 21
26.26046582295245
 31
0
  0
LINE
  8
1
 62
7
 10
214.9527983152501
 20
32.81613185468326
 30
0
 11
211.6868119915392
 21
29.55014553097245
 31
0
  0
LINE
  8
1
 62
7
 10
219.4142186018517
 20
31.62069789179255
 30
0
 11
214.9527983152501
 21
32.81613185468326
 31
0
  0
LINE
  8
1
 62
7
 10
220.6096525647425
 20
27.15927760519084
 30
0
 11
219.4142186018517
 21
31.62069789179255
 31
0
  0
LINE
  8
1
 62
7
 10
217.3436662410315
 20
23.89329128147997
 30
0
 11
220.6096525647425
 21
27.15927760519084
 31
0
  0
LINE
  8
1
 62
7
 10
217.3436662410316
 20
-36.48033270159832
 30
0
 11
214.0539865330116
 21
-37.36179972271933
 31
0
  0
LINE
  8
1
 62
7
 10
220.6096525647425
 20
-39.74631902530926
 30
0
 11
217.3436662410316
 21
-36.48033270159832
 31
0
  0
LINE
  8
1
 62
7
 10
219.4142186018517
 20
-44.20773931191096
 30
0
 11
220.6096525647425
 21
-39.74631902530926
 31
0
  0
LINE
  8
1
 62
7
 10
214.95279831525
 20
-45.40317327480164
 30
0
 11
219.4142186018517
 21
-44.20773931191096
 31
0
  0
LINE
  8
1
 62
7
 10
211.6868119915392
 20
-42.13718695109065
 30
0
 11
214.95279831525
 21
-45.40317327480164
 31
0
  0
LINE
  8
1
 62
3
  6
DASHDOT
 10
181.5
 20
61.69632652489086
 30
0
 11
181.5
 21
55.71663205499085
 31
0
  0
LINE
  8
1
 62
3
  6
DASHDOT
 10
184.48984723495
 20
58.70647928994084
 30
0
 11
178.51015276505
 21
58.70647928994084
 31
0
  0
LINE
  8
1
 62
7
 10
186.5
 20
68.70647928994085
 30
0
 11
191.4291649276129
 21
66.40901923978366
 31
0
  0
LINE
  8
1
 62
7
 10
176.5
 20
68.70647928994085
 30
0
 11
171.5708350723871
 21
66.40901923978366
 31
0
  0
LINE
  8
1
 62
7
 10
219.5
 20
-47.29352071005916
 30
0
 11
222.5
 21
-44.29352071005916
 31
0
  0
LINE
  8
1
 62
7
 10
143.5
 20
-47.29352071005916
 30
0
 11
140.5
 21
-44.29352071005916
 31
0
  0
LINE
  8
1
 62
7
 10
176.5
 20
68.70647928994085
 30
0
 11
186.5
 21
68.70647928994085
 31
0
  0
LINE
  8
1
 62
7
 10
191.4291649276129
 20
66.40901923978366
 30
0
 11
218.0496183206106
 21
34.70647928994084
 31
0
  0
LINE
  8
1
 62
7
 10
171.5708350723871
 20
66.40901923978366
 30
0
 11
144.9503816793893
 21
34.70647928994084
 31
0
  0
LINE
  8
1
 62
7
 10
180.9304459265427
 20
49.93721132376354
 30
0
 11
180.9304459265427
 21
53.28746585970514
 31
0
  0
LINE
  8
1
 62
7
 10
180.3640332578611
 20
49.93721132376354
 30
0
 11
180.3640332578613
 21
53.28746585970514
 31
0
  0
LINE
  8
1
 62
7
 10
179.7976205891796
 20
49.93721132376354
 30
0
 11
179.7976205891798
 21
53.28746585970514
 31
0
  0
LINE
  8
1
 62
7
 10
179
 20
49.93721132376354
 30
0
 11
184
 21
49.93721132376354
 31
0
  0
LINE
  8
1
 62
7
 10
181.5
 20
49.93721132376354
 30
0
 11
181.5
 21
36.45647928994085
 31
0
  0
LINE
  8
1
 62
7
 10
179
 20
49.93721132376354
 30
0
 11
179.0000000000002
 21
36.38331727027862
 31
0
  0
LINE
  8
1
 62
7
 10
184
 20
49.93721132376354
 30
0
 11
184
 21
36.38331727027861
 31
0
  0
LINE
  8
1
 62
7
 10
212.5682790126602
 20
-38.84750724307064
 30
0
 11
211.6868119915392
 21
-42.13718695109065
 31
0
  0
LINE
  8
1
 62
7
 10
214.0539865330116
 20
24.77475830260106
 30
0
 11
217.3436662410315
 21
23.89329128147997
 31
0
  0
LINE
  8
1
 62
7
 10
150.4317209873399
 20
26.26046582295245
 30
0
 11
151.3131880084609
 21
29.55014553097235
 31
0
  0
LINE
  8
1
 62
7
 10
148.9460134669885
 20
-37.36179972271933
 30
0
 11
145.6563337589685
 21
-36.48033270159832
 31
0
  0
LINE
  8
1
 62
7
 10
-122.5539865330116
 20
-37.36179972271933
 30
0
 11
-125.8436662410315
 21
-36.48033270159832
 31
0
  0
LINE
  8
1
 62
7
 10
-129.1096525647424
 20
-39.74631902530926
 30
0
 11
-127.9142186018517
 21
-44.20773931191086
 31
0
  0
LINE
  8
1
 62
7
 10
-125.8436662410315
 20
-36.48033270159832
 30
0
 11
-129.1096525647424
 21
-39.74631902530926
 31
0
  0
LINE
  8
1
 62
7
 10
-120.1868119915392
 20
-42.13718695109075
 30
0
 11
-121.0682790126601
 21
-38.84750724307087
 31
0
  0
LINE
  8
1
 62
7
 10
-123.4527983152501
 20
-45.40317327480164
 30
0
 11
-120.1868119915392
 21
-42.13718695109075
 31
0
  0
LINE
  8
1
 62
7
 10
-127.9142186018517
 20
-44.20773931191086
 30
0
 11
-123.4527983152501
 21
-45.40317327480164
 31
0
  0
LINE
  8
1
 62
7
 10
-121.0682790126602
 20
26.26046582295245
 30
0
 11
-120.1868119915391
 21
29.55014553097235
 31
0
  0
LINE
  8
1
 62
7
 10
-123.45279831525
 20
32.81613185468326
 30
0
 11
-127.9142186018517
 21
31.62069789179255
 31
0
  0
LINE
  8
1
 62
7
 10
-120.1868119915391
 20
29.55014553097235
 30
0
 11
-123.45279831525
 21
32.81613185468326
 31
0
  0
LINE
  8
1
 62
7
 10
-125.8436662410316
 20
23.89329128148005
 30
0
 11
-122.5539865330117
 21
24.77475830260095
 31
0
  0
LINE
  8
1
 62
7
 10
-129.1096525647425
 20
27.15927760519095
 30
0
 11
-125.8436662410316
 21
23.89329128148005
 31
0
  0
LINE
  8
1
 62
7
 10
-127.9142186018517
 20
31.62069789179255
 30
0
 11
-129.1096525647425
 21
27.15927760519095
 31
0
  0
LINE
  8
1
 62
7
 10
-58.93172098733987
 20
-38.84750724307087
 30
0
 11
-59.81318800846086
 21
-42.13718695109065
 31
0
  0
LINE
  8
1
 62
7
 10
-56.54720168474997
 20
-45.40317327480164
 30
0
 11
-52.08578139814829
 21
-44.20773931191074
 31
0
  0
LINE
  8
1
 62
7
 10
-59.81318800846086
 20
-42.13718695109065
 30
0
 11
-56.54720168474997
 21
-45.40317327480164
 31
0
  0
LINE
  8
1
 62
7
 10
-54.15633375896847
 20
-36.48033270159827
 30
0
 11
-57.44601346698838
 21
-37.36179972271923
 31
0
  0
LINE
  8
1
 62
7
 10
-50.89034743525756
 20
-39.74631902530926
 30
0
 11
-54.15633375896847
 21
-36.48033270159827
 31
0
  0
LINE
  8
1
 62
7
 10
-52.08578139814829
 20
-44.20773931191074
 30
0
 11
-50.89034743525756
 21
-39.74631902530926
 31
0
  0
LINE
  8
1
 62
7
 10
-57.44601346698831
 20
24.77475830260095
 30
0
 11
-54.15633375896849
 21
23.89329128147997
 31
0
  0
LINE
  8
1
 62
7
 10
-50.89034743525756
 20
27.15927760519084
 30
0
 11
-52.08578139814826
 21
31.62069789179255
 31
0
  0
LINE
  8
1
 62
7
 10
-54.15633375896849
 20
23.89329128147997
 30
0
 11
-50.89034743525756
 21
27.15927760519084
 31
0
  0
LINE
  8
1
 62
7
 10
-59.81318800846086
 20
29.55014553097245
 30
0
 11
-58.93172098733995
 21
26.26046582295256
 31
0
  0
LINE
  8
1
 62
7
 10
-56.54720168474991
 20
32.81613185468326
 30
0
 11
-59.81318800846086
 21
29.55014553097245
 31
0
  0
LINE
  8
1
 62
7
 10
-52.08578139814826
 20
31.62069789179255
 30
0
 11
-56.54720168474991
 21
32.81613185468326
 31
0
  0
LINE
  8
1
 62
7
 10
-80.56601886794331
 20
37.70647928994084
 30
0
 11
-55.969465648855
 21
37.70647928994084
 31
0
  0
LINE
  8
1
 62
7
 10
-124.030534351145
 20
37.70647928994084
 30
0
 11
-100.23600503162
 21
37.70647928994084
 31
0
  0
LINE
  8
1
 62
7
 10
-128
 20
-47.29352071005916
 30
0
 11
-107.5559575979556
 21
-47.29352071005916
 31
0
  0
LINE
  8
1
 62
7
 10
-51.99999999999996
 20
-47.29352071005916
 30
0
 11
-71.45276300900872
 21
-47.29352071005916
 31
0
  0
LINE
  8
1
 62
3
  6
DASHDOT
 10
-90.00000000000001
 20
61.69632652489086
 30
0
 11
-90.00000000000001
 21
55.71663205499085
 31
0
  0
LINE
  8
1
 62
3
  6
DASHDOT
 10
-87.01015276505011
 20
58.70647928994084
 30
0
 11
-92.98984723494992
 21
58.70647928994084
 31
0
  0
LINE
  8
1
 62
7
 10
-85.00000000000001
 20
68.70647928994085
 30
0
 11
-80.07083507238711
 21
66.40901923978366
 31
0
  0
LINE
  8
1
 62
7
 10
-95.00000000000001
 20
68.70647928994085
 30
0
 11
-99.9291649276129
 21
66.40901923978366
 31
0
  0
LINE
  8
1
 62
7
 10
-51.99999999999996
 20
-47.29352071005916
 30
0
 11
-48.99999999999996
 21
-44.29352071005916
 31
0
  0
LINE
  8
1
 62
7
 10
-128
 20
-47.29352071005916
 30
0
 11
-131
 21
-44.29352071005916
 31
0
  0
LINE
  8
1
 62
7
 10
-131
 20
-44.29352071005916
 30
0
 11
-131
 21
-24.84075770105054
 31
0
  0
LINE
  8
1
 62
7
 10
-95.00000000000001
 20
68.70647928994085
 30
0
 11
-85.00000000000001
 21
68.70647928994085
 31
0
  0
LINE
  8
1
 62
7
 10
-80.07083507238711
 20
66.40901923978366
 30
0
 11
-53.45038167938937
 21
34.70647928994084
 31
0
  0
LINE
  8
1
 62
7
 10
-99.9291649276129
 20
66.40901923978366
 30
0
 11
-126.5496183206107
 21
34.70647928994084
 31
0
  0
LINE
  8
1
 62
7
 10
-48.99999999999996
 20
-44.29352071005916
 30
0
 11
-48.99999999999996
 21
-24.84075770105054
 31
0
  0
LINE
  8
1
 62
3
  6
DASHDOT
 10
-86.93999942484301
 20
58.70647928994084
 30
0
 11
-92.91969389474292
 21
58.70647928994084
 31
0
  0
LINE
  8
1
 62
7
 10
-90.49940073325001
 20
49.93721132376354
 30
0
 11
-90.49940073325001
 21
53.51249689286676
 31
0
  0
LINE
  8
1
 62
7
 10
-91.06581340193162
 20
49.93721132376354
 30
0
 11
-91.06581340193162
 21
53.44956215190216
 31
0
  0
LINE
  8
1
 62
7
 10
-91.63222607061312
 20
49.93721132376354
 30
0
 11
-91.63222607061312
 21
53.38662741093756
 31
0
  0
LINE
  8
1
 62
7
 10
-88.22746724897301
 20
53.38662741093756
 30
0
 11
-88.22746724897301
 21
49.93721132376354
 31
0
  0
LINE
  8
1
 62
7
 10
-88.79387991765451
 20
53.44956215190216
 30
0
 11
-88.79387991765451
 21
49.93721132376354
 31
0
  0
LINE
  8
1
 62
7
 10
-89.36029258633631
 20
53.51249689286676
 30
0
 11
-89.36029258633631
 21
49.93721132376354
 31
0
  0
LINE
  8
1
 62
7
 10
-92.42984665979272
 20
49.93721132376354
 30
0
 11
-87.42984665979242
 21
49.93721132376354
 31
0
  0
LINE
  8
1
 62
7
 10
-90.00000000000001
 20
49.93721132376354
 30
0
 11
-90.00000000000001
 21
38.70642460667275
 31
0
  0
LINE
  8
1
 62
7
 10
-92.42984665979272
 20
49.93721132376354
 30
0
 11
-92.42984665979272
 21
38.58662921071255
 31
0
  0
LINE
  8
1
 62
7
 10
-87.42984665979242
 20
49.93721132376354
 30
0
 11
-87.42984665979292
 21
38.63698117896946
 31
0
  0
LINE
  8
1
 62
7
 10
14.8
 20
-36.29352071005914
 30
0
 11
15.3
 21
-36.29352071005914
 31
0
  0
LINE
  8
1
 62
7
 10
19.39999999999996
 20
-16.29352071005914
 30
0
 11
19.39999999999996
 21
-49.04352071005914
 31
0
  0
LINE
  8
1
 62
7
 10
15.3
 20
-49.04352071005914
 30
0
 11
19.39999999999996
 21
-49.04352071005914
 31
0
  0
LINE
  8
1
 62
7
 10
15.3
 20
36.45647928994087
 30
0
 11
19.39999999999996
 21
36.45647928994087
 31
0
  0
LINE
  8
1
 62
7
 10
19.39999999999996
 20
36.45647928994087
 30
0
 11
19.39999999999996
 21
3.706479289940859
 31
0
  0
LINE
  8
1
 62
7
 10
9.499999999999965
 20
21.70647928994086
 30
0
 11
9.499999999999965
 21
3.706479289940859
 31
0
  0
LINE
  8
1
 62
7
 10
19.99999999999996
 20
-16.29352071005914
 30
0
 11
3.499999999999965
 21
-16.29352071005914
 31
0
  0
LINE
  8
1
 62
7
 10
3.499999999999965
 20
3.706479289940859
 30
0
 11
19.99999999999996
 21
3.706479289940859
 31
0
  0
LINE
  8
1
 62
3
  6
DASHDOT
 10
-2.500000000000036
 20
17.70647928994086
 30
0
 11
12.49999999999996
 21
17.70647928994086
 31
0
  0
LINE
  8
1
 62
7
 10
9.499999999999965
 20
15.30647928994077
 30
0
 11
0.4999999999999645
 21
15.30647928994077
 31
0
  0
LINE
  8
1
 62
7
 10
0.4999999999999645
 20
20.10647928994086
 30
0
 11
9.499999999999965
 21
20.10647928994086
 31
0
  0
LINE
  8
1
 62
3
 10
9.499999999999965
 20
14.70647928994086
 30
0
 11
0.4999999999999645
 21
14.70647928994086
 31
0
  0
LINE
  8
1
 62
3
 10
0.4999999999999645
 20
20.70647928994086
 30
0
 11
9.499999999999965
 21
20.70647928994086
 31
0
  0
LINE
  8
1
 62
7
 10
3.499999999999965
 20
-19.79352071005914
 30
0
 11
9.499999999999965
 21
-19.79352071005914
 31
0
  0
LINE
  8
1
 62
7
 10
9.499999999999965
 20
7.206479289940859
 30
0
 11
3.499999999999965
 21
7.206479289940859
 31
0
  0
LINE
  8
1
 62
3
  6
DASHDOT
 10
-4.500000000000036
 20
-6.293520710059141
 30
0
 11
0.4999999999999645
 21
-6.293520710059141
 31
0
  0
LINE
  8
1
 62
7
 10
0.4999999999999645
 20
-22.29352071005914
 30
0
 11
3.499999999999965
 21
-22.29352071005914
 31
0
  0
LINE
  8
1
 62
7
 10
3.499999999999965
 20
-22.29352071005914
 30
0
 11
3.499999999999965
 21
9.706479289940859
 31
0
  0
LINE
  8
1
 62
7
 10
3.499999999999965
 20
9.706479289940859
 30
0
 11
0.4999999999999645
 21
9.706479289940859
 31
0
  0
LINE
  8
1
 62
7
 10
14.3
 20
16.20647928994086
 30
0
 11
13.4
 21
16.20647928994086
 31
0
  0
LINE
  8
1
 62
7
 10
13.4
 20
3.706479289940859
 30
0
 11
13.4
 21
17.20647928994086
 31
0
  0
LINE
  8
1
 62
7
 10
12.4
 20
18.20647928994086
 30
0
 11
9.499999999999965
 21
18.20647928994086
 31
0
  0
LINE
  8
1
 62
7
 10
2.499999999999965
 20
23.70647928994087
 30
0
 11
7.499999999999965
 21
23.70647928994087
 31
0
  0
LINE
  8
1
 62
7
 10
9.499999999999965
 20
-16.29352071005914
 30
0
 11
9.499999999999965
 21
-26.79352071005914
 31
0
  0
LINE
  8
1
 62
7
 10
0.4999999999999645
 20
21.70647928994086
 30
0
 11
0.4999999999999645
 21
-26.79352071005914
 31
0
  0
LINE
  8
1
 62
7
 10
0.4999999999999645
 20
-26.79352071005914
 30
0
 11
0.6999999999999531
 21
-26.79352071005914
 31
0
  0
LINE
  8
1
 62
7
 10
0.6999999999999531
 20
-26.79352071005914
 30
0
 11
0.6999999999999531
 21
-43.79352071005914
 31
0
  0
LINE
  8
1
 62
7
 10
2.699999999999953
 20
-45.79352071005914
 30
0
 11
3.699999999999953
 21
-45.79352071005914
 31
0
  0
LINE
  8
1
 62
7
 10
3.699999999999953
 20
-45.79352071005914
 30
0
 11
3.699999999999953
 21
-46.29352071005914
 31
0
  0
LINE
  8
1
 62
7
 10
4.199999999999953
 20
-46.79352071005914
 30
0
 11
8.999999999999965
 21
-46.79352071005914
 31
0
  0
LINE
  8
1
 62
7
 10
9.499999999999965
 20
-46.29352071005914
 30
0
 11
9.499999999999965
 21
-45.79352071005914
 31
0
  0
LINE
  8
1
 62
7
 10
9.499999999999965
 20
-45.79352071005914
 30
0
 11
12.4
 21
-45.79352071005914
 31
0
  0
LINE
  8
1
 62
7
 10
12.4
 20
-26.79352071005914
 30
0
 11
9.499999999999965
 21
-26.79352071005914
 31
0
  0
LINE
  8
1
 62
7
 10
14.3
 20
-41.29352071005914
 30
0
 11
13.4
 21
-41.29352071005914
 31
0
  0
LINE
  8
1
 62
7
 10
13.4
 20
-31.29352071005914
 30
0
 11
14.3
 21
-31.29352071005914
 31
0
  0
LINE
  8
1
 62
7
 10
14.8
 20
23.70647928994087
 30
0
 11
15.3
 21
23.70647928994087
 31
0
  0
LINE
  8
1
 62
7
 10
14.8
 20
3.706479289940859
 30
0
 11
14.8
 21
23.70647928994087
 31
0
  0
LINE
  8
1
 62
7
 10
19.39999999999996
 20
16.20647928994086
 30
0
 11
14.8
 21
16.20647928994086
 31
0
  0
LINE
  8
1
 62
7
 10
19.39999999999996
 20
-28.79352071005914
 30
0
 11
14.8
 21
-28.79352071005914
 31
0
  0
LINE
  8
1
 62
7
 10
14.8
 20
35.70647928994087
 30
0
 11
15.3
 21
35.70647928994087
 31
0
  0
LINE
  8
1
 62
7
 10
14.8
 20
25.63833094251898
 30
0
 11
14.8
 21
35.70647928994087
 31
0
  0
LINE
  8
1
 62
7
 10
14.3
 20
23.77230553873447
 30
0
 11
14.8
 21
25.63833094251898
 31
0
  0
LINE
  8
1
 62
7
 10
14.3
 20
3.706479289940859
 30
0
 11
14.3
 21
23.77230553873447
 31
0
  0
LINE
  8
1
 62
7
 10
14.8
 20
23.70647928994087
 30
0
 11
15.3
 21
25.57250469372528
 31
0
  0
LINE
  8
1
 62
7
 10
14.8
 20
26.70647928994087
 30
0
 11
15.3
 21
26.70647928994087
 31
0
  0
LINE
  8
1
 62
7
 10
15.3
 20
23.70647928994087
 30
0
 11
15.3
 21
36.45647928994087
 31
0
  0
LINE
  8
1
 62
7
 10
13.39999999999996
 20
34.80647928994077
 30
0
 11
14.79999999999988
 21
34.80647928994083
 31
0
  0
LINE
  8
1
 62
7
 10
12.89999999999996
 20
28.10647928994088
 30
0
 11
12.89999999999996
 21
34.30647928994077
 31
0
  0
LINE
  8
1
 62
7
 10
13.39999999999996
 20
27.60647928994088
 30
0
 11
14.79999999999988
 21
27.60647928994086
 31
0
  0
LINE
  8
1
 62
7
 10
14.3
 20
27.60647928994088
 30
0
 11
14.3
 21
34.80647928994077
 31
0
  0
LINE
  8
1
 62
7
 10
13.39999999999996
 20
34.80647928994077
 30
0
 11
12.89999999999996
 21
34.30647928994077
 31
0
  0
LINE
  8
1
 62
7
 10
12.89999999999996
 20
28.10647928994088
 30
0
 11
13.39999999999996
 21
27.60647928994088
 31
0
  0
LINE
  8
1
 62
7
 10
14.3
 20
-48.29352071005914
 30
0
 11
14.8
 21
-48.29352071005914
 31
0
  0
LINE
  8
1
 62
7
 10
14.3
 20
-43.29352071005914
 30
0
 11
14.8
 21
-43.29352071005914
 31
0
  0
LINE
  8
1
 62
7
 10
14.3
 20
-30.04352071005914
 30
0
 11
14.8
 21
-30.04352071005914
 31
0
  0
LINE
  8
1
 62
7
 10
31.79999999999998
 20
-23.79352071005914
 30
0
 11
31.79999999999998
 21
-28.79352071005914
 31
0
  0
LINE
  8
1
 62
7
 10
31.79999999999998
 20
-51.29352071005914
 30
0
 11
31.79999999999998
 21
-49.44352071005912
 31
0
  0
LINE
  8
1
 62
7
 10
33.59999999999993
 20
-48.79352071005914
 30
0
 11
33.59999999999993
 21
-48.44352071005912
 31
0
  0
LINE
  8
1
 62
7
 10
33.59999999999993
 20
-48.44352071005912
 30
0
 11
24.89999999999994
 21
-48.44352071005912
 31
0
  0
LINE
  8
1
 62
7
 10
23.79999999999998
 20
-28.79352071005914
 30
0
 11
23.79999999999998
 21
-49.44352071005912
 31
0
  0
LINE
  8
1
 62
7
 10
31.79999999999998
 20
-49.44352071005912
 30
0
 11
23.79999999999998
 21
-49.44352071005912
 31
0
  0
LINE
  8
1
 62
7
 10
24.89999999999994
 20
-48.44352071005912
 30
0
 11
24.89999999999994
 21
-29.79352071005914
 31
0
  0
LINE
  8
1
 62
7
 10
39.29099508615794
 20
-48.79352071005914
 30
0
 11
33.59999999999993
 21
-48.79352071005914
 31
0
  0
LINE
  8
1
 62
7
 10
31.79999999999998
 20
-28.79352071005914
 30
0
 11
23.79999999999998
 21
-28.79352071005914
 31
0
  0
LINE
  8
1
 62
7
 10
23.79999999999998
 20
16.20647928994086
 30
0
 11
31.79999999999998
 21
16.20647928994086
 31
0
  0
LINE
  8
1
 62
7
 10
31.79999999999998
 20
11.20647928994086
 30
0
 11
31.79999999999998
 21
16.20647928994086
 31
0
  0
LINE
  8
1
 62
7
 10
24.89999999999994
 20
17.20647928994086
 30
0
 11
24.89999999999994
 21
35.85647928994089
 31
0
  0
LINE
  8
1
 62
7
 10
23.79999999999998
 20
36.85647928994088
 30
0
 11
31.79999999999998
 21
36.85647928994088
 31
0
  0
LINE
  8
1
 62
7
 10
24.89999999999994
 20
35.85647928994089
 30
0
 11
32.89999999999994
 21
35.85647928994088
 31
0
  0
LINE
  8
1
 62
7
 10
32.89999999999994
 20
35.85647928994088
 30
0
 11
32.89999999999994
 21
36.20647928994087
 31
0
  0
LINE
  8
1
 62
7
 10
20.79999999999994
 20
-26.79352071005914
 30
0
 11
19.99999999999996
 21
-26.79352071005914
 31
0
  0
LINE
  8
1
 62
7
 10
20.79999999999994
 20
14.20647928994086
 30
0
 11
19.99999999999996
 21
14.20647928994086
 31
0
  0
LINE
  8
1
 62
7
 10
71.49999999999996
 20
-21.29352071005914
 30
0
 11
69.7
 21
-21.29352071005914
 31
0
  0
LINE
  8
1
 62
7
 10
71.49999999999996
 20
8.706479289940859
 30
0
 11
69.7
 21
8.706479289940859
 31
0
  0
LINE
  8
1
 62
7
 10
43.49999999999996
 20
-47.29352071005914
 30
0
 11
52.9
 21
-47.29352071005914
 31
0
  0
LINE
  8
1
 62
7
 10
71.49999999999996
 20
3.206479289940859
 30
0
 11
19.99999999999996
 21
3.206479289940859
 31
0
  0
LINE
  8
1
 62
7
 10
36.74999999999996
 20
36.20647928994087
 30
0
 11
36.74999999999996
 21
64.78282400259306
 31
0
  0
LINE
  8
1
 62
7
 10
34.24999999999996
 20
36.20647928994087
 30
0
 11
34.24999999999996
 21
64.78282400259306
 31
0
  0
LINE
  8
1
 62
7
 10
34.24999999999996
 20
64.78282400259306
 30
0
 11
36.74999999999996
 21
64.78282400259306
 31
0
  0
LINE
  8
1
 62
7
 10
34.74252155848014
 20
64.78282400259306
 30
0
 11
34.74252155848014
 21
68.08607108016786
 31
0
  0
LINE
  8
1
 62
7
 10
35.23096137874611
 20
64.78282400259306
 30
0
 11
35.23096137874611
 21
68.08607108016786
 31
0
  0
LINE
  8
1
 62
7
 10
35.82300964573513
 20
64.78282400259306
 30
0
 11
35.82300964573513
 21
68.08607108016786
 31
0
  0
LINE
  8
1
 62
7
 10
36.25224463930223
 20
64.78282400259306
 30
0
 11
36.25224463930223
 21
68.08607108016786
 31
0
  0
LINE
  8
1
 62
7
 10
31.79999999999998
 20
36.85647928994088
 30
0
 11
31.79999999999998
 21
38.70647928994087
 31
0
  0
LINE
  8
1
 62
7
 10
20.80000000000003
 20
36.20647928994087
 30
0
 11
19.79999999999998
 21
36.20647928994087
 31
0
  0
LINE
  8
1
 62
7
 10
22.24337567297405
 20
38.70647928994087
 30
0
 11
20.80000000000003
 21
36.20647928994087
 31
0
  0
LINE
  8
1
 62
7
 10
31.79999999999998
 20
38.70647928994087
 30
0
 11
22.24337567297405
 21
38.70647928994087
 31
0
  0
LINE
  8
1
 62
7
 10
20.80000000000003
 20
16.70647928994086
 30
0
 11
19.79999999999998
 21
16.70647928994086
 31
0
  0
LINE
  8
1
 62
7
 10
20.79999999999994
 20
14.20647928994086
 30
0
 11
20.80000000000003
 21
16.70647928994086
 31
0
  0
LINE
  8
1
 62
7
 10
19.99999999999996
 20
14.20647928994086
 30
0
 11
20.79999999999994
 21
14.20647928994086
 31
0
  0
LINE
  8
1
 62
7
 10
19.79999999999998
 20
16.70647928994086
 30
0
 11
19.79999999999998
 21
36.20647928994087
 31
0
  0
LINE
  8
1
 62
7
 10
23.79999999999998
 20
16.20647928994086
 30
0
 11
23.79999999999998
 21
36.85647928994088
 31
0
  0
LINE
  8
1
 62
7
 10
19.99999999999996
 20
14.20647928994086
 30
0
 11
19.99999999999996
 21
-26.79352071005914
 31
0
  0
LINE
  8
1
 62
7
 10
20.80000000000003
 20
-29.29352071005914
 30
0
 11
20.79999999999994
 21
-26.79352071005914
 31
0
  0
LINE
  8
1
 62
7
 10
19.79999999999998
 20
-29.29352071005914
 30
0
 11
20.80000000000003
 21
-29.29352071005914
 31
0
  0
LINE
  8
1
 62
7
 10
19.79999999999998
 20
-48.79352071005914
 30
0
 11
19.79999999999998
 21
-29.29352071005914
 31
0
  0
LINE
  8
1
 62
7
 10
22.2433756729741
 20
-51.29352071005914
 30
0
 11
31.79999999999998
 21
-51.29352071005914
 31
0
  0
LINE
  8
1
 62
7
 10
20.80000000000003
 20
-48.79352071005914
 30
0
 11
22.2433756729741
 21
-51.29352071005914
 31
0
  0
LINE
  8
1
 62
7
 10
19.79999999999998
 20
-48.79352071005914
 30
0
 11
20.80000000000003
 21
-48.79352071005914
 31
0
  0
LINE
  8
1
 62
7
 10
71.49999999999996
 20
-13.79352071005914
 30
0
 11
3.499999999999965
 21
-13.79352071005914
 31
0
  0
LINE
  8
1
 62
7
 10
45.59999999999999
 20
-47.29352071005914
 30
0
 11
45.59999999999999
 21
-21.29352071005914
 31
0
  0
LINE
  8
1
 62
7
 10
43.49999999999996
 20
-47.29352071005914
 30
0
 11
43.49999999999996
 21
-29.79352071005914
 31
0
  0
LINE
  8
1
 62
7
 10
20.79999999999994
 20
-26.79352071005914
 30
0
 11
19.99999999999996
 21
-26.79352071005914
 31
0
  0
LINE
  8
1
 62
7
 10
3.499999999999965
 20
1.206479289940859
 30
0
 11
71.49999999999996
 21
1.206479289940859
 31
0
  0
LINE
  8
1
 62
7
 10
71.49999999999996
 20
-21.29352071005914
 30
0
 11
71.49999999999996
 21
8.706479289940859
 31
0
  0
LINE
  8
1
 62
7
 10
13.4
 20
-44.79352071005914
 30
0
 11
13.4
 21
-27.79352071005914
 31
0
  0
LINE
  8
1
 62
7
 10
14.3
 20
-48.29352071005914
 30
0
 11
14.3
 21
-16.29352071005914
 31
0
  0
LINE
  8
1
 62
7
 10
14.8
 20
-48.29352071005914
 30
0
 11
14.8
 21
-16.29352071005914
 31
0
  0
LINE
  8
1
 62
7
 10
15.3
 20
-36.29352071005914
 30
0
 11
15.3
 21
-49.04352071005914
 31
0
  0
LINE
  8
1
 62
7
 10
32.89999999999994
 20
36.20647928994087
 30
0
 11
39.29099508615796
 21
36.20647928994084
 31
0
  0
LINE
  8
1
 62
7
 10
36.59999999999999
 20
18.45647928994086
 30
0
 11
34.79999999999998
 21
18.45647928994086
 31
0
  0
LINE
  8
1
 62
7
 10
34.79999999999998
 20
18.45647928994086
 30
0
 11
34.79999999999998
 21
13.95647928994086
 31
0
  0
LINE
  8
1
 62
7
 10
34.79999999999998
 20
13.95647928994086
 30
0
 11
36.59999999999999
 21
13.95647928994086
 31
0
  0
LINE
  8
1
 62
7
 10
36.59999999999999
 20
-23.79352071005914
 30
0
 11
31.79999999999998
 21
-23.79352071005914
 31
0
  0
LINE
  8
1
 62
7
 10
36.59999999999999
 20
11.20647928994086
 30
0
 11
31.79999999999998
 21
11.20647928994086
 31
0
  0
LINE
  8
1
 62
7
 10
43.49999999999996
 20
17.20647928994086
 30
0
 11
43.49999999999996
 21
34.70647928994087
 31
0
  0
LINE
  8
1
 62
7
 10
45.60000000000001
 20
8.706479289940848
 30
0
 11
45.60000000000001
 21
34.70647928994084
 31
0
  0
LINE
  8
1
 62
7
 10
39.75670414651128
 20
10.78897928994087
 30
0
 11
36.59999999999999
 21
10.78897928994087
 31
0
  0
LINE
  8
1
 62
7
 10
42.4432958534887
 20
10.78897928994087
 30
0
 11
45.59999999999999
 21
10.78897928994087
 31
0
  0
LINE
  8
1
 62
7
 10
39.75670414651128
 20
15.12397928994085
 30
0
 11
36.59999999999999
 21
15.12397928994085
 31
0
  0
LINE
  8
1
 62
7
 10
42.4432958534887
 20
15.12397928994085
 30
0
 11
45.59999999999999
 21
15.12397928994085
 31
0
  0
LINE
  8
1
 62
3
 10
44.13749999999995
 20
12.95647928994086
 30
0
 11
38.06249999999996
 21
12.95647928994086
 31
0
  0
LINE
  8
1
 62
3
 10
41.09999999999999
 20
15.99397928994085
 30
0
 11
41.09999999999999
 21
9.918979289940864
 31
0
  0
LINE
  8
1
 62
7
 10
44.62499999999996
 20
15.64460428994087
 30
0
 11
44.62499999999996
 21
10.26835428994085
 31
0
  0
LINE
  8
1
 62
7
 10
37.57499999999995
 20
15.64460428994087
 30
0
 11
37.57499999999995
 21
10.26835428994085
 31
0
  0
LINE
  8
1
 62
7
 10
24.89999999999994
 20
17.20647928994086
 30
0
 11
34.79999999999998
 21
17.20647928994086
 31
0
  0
LINE
  8
1
 62
7
 10
36.59999999999999
 20
18.45647928994086
 30
0
 11
36.59999999999999
 21
8.706479289940859
 31
0
  0
LINE
  8
1
 62
7
 10
34.79999999999998
 20
-31.04352071005914
 30
0
 11
36.59999999999999
 21
-31.04352071005914
 31
0
  0
LINE
  8
1
 62
7
 10
34.79999999999998
 20
-26.54352071005914
 30
0
 11
34.79999999999998
 21
-31.04352071005914
 31
0
  0
LINE
  8
1
 62
7
 10
36.59999999999999
 20
-26.54352071005914
 30
0
 11
34.79999999999998
 21
-26.54352071005914
 31
0
  0
LINE
  8
1
 62
7
 10
36.59999999999999
 20
-23.37602071005915
 30
0
 11
39.75670414651128
 21
-23.37602071005915
 31
0
  0
LINE
  8
1
 62
7
 10
45.59999999999999
 20
-23.37602071005915
 30
0
 11
42.4432958534887
 21
-23.37602071005915
 31
0
  0
LINE
  8
1
 62
7
 10
36.59999999999999
 20
-27.71102071005913
 30
0
 11
39.75670414651128
 21
-27.71102071005913
 31
0
  0
LINE
  8
1
 62
7
 10
45.59999999999999
 20
-27.71102071005913
 30
0
 11
42.4432958534887
 21
-27.71102071005913
 31
0
  0
LINE
  8
1
 62
3
 10
38.06249999999996
 20
-25.54352071005914
 30
0
 11
44.13749999999995
 21
-25.54352071005914
 31
0
  0
LINE
  8
1
 62
3
 10
41.09999999999999
 20
-22.50602071005915
 30
0
 11
41.09999999999999
 21
-28.58102071005914
 31
0
  0
LINE
  8
1
 62
7
 10
44.62499999999996
 20
-22.85539571005913
 30
0
 11
44.62499999999996
 21
-28.23164571005916
 31
0
  0
LINE
  8
1
 62
7
 10
37.57499999999995
 20
-22.85539571005913
 30
0
 11
37.57499999999995
 21
-28.23164571005916
 31
0
  0
LINE
  8
1
 62
7
 10
36.59999999999999
 20
-21.29352071005914
 30
0
 11
36.59999999999999
 21
-31.04352071005914
 31
0
  0
LINE
  8
1
 62
7
 10
45.59999999999999
 20
-29.79352071005914
 30
0
 11
36.59999999999999
 21
-29.79352071005914
 31
0
  0
LINE
  8
1
 62
7
 10
36.59999999999999
 20
17.20647928994086
 30
0
 11
45.60000000000001
 21
17.20647928994085
 31
0
  0
LINE
  8
1
 62
7
 10
34.79999999999998
 20
-29.79352071005914
 30
0
 11
24.89999999999994
 21
-29.79352071005914
 31
0
  0
LINE
  8
1
 62
7
 10
68.2
 20
8.706479289940859
 30
0
 11
36.59999999999999
 21
8.706479289940859
 31
0
  0
LINE
  8
1
 62
7
 10
68.2
 20
-21.29352071005914
 30
0
 11
36.59999999999999
 21
-21.29352071005914
 31
0
  0
LINE
  8
1
 62
7
 10
58.90000000000006
 20
36.20647928994087
 30
0
 11
71.90000000000005
 21
36.20647928994087
 31
0
  0
LINE
  8
1
 62
7
 10
72.30000000000004
 20
36.45647928994084
 30
0
 11
72.30000000000004
 21
8.706479289940848
 31
0
  0
LINE
  8
1
 62
7
 10
72.30000000000004
 20
36.45647928994084
 30
0
 11
75.30000000000003
 21
36.45647928994087
 31
0
  0
LINE
  8
1
 62
7
 10
59.88352987950346
 20
64.63359053282235
 30
0
 11
59.88352987950346
 21
67.96320950937064
 31
0
  0
LINE
  8
1
 62
7
 10
72.30000000000004
 20
36.45647928994084
 30
0
 11
75.30000000000003
 21
36.45647928994087
 31
0
  0
LINE
  8
1
 62
7
 10
75.30000000000003
 20
23.70647928994087
 30
0
 11
75.80000000000003
 21
23.70647928994087
 31
0
  0
LINE
  8
1
 62
7
 10
75.80000000000003
 20
23.70647928994087
 30
0
 11
75.80000000000003
 21
8.706479289940859
 31
0
  0
LINE
  8
1
 62
7
 10
75.30000000000003
 20
-49.04352071005914
 30
0
 11
72.30000000000003
 21
-49.04352071005914
 31
0
  0
LINE
  8
1
 62
7
 10
75.30000000000003
 20
35.70647928994087
 30
0
 11
75.80000000000003
 21
35.70647928994087
 31
0
  0
LINE
  8
1
 62
7
 10
75.80000000000003
 20
35.70647928994087
 30
0
 11
75.80000000000003
 21
25.63833094251898
 31
0
  0
LINE
  8
1
 62
7
 10
75.80000000000003
 20
25.63833094251898
 30
0
 11
76.30000000000003
 21
23.77230553873447
 31
0
  0
LINE
  8
1
 62
7
 10
75.30000000000003
 20
25.57250469372528
 30
0
 11
75.80000000000003
 21
23.70647928994087
 31
0
  0
LINE
  8
1
 62
7
 10
75.30000000000003
 20
26.70647928994087
 30
0
 11
75.80000000000003
 21
26.70647928994087
 31
0
  0
LINE
  8
1
 62
7
 10
75.30000000000003
 20
36.45647928994087
 30
0
 11
75.30000000000003
 21
23.70647928994087
 31
0
  0
LINE
  8
1
 62
7
 10
75.80000000000003
 20
34.80647928994077
 30
0
 11
77.2
 21
34.80647928994077
 31
0
  0
LINE
  8
1
 62
7
 10
77.7
 20
34.30647928994077
 30
0
 11
77.7
 21
28.10647928994077
 31
0
  0
LINE
  8
1
 62
7
 10
75.80000000000003
 20
27.60647928994077
 30
0
 11
77.2
 21
27.60647928994077
 31
0
  0
LINE
  8
1
 62
7
 10
76.30000000000003
 20
34.80647928994077
 30
0
 11
76.30000000000003
 21
27.60647928994077
 31
0
  0
LINE
  8
1
 62
7
 10
77.7
 20
34.30647928994077
 30
0
 11
77.2
 21
34.80647928994077
 31
0
  0
LINE
  8
1
 62
7
 10
77.2
 20
27.60647928994077
 30
0
 11
77.7
 21
28.10647928994077
 31
0
  0
LINE
  8
1
 62
7
 10
75.80000000000003
 20
-48.29352071005914
 30
0
 11
76.30000000000003
 21
-48.29352071005914
 31
0
  0
LINE
  8
1
 62
7
 10
76.30000000000003
 20
-31.79352071005923
 30
0
 11
78.10000000000004
 21
-31.79352071005915
 31
0
  0
LINE
  8
1
 62
7
 10
76.30000000000003
 20
-40.79352071005923
 30
0
 11
78.09999999999998
 21
-40.79352071005923
 31
0
  0
LINE
  8
1
 62
7
 10
76.30000000000003
 20
-21.79352071005914
 30
0
 11
76.30000000000003
 21
-48.29352071005914
 31
0
  0
LINE
  8
1
 62
7
 10
75.80000000000003
 20
-43.29352071005923
 30
0
 11
76.30000000000003
 21
-43.29352071005923
 31
0
  0
LINE
  8
1
 62
7
 10
75.80000000000003
 20
-30.04352071005914
 30
0
 11
76.30000000000003
 21
-30.04352071005914
 31
0
  0
LINE
  8
1
 62
7
 10
71.90000000000005
 20
-48.79352071005914
 30
0
 11
58.90000000000006
 21
-48.79352071005914
 31
0
  0
LINE
  8
1
 62
7
 10
56.40039601787984
 20
-29.79352071005914
 30
0
 11
68.2
 21
-29.79352071005914
 31
0
  0
LINE
  8
1
 62
7
 10
71.89999999999995
 20
16.80647928994084
 30
0
 11
68.2
 21
16.80647928994088
 31
0
  0
LINE
  8
1
 62
7
 10
71.90000000000005
 20
36.20647928994087
 30
0
 11
71.89999999999995
 21
8.706479289940848
 31
0
  0
LINE
  8
1
 62
7
 10
50.80000000000003
 20
16.20647928994086
 30
0
 11
52.9
 21
16.20647928994086
 31
0
  0
LINE
  8
1
 62
7
 10
52.9
 20
-28.79352071005914
 30
0
 11
50.80000000000003
 21
-28.79352071005914
 31
0
  0
LINE
  8
1
 62
7
 10
50.80000000000003
 20
68.70647928994086
 30
0
 11
50.80000000000005
 21
10.70647928994085
 31
0
  0
LINE
  8
1
 62
7
 10
52.89999999999996
 20
34.70647928994084
 30
0
 11
52.89999999999996
 21
10.70647928994085
 31
0
  0
LINE
  8
1
 62
7
 10
58.65000000000006
 20
64.63359053282235
 30
0
 11
61.15000000000006
 21
64.63359053282235
 31
0
  0
LINE
  8
1
 62
7
 10
61.15000000000006
 20
64.63359053282235
 30
0
 11
61.14999999999996
 21
36.20647928994084
 31
0
  0
LINE
  8
1
 62
7
 10
58.65000000000006
 20
64.63359053282235
 30
0
 11
58.65000000000006
 21
36.20126869408168
 31
0
  0
LINE
  8
1
 62
7
 10
60.29058051105741
 20
67.98384506876394
 30
0
 11
60.29058051105741
 21
64.63359053282235
 31
0
  0
LINE
  8
1
 62
7
 10
60.54489562666443
 20
67.98384506876394
 30
0
 11
60.54489562666443
 21
64.63359053282235
 31
0
  0
LINE
  8
1
 62
7
 10
59.5094194889427
 20
64.63359053282235
 30
0
 11
59.5094194889427
 21
67.98384506876394
 31
0
  0
LINE
  8
1
 62
7
 10
59.25510437333556
 20
64.63359053282235
 30
0
 11
59.25510437333556
 21
67.98384506876394
 31
0
  0
LINE
  8
1
 62
7
 10
76.00000000000009
 20
8.706479289940848
 30
0
 11
71.99999999999996
 21
8.706479289940859
 31
0
  0
LINE
  8
1
 62
7
 10
77.80000000000015
 20
13.70647928994085
 30
0
 11
77.00000000000009
 21
13.70647928994085
 31
0
  0
LINE
  8
1
 62
7
 10
88.00000000000001
 20
13.70647928994086
 30
0
 11
91.00000000000001
 21
13.70647928994086
 31
0
  0
LINE
  8
1
 62
7
 10
87.50000000000009
 20
23.20646875949597
 30
0
 11
87.50000000000001
 21
14.20647928994086
 31
0
  0
LINE
  8
1
 62
7
 10
78.80000000000004
 20
23.70646875949597
 30
0
 11
87.00000000000009
 21
23.70646875949597
 31
0
  0
LINE
  8
1
 62
7
 10
78.30000000000004
 20
14.20647928994085
 30
0
 11
78.30000000000004
 21
23.20646875949597
 31
0
  0
LINE
  8
1
 62
7
 10
91.50000000000009
 20
-26.29352071005915
 30
0
 11
91.50000000000001
 21
13.20647928994086
 31
0
  0
LINE
  8
1
 62
7
 10
91.30000000000004
 20
-26.29352071005915
 30
0
 11
91.50000000000009
 21
-26.29352071005915
 31
0
  0
LINE
  8
1
 62
7
 10
91.30000000000004
 20
-45.29314292445348
 30
0
 11
91.30000000000004
 21
-26.29352071005915
 31
0
  0
LINE
  8
1
 62
7
 10
88.00000000000009
 20
-45.79314292445348
 30
0
 11
90.80000000000004
 21
-45.79314292445348
 31
0
  0
LINE
  8
1
 62
7
 10
87.50000000000009
 20
-47.29333267042856
 30
0
 11
87.50000000000009
 21
-46.29314292445348
 31
0
  0
LINE
  8
1
 62
7
 10
81.00000000000009
 20
-47.79333267042856
 30
0
 11
87.00000000000009
 21
-47.79333267042856
 31
0
  0
LINE
  8
1
 62
7
 10
80.50000000000001
 20
-46.29314292445352
 30
0
 11
80.50000000000001
 21
-47.29333267042853
 31
0
  0
LINE
  8
1
 62
7
 10
78.59999999999998
 20
-45.79314292445352
 30
0
 11
79.80000000000003
 21
-45.79314292445352
 31
0
  0
LINE
  8
1
 62
7
 10
78.09999999999998
 20
-26.79352071005914
 30
0
 11
78.09999999999998
 21
-45.29314292445352
 31
0
  0
LINE
  8
1
 62
7
 10
71.50000000000001
 20
8.206479289940859
 30
0
 11
71.50000000000001
 21
-20.79352071005914
 31
0
  0
LINE
  8
1
 62
7
 10
76.00000000000009
 20
-21.29352071005915
 30
0
 11
71.99999999999996
 21
-21.29352071005914
 31
0
  0
LINE
  8
1
 62
7
 10
77.60000000000001
 20
-26.29352071005914
 30
0
 11
76.80000000000003
 21
-26.29352071005914
 31
0
  0
LINE
  8
1
 62
7
 10
71.49999999999996
 20
3.206479289940859
 30
0
 11
91.50000000000001
 21
3.206479289940859
 31
0
  0
LINE
  8
1
 62
7
 10
71.49999999999996
 20
1.206479289940859
 30
0
 11
91.50000000000001
 21
1.206479289940859
 31
0
  0
LINE
  8
1
 62
7
 10
71.30000000000003
 20
-13.78584227526264
 30
0
 11
91.30000000000003
 21
-13.78584227526264
 31
0
  0
LINE
  8
1
 62
7
 10
80.00000000000009
 20
9.706468759495966
 30
0
 11
80.00000000000009
 21
23.70646875949597
 31
0
  0
LINE
  8
1
 62
7
 10
86.00000000000009
 20
23.70646875949597
 30
0
 11
86.00000000000009
 21
9.706468759495966
 31
0
  0
LINE
  8
1
 62
7
 10
80.00000000000009
 20
9.706468759495966
 30
0
 11
86.00000000000009
 21
9.706468759495966
 31
0
  0
LINE
  8
1
 62
3
 10
85.50000000000009
 20
9.706468759495966
 30
0
 11
85.50000000000009
 21
3.206479289940847
 31
0
  0
LINE
  8
1
 62
3
 10
80.50000000000001
 20
3.206479289940859
 30
0
 11
80.50000000000009
 21
9.706468759495966
 31
0
  0
LINE
  8
1
 62
7
 10
84.89999999999984
 20
9.706468759495966
 30
0
 11
84.89999999999984
 21
3.206479289940847
 31
0
  0
LINE
  8
1
 62
7
 10
81.09999999999998
 20
3.206479289940859
 30
0
 11
81.09999999999999
 21
9.706468759495966
 31
0
  0
LINE
  8
1
 62
3
  6
DASHDOT
 10
83.00000000000009
 20
0.2064792899408472
 30
0
 11
82.99999999999996
 21
26.70646875949598
 31
0
  0
LINE
  8
1
 62
7
 10
75.80000000000003
 20
-21.29352071005914
 30
0
 11
75.80000000000003
 21
-48.29352071005914
 31
0
  0
LINE
  8
1
 62
7
 10
72.29999999999994
 20
-21.29352071005914
 30
0
 11
72.30000000000003
 21
-49.04352071005914
 31
0
  0
LINE
  8
1
 62
7
 10
71.90000000000005
 20
-21.29352071005914
 30
0
 11
71.90000000000005
 21
-48.79352071005914
 31
0
  0
LINE
  8
1
 62
7
 10
75.30000000000003
 20
-49.04352071005914
 30
0
 11
75.30000000000003
 21
-36.29352071005923
 31
0
  0
LINE
  8
1
 62
7
 10
75.30000000000003
 20
-36.29352071005923
 30
0
 11
75.80000000000003
 21
-36.29352071005923
 31
0
  0
LINE
  8
1
 62
7
 10
72.30000000000003
 20
16.20647928994086
 30
0
 11
75.80000000000003
 21
16.20647928994086
 31
0
  0
LINE
  8
1
 62
7
 10
72.30000000000003
 20
-28.79352071005914
 30
0
 11
75.80000000000003
 21
-28.79352071005914
 31
0
  0
LINE
  8
1
 62
3
  6
DASHDOT
 10
96.50000000000009
 20
-6.293520710059153
 30
0
 11
91.50000000000001
 21
-6.293520710059141
 31
0
  0
LINE
  8
1
 62
7
 10
68.2
 20
17.20647928994086
 30
0
 11
56.40039601787967
 21
17.20647928994086
 31
0
  0
LINE
  8
1
 62
7
 10
68.2
 20
-29.39352071005922
 30
0
 11
71.90000000000005
 21
-29.39352071005922
 31
0
  0
LINE
  8
1
 62
7
 10
65.04329585348873
 20
-23.37602071005915
 30
0
 11
68.2
 21
-23.37602071005915
 31
0
  0
LINE
  8
1
 62
7
 10
62.3567041465113
 20
-23.37602071005915
 30
0
 11
59.20000000000001
 21
-23.37602071005915
 31
0
  0
LINE
  8
1
 62
7
 10
65.04329585348873
 20
-27.71102071005913
 30
0
 11
68.2
 21
-27.71102071005913
 31
0
  0
LINE
  8
1
 62
7
 10
62.3567041465113
 20
-27.71102071005913
 30
0
 11
59.20000000000001
 21
-27.71102071005913
 31
0
  0
LINE
  8
1
 62
3
 10
60.66249999999999
 20
-25.54352071005914
 30
0
 11
66.73749999999997
 21
-25.54352071005914
 31
0
  0
LINE
  8
1
 62
3
 10
63.70000000000001
 20
-28.58102071005914
 30
0
 11
63.70000000000001
 21
-22.50602071005915
 31
0
  0
LINE
  8
1
 62
7
 10
60.17499999999998
 20
-28.23164571005916
 30
0
 11
60.17499999999998
 21
-22.85539571005913
 31
0
  0
LINE
  8
1
 62
7
 10
67.22499999999998
 20
-28.23164571005916
 30
0
 11
67.22499999999998
 21
-22.85539571005913
 31
0
  0
LINE
  8
1
 62
7
 10
65.04329585348873
 20
10.78897928994087
 30
0
 11
68.2
 21
10.78897928994087
 31
0
  0
LINE
  8
1
 62
7
 10
62.3567041465113
 20
10.78897928994087
 30
0
 11
59.20000000000001
 21
10.78897928994087
 31
0
  0
LINE
  8
1
 62
7
 10
65.04329585348873
 20
15.12397928994085
 30
0
 11
68.2
 21
15.12397928994085
 31
0
  0
LINE
  8
1
 62
7
 10
62.3567041465113
 20
15.12397928994085
 30
0
 11
59.20000000000001
 21
15.12397928994085
 31
0
  0
LINE
  8
1
 62
3
 10
60.66249999999999
 20
12.95647928994086
 30
0
 11
66.73750000000003
 21
12.95647928994086
 31
0
  0
LINE
  8
1
 62
3
 10
63.70000000000001
 20
15.99397928994085
 30
0
 11
63.70000000000001
 21
9.918979289940864
 31
0
  0
LINE
  8
1
 62
7
 10
60.17500000000003
 20
15.64460428994087
 30
0
 11
60.17500000000003
 21
10.26835428994085
 31
0
  0
LINE
  8
1
 62
7
 10
67.22499999999998
 20
15.64460428994087
 30
0
 11
67.22499999999998
 21
10.26835428994085
 31
0
  0
LINE
  8
1
 62
7
 10
69.7
 20
11.50647928994087
 30
0
 11
68.2
 21
11.50647928994087
 31
0
  0
LINE
  8
1
 62
7
 10
68.2
 20
-25.09045916675822
 30
0
 11
69.7
 21
-25.09045916675822
 31
0
  0
LINE
  8
1
 62
7
 10
69.7
 20
-25.09045916675822
 30
0
 11
69.7
 21
-20.59352071005915
 31
0
  0
LINE
  8
1
 62
7
 10
68.2
 20
8.00647928994087
 30
0
 11
69.7
 21
8.00647928994087
 31
0
  0
LINE
  8
1
 62
7
 10
68.2
 20
-20.59352071005915
 30
0
 11
69.7
 21
-20.59352071005915
 31
0
  0
LINE
  8
1
 62
7
 10
69.7
 20
8.00647928994087
 30
0
 11
69.7
 21
11.50647928994087
 31
0
  0
LINE
  8
1
 62
7
 10
68.2
 20
17.20647928994086
 30
0
 11
68.2
 21
8.00647928994087
 31
0
  0
LINE
  8
1
 62
7
 10
68.2
 20
-20.59352071005915
 30
0
 11
68.2
 21
-29.79352071005914
 31
0
  0
LINE
  8
1
 62
7
 10
59.20000000000001
 20
17.20647928994086
 30
0
 11
59.20000000000001
 21
8.706479289940859
 31
0
  0
LINE
  8
1
 62
7
 10
59.20000000000001
 20
-29.79352071005914
 30
0
 11
59.20000000000001
 21
-21.29352071005914
 31
0
  0
LINE
  8
1
 62
7
 10
43.49999999999996
 20
34.70647928994087
 30
0
 11
45.60000000000001
 21
34.70647928994084
 31
0
  0
LINE
  8
1
 62
7
 10
59.20000000000001
 20
10.70647928994086
 30
0
 11
45.59999999999999
 21
10.70647928994086
 31
0
  0
LINE
  8
1
 62
7
 10
45.59999999999999
 20
-23.29352071005914
 30
0
 11
59.20000000000001
 21
-23.29352071005914
 31
0
  0
LINE
  8
1
 62
7
 10
50.80000000000003
 20
-23.29352071005914
 30
0
 11
50.80000000000003
 21
-47.29352071005914
 31
0
  0
LINE
  8
1
 62
7
 10
52.9
 20
-23.29352071005914
 30
0
 11
52.9
 21
-47.29352071005914
 31
0
  0
LINE
  8
1
 62
7
 10
44.80000000000003
 20
68.70647928994086
 30
0
 11
44.80000000000003
 21
34.70647928994087
 31
0
  0
LINE
  8
1
 62
7
 10
44.80000000000003
 20
68.70647928994086
 30
0
 11
50.80000000000003
 21
68.70647928994086
 31
0
  0
LINE
  8
1
 62
7
 10
50.80000000000003
 20
34.70647928994087
 30
0
 11
52.89999999999996
 21
34.70647928994084
 31
0
  0
LINE
  8
1
 62
7
 10
44.80000000000005
 20
62.70647928994084
 30
0
 11
50.80000000000003
 21
62.70647928994086
 31
0
  0
LINE
  8
1
 62
7
 10
50.80000000000003
 20
54.70647928994086
 30
0
 11
44.80000000000005
 21
54.70647928994084
 31
0
  0
LINE
  8
1
 62
3
  6
DASHDOT
 10
41.80000000000003
 20
58.70647928994086
 30
0
 11
53.80000000000003
 21
58.70647928994086
 31
0
  0
LINE
  8
1
 62
7
 10
33.40000000000003
 20
125.3564792899409
 30
0
 11
31.79999999999998
 21
125.3564792899409
 31
0
  0
LINE
  8
1
 62
7
 10
31.79999999999998
 20
212.7064792899409
 30
0
 11
31.79999999999998
 21
122.7064792899409
 31
0
  0
LINE
  8
1
 62
7
 10
22.24337567297405
 20
122.7064792899409
 30
0
 11
22.24337567297405
 21
212.7064792899409
 31
0
  0
LINE
  8
1
 62
7
 10
20.80000000000005
 20
210.2064792899409
 30
0
 11
20.80000000000005
 21
125.2064792899409
 31
0
  0
LINE
  8
1
 62
7
 10
19.79999999999998
 20
210.2064792899409
 30
0
 11
19.79999999999998
 21
125.2064792899409
 31
0
  0
LINE
  8
1
 62
3
  6
DASHDOT
 10
50.60000000000004
 20
167.7064792899409
 30
0
 11
45.60000000000004
 21
167.7064792899409
 31
0
  0
LINE
  8
1
 62
7
 10
33.40000000000001
 20
210.2064792899409
 30
0
 11
38.69099508615799
 21
210.2064792899409
 31
0
  0
LINE
  8
1
 62
7
 10
45.60000000000004
 20
126.7064792899409
 30
0
 11
45.60000000000004
 21
208.7064792899408
 31
0
  0
LINE
  8
1
 62
7
 10
43.50000000000004
 20
126.7064792899409
 30
0
 11
43.50000000000004
 21
208.7064792899408
 31
0
  0
LINE
  8
1
 62
7
 10
33.40000000000001
 20
125.2064792899411
 30
0
 11
33.40000000000003
 21
125.3564792899409
 31
0
  0
LINE
  8
1
 62
7
 10
38.69099508615799
 20
125.2064792899411
 30
0
 11
33.40000000000001
 21
125.2064792899411
 31
0
  0
LINE
  8
1
 62
7
 10
31.79999999999998
 20
210.0564792899409
 30
0
 11
33.40000000000001
 21
210.0564792899409
 31
0
  0
LINE
  8
1
 62
7
 10
33.40000000000001
 20
210.0564792899409
 30
0
 11
33.40000000000001
 21
210.2064792899409
 31
0
  0
LINE
  8
1
 62
7
 10
52.90000000000003
 20
208.7064792899409
 30
0
 11
43.50000000000004
 21
208.7064792899408
 31
0
  0
LINE
  8
1
 62
7
 10
20.80000000000005
 20
210.2064792899409
 30
0
 11
19.79999999999998
 21
210.2064792899409
 31
0
  0
LINE
  8
1
 62
7
 10
22.24337567297405
 20
212.7064792899409
 30
0
 11
20.80000000000005
 21
210.2064792899409
 31
0
  0
LINE
  8
1
 62
7
 10
31.79999999999998
 20
212.7064792899409
 30
0
 11
22.24337567297405
 21
212.7064792899409
 31
0
  0
LINE
  8
1
 62
7
 10
22.24337567297405
 20
122.7064792899409
 30
0
 11
31.79999999999998
 21
122.7064792899409
 31
0
  0
LINE
  8
1
 62
7
 10
20.80000000000005
 20
125.2064792899409
 30
0
 11
22.24337567297405
 21
122.7064792899409
 31
0
  0
LINE
  8
1
 62
7
 10
19.79999999999998
 20
125.2064792899409
 30
0
 11
20.80000000000005
 21
125.2064792899409
 31
0
  0
LINE
  8
1
 62
7
 10
15.40000000000007
 20
124.9564792899409
 30
0
 11
15.40000000000007
 21
210.4564792899409
 31
0
  0
LINE
  8
1
 62
7
 10
14.40000000000007
 20
125.7064792899409
 30
0
 11
14.40000000000007
 21
197.7723055387346
 31
0
  0
LINE
  8
1
 62
7
 10
14.90000000000007
 20
125.7064792899409
 30
0
 11
14.90000000000007
 21
197.7064792899409
 31
0
  0
LINE
  8
1
 62
7
 10
14.40000000000007
 20
125.7064792899409
 30
0
 11
14.90000000000007
 21
125.7064792899409
 31
0
  0
LINE
  8
1
 62
7
 10
12.80000000000006
 20
202.1064792899409
 30
0
 11
13.30000000000006
 21
201.6064792899409
 31
0
  0
LINE
  8
1
 62
7
 10
13.30000000000006
 20
208.8064792899409
 30
0
 11
12.80000000000006
 21
208.3064792899409
 31
0
  0
LINE
  8
1
 62
7
 10
14.40000000000007
 20
201.6064792899409
 30
0
 11
14.40000000000007
 21
208.8064792899409
 31
0
  0
LINE
  8
1
 62
7
 10
13.30000000000006
 20
201.6064792899409
 30
0
 11
14.90000000000007
 21
201.6064792899409
 31
0
  0
LINE
  8
1
 62
7
 10
12.80000000000006
 20
202.1064792899409
 30
0
 11
12.80000000000006
 21
208.3064792899409
 31
0
  0
LINE
  8
1
 62
7
 10
13.30000000000006
 20
208.8064792899409
 30
0
 11
14.90000000000007
 21
208.8064792899409
 31
0
  0
LINE
  8
1
 62
7
 10
14.90000000000007
 20
197.7064792899409
 30
0
 11
15.40000000000007
 21
199.5725046937253
 31
0
  0
LINE
  8
1
 62
7
 10
14.40000000000007
 20
197.7723055387346
 30
0
 11
14.90000000000007
 21
199.638330942519
 31
0
  0
LINE
  8
1
 62
7
 10
14.90000000000007
 20
199.638330942519
 30
0
 11
14.90000000000007
 21
209.7064792899409
 31
0
  0
LINE
  8
1
 62
7
 10
14.90000000000007
 20
209.7064792899409
 30
0
 11
15.40000000000007
 21
209.7064792899409
 31
0
  0
LINE
  8
1
 62
7
 10
14.90000000000007
 20
197.7064792899409
 30
0
 11
15.40000000000007
 21
197.7064792899409
 31
0
  0
LINE
  8
1
 62
7
 10
13.20000000000007
 20
142.7064792899409
 30
0
 11
14.40000000000007
 21
142.7064792899409
 31
0
  0
LINE
  8
1
 62
7
 10
14.40000000000007
 20
132.7064792899409
 30
0
 11
13.20000000000007
 21
132.7064792899409
 31
0
  0
LINE
  8
1
 62
7
 10
12.20000000000007
 20
147.2064792899409
 30
0
 11
9.300000000000047
 21
147.2064792899409
 31
0
  0
LINE
  8
1
 62
7
 10
13.20000000000007
 20
129.2064792899409
 30
0
 11
13.20000000000007
 21
146.2064792899409
 31
0
  0
LINE
  8
1
 62
7
 10
9.300000000000061
 20
128.2064792899409
 30
0
 11
12.20000000000007
 21
128.2064792899409
 31
0
  0
LINE
  8
1
 62
7
 10
9.300000000000047
 20
127.7064792899409
 30
0
 11
9.300000000000047
 21
195.7064792899409
 31
0
  0
LINE
  8
1
 62
7
 10
4.00000000000005
 20
127.2064792899409
 30
0
 11
8.800000000000047
 21
127.2064792899409
 31
0
  0
LINE
  8
1
 62
7
 10
3.50000000000005
 20
128.2064792899409
 30
0
 11
3.50000000000005
 21
127.7064792899409
 31
0
  0
LINE
  8
1
 62
7
 10
2.50000000000005
 20
128.2064792899409
 30
0
 11
3.50000000000005
 21
128.2064792899409
 31
0
  0
LINE
  8
1
 62
7
 10
0.5000000000000497
 20
147.2064792899409
 30
0
 11
0.5000000000000497
 21
130.2064792899409
 31
0
  0
LINE
  8
1
 62
7
 10
0.3000000000000327
 20
147.2064792899409
 30
0
 11
0.5000000000000497
 21
147.2064792899409
 31
0
  0
LINE
  8
1
 62
7
 10
0.3000000000000327
 20
195.7064792899409
 30
0
 11
0.3000000000000327
 21
147.2064792899409
 31
0
  0
LINE
  8
1
 62
7
 10
2.300000000000033
 20
197.7064792899409
 30
0
 11
7.300000000000033
 21
197.7064792899409
 31
0
  0
LINE
  8
1
 62
7
 10
12.20000000000007
 20
192.2064792899409
 30
0
 11
9.300000000000047
 21
192.2064792899409
 31
0
  0
LINE
  8
1
 62
7
 10
14.40000000000007
 20
187.7064792899409
 30
0
 11
13.20000000000007
 21
187.7064792899409
 31
0
  0
LINE
  8
1
 62
3
  6
DASHDOT
 10
-4.699999999999967
 20
167.7064792899409
 30
0
 11
0.3000000000000327
 21
167.7064792899409
 31
0
  0
LINE
  8
1
 62
7
 10
15.4000000000001
 20
137.7064792899409
 30
0
 11
14.90000000000007
 21
137.7064792899409
 31
0
  0
LINE
  8
1
 62
7
 10
14.40000000000007
 20
157.7064792899409
 30
0
 11
9.300000000000047
 21
157.7064792899409
 31
0
  0
LINE
  8
1
 62
7
 10
13.20000000000007
 20
191.2064792899409
 30
0
 11
13.20000000000007
 21
174.2064792899409
 31
0
  0
LINE
  8
1
 62
7
 10
9.300000000000047
 20
173.2064792899409
 30
0
 11
12.20000000000007
 21
173.2064792899409
 31
0
  0
LINE
  8
1
 62
7
 10
14.40000000000007
 20
177.7064792899409
 30
0
 11
13.20000000000007
 21
177.7064792899409
 31
0
  0
LINE
  8
1
 62
7
 10
15.40000000000007
 20
210.4564792899409
 30
0
 11
19.50000000000009
 21
210.4564792899409
 31
0
  0
LINE
  8
1
 62
7
 10
15.40000000000007
 20
124.9564792899409
 30
0
 11
19.50000000000009
 21
124.9564792899409
 31
0
  0
LINE
  8
1
 62
7
 10
19.50000000000009
 20
210.4564792899409
 30
0
 11
19.50000000000009
 21
124.9564792899409
 31
0
  0
LINE
  8
1
 62
7
 10
91.30000000000004
 20
147.7064792899409
 30
0
 11
91.30000000000004
 21
187.2064792899409
 31
0
  0
LINE
  8
1
 62
7
 10
78.10000000000005
 20
197.206468759496
 30
0
 11
78.10000000000005
 21
188.2064792899409
 31
0
  0
LINE
  8
1
 62
7
 10
77.60000000000005
 20
187.7064792899409
 30
0
 11
76.80000000000004
 21
187.7064792899409
 31
0
  0
LINE
  8
1
 62
7
 10
90.80000000000004
 20
187.7064792899409
 30
0
 11
87.80000000000004
 21
187.7064792899409
 31
0
  0
LINE
  8
1
 62
7
 10
78.10000000000005
 20
147.2064792899409
 30
0
 11
78.10000000000005
 21
128.7068570755465
 31
0
  0
LINE
  8
1
 62
3
  6
DASHDOT
 10
50.80000000000004
 20
167.7064792899409
 30
0
 11
45.80000000000004
 21
167.7064792899409
 31
0
  0
LINE
  8
1
 62
7
 10
58.65000000000002
 20
210.2012686940818
 30
0
 11
61.16292910845181
 21
210.2012686940818
 31
0
  0
LINE
  8
1
 62
7
 10
72.29999999999993
 20
210.4564792899409
 30
0
 11
75.30000000000004
 21
210.4564792899409
 31
0
  0
LINE
  8
1
 62
7
 10
75.30000000000004
 20
210.4564792899409
 30
0
 11
75.30000000000004
 21
124.9564792899409
 31
0
  0
LINE
  8
1
 62
7
 10
75.30000000000004
 20
124.9564792899409
 30
0
 11
72.30000000000004
 21
124.9564792899409
 31
0
  0
LINE
  8
1
 62
7
 10
75.30000000000004
 20
209.7064792899409
 30
0
 11
75.80000000000004
 21
209.7064792899409
 31
0
  0
LINE
  8
1
 62
7
 10
75.80000000000004
 20
209.7064792899409
 30
0
 11
75.80000000000004
 21
199.638330942519
 31
0
  0
LINE
  8
1
 62
7
 10
75.80000000000004
 20
199.638330942519
 30
0
 11
76.30000000000004
 21
197.7723055387345
 31
0
  0
LINE
  8
1
 62
7
 10
75.30000000000004
 20
199.5725046937253
 30
0
 11
75.80000000000004
 21
197.7064792899409
 31
0
  0
LINE
  8
1
 62
7
 10
75.80000000000004
 20
208.8064792899409
 30
0
 11
77.20000000000002
 21
208.8064792899409
 31
0
  0
LINE
  8
1
 62
7
 10
77.70000000000002
 20
208.3064792899409
 30
0
 11
77.70000000000002
 21
202.1064792899409
 31
0
  0
LINE
  8
1
 62
7
 10
75.80000000000004
 20
201.6064792899409
 30
0
 11
77.20000000000002
 21
201.6064792899409
 31
0
  0
LINE
  8
1
 62
7
 10
76.30000000000004
 20
208.8064792899409
 30
0
 11
76.30000000000004
 21
201.6064792899409
 31
0
  0
LINE
  8
1
 62
7
 10
77.70000000000002
 20
208.3064792899409
 30
0
 11
77.20000000000002
 21
208.8064792899409
 31
0
  0
LINE
  8
1
 62
7
 10
77.20000000000002
 20
201.6064792899409
 30
0
 11
77.70000000000002
 21
202.1064792899409
 31
0
  0
LINE
  8
1
 62
7
 10
75.80000000000004
 20
125.7064792899409
 30
0
 11
76.30000000000004
 21
125.7064792899409
 31
0
  0
LINE
  8
1
 62
7
 10
76.30000000000004
 20
142.2064792899408
 30
0
 11
78.10000000000005
 21
142.2064792899408
 31
0
  0
LINE
  8
1
 62
7
 10
76.30000000000004
 20
133.2064792899408
 30
0
 11
78.10000000000005
 21
133.2064792899408
 31
0
  0
LINE
  8
1
 62
7
 10
61.15000000000006
 20
210.2064792899409
 30
0
 11
71.90000000000006
 21
210.2064792899409
 31
0
  0
LINE
  8
1
 62
7
 10
71.90000000000006
 20
125.2064792899409
 30
0
 11
58.90000000000006
 21
125.2064792899409
 31
0
  0
LINE
  8
1
 62
7
 10
50.80000000000004
 20
208.7064792899409
 30
0
 11
50.80000000000004
 21
126.7064792899409
 31
0
  0
LINE
  8
1
 62
7
 10
52.90000000000003
 20
208.7064792899409
 30
0
 11
52.90000000000003
 21
126.7064792899409
 31
0
  0
LINE
  8
1
 62
7
 10
43.50000000000004
 20
126.7064792899409
 30
0
 11
52.90000000000003
 21
126.7064792899409
 31
0
  0
LINE
  8
1
 62
7
 10
91.10000000000002
 20
147.7064792899409
 30
0
 11
91.30000000000004
 21
147.7064792899409
 31
0
  0
LINE
  8
1
 62
7
 10
91.10000000000002
 20
128.7068570755465
 30
0
 11
91.10000000000002
 21
147.7064792899409
 31
0
  0
LINE
  8
1
 62
7
 10
87.80000000000004
 20
128.2068570755466
 30
0
 11
90.60000000000002
 21
128.2068570755466
 31
0
  0
LINE
  8
1
 62
7
 10
80.80000000000004
 20
126.2066673295715
 30
0
 11
86.80000000000004
 21
126.2066673295715
 31
0
  0
LINE
  8
1
 62
7
 10
78.60000000000005
 20
128.2068570755466
 30
0
 11
79.80000000000004
 21
128.2068570755466
 31
0
  0
LINE
  8
1
 62
7
 10
77.60000000000005
 20
147.7064792899409
 30
0
 11
76.80000000000004
 21
147.7064792899409
 31
0
  0
LINE
  8
1
 62
7
 10
71.90000000000006
 20
210.2064792899409
 30
0
 11
71.90000000000006
 21
125.2064792899409
 31
0
  0
LINE
  8
1
 62
7
 10
75.80000000000004
 20
125.7064792899409
 30
0
 11
75.80000000000004
 21
197.7064792899409
 31
0
  0
LINE
  8
1
 62
7
 10
72.30000000000004
 20
124.9564792899409
 30
0
 11
72.29999999999993
 21
210.4564792899409
 31
0
  0
LINE
  8
1
 62
7
 10
86.80000000000004
 20
197.706468759496
 30
0
 11
78.60000000000005
 21
197.706468759496
 31
0
  0
LINE
  8
1
 62
7
 10
87.30000000000004
 20
197.206468759496
 30
0
 11
87.30000000000004
 21
188.2064792899409
 31
0
  0
LINE
  8
1
 62
7
 10
76.30000000000004
 20
197.7723055387345
 30
0
 11
76.30000000000004
 21
125.7064792899409
 31
0
  0
LINE
  8
1
 62
3
  6
DASHDOT
 10
96.30000000000004
 20
167.7064792899409
 30
0
 11
91.30000000000004
 21
167.7064792899409
 31
0
  0
LINE
  8
1
 62
7
 10
75.80000000000004
 20
197.7064792899409
 30
0
 11
75.30000000000004
 21
197.7064792899409
 31
0
  0
LINE
  8
1
 62
7
 10
75.80000000000004
 20
137.7064792899408
 30
0
 11
75.30000000000004
 21
137.7064792899408
 31
0
  0
LINE
  8
1
 62
7
 10
80.30000000000004
 20
127.7068570755466
 30
0
 11
80.30000000000004
 21
126.7066673295715
 31
0
  0
LINE
  8
1
 62
7
 10
87.30000000000004
 20
127.7068570755466
 30
0
 11
87.30000000000004
 21
126.7066673295715
 31
0
  0
ARC
  8
1
 62
7
 10
-90
 20
-6.293520710059141
 30
0
 40
30.00000000000007
 50
301.8901523342856
 51
358.1098476657143
  0
ARC
  8
1
 62
7
 10
-90
 20
-6.293520710059141
 30
0
 40
30.00000000000001
 50
61.89015233428583
 51
118.1098476657142
  0
ARC
  8
1
 62
7
 10
158.5875219438898
 20
-8.298102793255282
 30
0
 40
10.00000000000003
 50
146.3473568970545
 51
184.9999999999996
  0
ARC
  8
1
 62
7
 10
159.5
 20
-6.293520710059141
 30
0
 40
20.00000000000005
 50
139.847960549323
 51
180
  0
ARC
  8
1
 62
7
 10
181.5
 20
-6.293520710059153
 30
0
 40
33.00000000000019
 50
184.9999999999999
 51
234.9999999999998
  0
ARC
  8
1
 62
7
 10
181.5
 20
-6.293520710059153
 30
0
 40
42.0000000000002
 50
180
 51
239.9999999999999
  0
ARC
  8
1
 62
7
 10
192.5
 20
-25.34607959331677
 30
0
 40
20.00000000000003
 50
259.8479605493234
 51
299.9999999999999
  0
ARC
  8
1
 62
7
 10
181.5
 20
-6.293520710059153
 30
0
 40
32.99999999999999
 50
304.9999999999999
 51
354.9999999999999
  0
ARC
  8
1
 62
7
 10
181.5
 20
-6.293520710059153
 30
0
 40
42.00000000000001
 50
299.9999999999999
 51
0
  0
ARC
  8
1
 62
7
 10
181.5
 20
-6.293520710059153
 30
0
 40
33.00000000000001
 50
65.0000000000002
 51
115
  0
ARC
  8
1
 62
7
 10
181.5
 20
-6.293520710059153
 30
0
 40
42.00000000000004
 50
60.00000000000003
 51
120
  0
ARC
  8
1
 62
7
 10
181.5
 20
-6.293520710059153
 30
0
 40
30.00000000000013
 50
181.8901523342856
 51
238.1098476657144
  0
ARC
  8
1
 62
7
 10
203.5
 20
-6.293520710059141
 30
0
 40
20
 50
0
 51
40.15203945067653
  0
ARC
  8
1
 62
7
 10
204.4124780561101
 20
-8.298102793255282
 30
0
 40
9.999999999999938
 50
354.9999999999997
 51
33.65264310294482
  0
ARC
  8
1
 62
7
 10
170.4999999999999
 20
-25.34607959331677
 30
0
 40
20.00000000000003
 50
240
 51
280.1520394506766
  0
ARC
  8
1
 62
7
 10
170.5
 20
12.75903817319852
 30
0
 40
19.99999999999996
 50
120.0000000000001
 51
160.1520394506768
  0
ARC
  8
1
 62
7
 10
171.7797799799639
 20
14.55155839178383
 30
0
 40
9.999999999999975
 50
115.0000000000001
 51
153.6526431029454
  0
ARC
  8
1
 62
7
 10
181.5
 20
-6.293520710059153
 30
0
 40
54.99999999999999
 50
131.8018441931411
 51
138.198155806859
  0
ARC
  8
1
 62
7
 10
181.5
 20
-6.293520710059153
 30
0
 40
55.00000000000002
 50
41.80184419314109
 51
48.19815580685894
  0
ARC
  8
1
 62
7
 10
181.5
 20
-6.293520710059153
 30
0
 40
54.99999999999979
 50
311.8018441931408
 51
318.198155806859
  0
ARC
  8
1
 62
7
 10
181.5
 20
-6.293520710059153
 30
0
 40
55.00000000000013
 50
221.8018441931409
 51
228.1981558068589
  0
ARC
  8
1
 62
7
 10
155.5192378864668
 20
8.706479289940859
 30
0
 40
11.50000000000005
 50
70.62045918564112
 51
229.3795408143587
  0
ARC
  8
1
 62
7
 10
194.692258036074
 20
-25.13401772870592
 30
0
 40
10.00000000000004
 50
266.3473568970551
 51
305.0000000000001
  0
ARC
  8
1
 62
7
 10
168.3077419639258
 20
-25.13401772870594
 30
0
 40
9.999999999999941
 50
235.0000000000003
 51
273.6526431029461
  0
ARC
  8
1
 62
7
 10
191.220220020036
 20
14.5515583917838
 30
0
 40
10.00000000000005
 50
26.34735689705496
 51
65.00000000000024
  0
ARC
  8
1
 62
7
 10
192.5
 20
12.75903817319852
 30
0
 40
20.00000000000003
 50
19.84796054932327
 51
60.00000000000003
  0
ARC
  8
1
 62
7
 10
167.8467841131983
 20
12.83341568729384
 30
0
 40
3.499999999999912
 50
198.5091831443484
 51
305.5200570079846
  0
ARC
  8
1
 62
7
 10
155.5192378864668
 20
8.706479289940859
 30
0
 40
9.500000000000043
 50
18.50918314434793
 51
281.4908168556517
  0
ARC
  8
1
 62
7
 10
158.1089792399223
 20
-4.032957107412142
 30
0
 40
3.500000000000027
 50
354.4799429920164
 51
101.4908168556531
  0
ARC
  8
1
 62
7
 10
181.5
 20
-36.29352071005917
 30
0
 40
11.5
 50
190.6204591856411
 51
349.3795408143584
  0
ARC
  8
1
 62
7
 10
171.762195126724
 20
-27.68102071005916
 30
0
 40
3.499999999999941
 50
318.5091831443476
 51
65.52005700798424
  0
ARC
  8
1
 62
7
 10
181.5
 20
-36.29352071005917
 30
0
 40
9.499999999999975
 50
138.5091831443479
 51
41.4908168556514
  0
ARC
  8
1
 62
7
 10
191.2378048732761
 20
-27.68102071005916
 30
0
 40
3.499999999999989
 50
114.4799429920154
 51
221.4908168556532
  0
ARC
  8
1
 62
7
 10
207.4807621135332
 20
8.706479289940887
 30
0
 40
11.5
 50
310.6204591856411
 51
109.3795408143585
  0
ARC
  8
1
 62
7
 10
204.8910207600777
 20
-4.032957107412102
 30
0
 40
3.499999999999994
 50
78.50918314434703
 51
185.5200570079842
  0
ARC
  8
1
 62
7
 10
207.4807621135332
 20
8.706479289940887
 30
0
 40
9.499999999999989
 50
258.5091831443482
 51
161.4908168556517
  0
ARC
  8
1
 62
7
 10
195.1532158868017
 20
12.83341568729387
 30
0
 40
3.50000000000004
 50
234.4799429920156
 51
341.4908168556526
  0
ARC
  8
1
 62
7
 10
181.5
 20
-6.293520710059153
 30
0
 40
7.500000000000011
 50
109.4712206344907
 51
70.52877936550934
  0
ARC
  8
1
 62
7
 10
141.5217640120429
 20
-7.612856638179051
 30
0
 40
10.00000000000008
 50
1.890152334286039
 51
49.37954081435768
  0
ARC
  8
1
 62
7
 10
162.6534604358989
 20
28.98831521806076
 30
0
 40
9.999999999999957
 50
250.6204591856418
 51
298.1098476657141
  0
ARC
  8
1
 62
7
 10
202.6316964238558
 20
-40.25602071005918
 30
0
 40
10.00000000000011
 50
121.8901523342858
 51
169.3795408143586
  0
ARC
  8
1
 62
7
 10
221.4782359879569
 20
-7.612856638179068
 30
0
 40
10.00000000000004
 50
130.6204591856417
 51
178.109847665715
  0
ARC
  8
1
 62
7
 10
200.3465395641011
 20
28.98831521806076
 30
0
 40
10.00000000000001
 50
241.8901523342855
 51
289.3795408143587
  0
ARC
  8
1
 62
7
 10
160.3683035761442
 20
-40.25602071005918
 30
0
 40
9.999999999999998
 50
10.62045918564207
 51
58.10984766571394
  0
ARC
  8
1
 62
7
 10
181.5
 20
-6.293520710059153
 30
0
 40
29.99999999999993
 50
301.8901523342856
 51
358.1098476657141
  0
ARC
  8
1
 62
7
 10
181.5
 20
-6.293520710059153
 30
0
 40
30.00000000000001
 50
61.89015233428577
 51
118.1098476657144
  0
ARC
  8
1
 62
3
  6
DASHDOT
 10
181.5
 20
-6.293520710059153
 30
0
 40
48.99999999999999
 50
37.50000000000004
 51
52.50000000000004
  0
ARC
  8
1
 62
3
  6
DASHDOT
 10
181.5
 20
-6.293520710059153
 30
0
 40
49
 50
127.5
 51
142.5
  0
ARC
  8
1
 62
3
  6
DASHDOT
 10
181.5
 20
-6.293520710059153
 30
0
 40
48.99999999999998
 50
217.5
 51
232.5
  0
ARC
  8
1
 62
3
  6
DASHDOT
 10
181.5
 20
-6.293520710059153
 30
0
 40
48.99999999999999
 50
307.5
 51
322.5
  0
ARC
  8
1
 62
3
  6
DASHDOT
 10
-90.00000000000284
 20
-6.293520710059084
 30
0
 40
49.00000000000205
 50
307.5000000000023
 51
322.5000000000013
  0
ARC
  8
1
 62
3
  6
DASHDOT
 10
-90
 20
-6.293520710056384
 30
0
 40
49.00000000000199
 50
217.5000000000023
 51
232.5000000000014
  0
ARC
  8
1
 62
3
  6
DASHDOT
 10
-89.99999999999733
 20
-6.293520710059198
 30
0
 40
49.00000000000199
 50
127.5000000000023
 51
142.5000000000013
  0
ARC
  8
1
 62
3
  6
DASHDOT
 10
-90.00000000000011
 20
-6.293520710061898
 30
0
 40
49.00000000000199
 50
37.50000000000237
 51
52.50000000000135
  0
ARC
  8
1
 62
7
 10
-90
 20
-6.293520710059141
 30
0
 40
54.99999999999998
 50
311.8018441931411
 51
318.1981558068588
  0
ARC
  8
1
 62
7
 10
-90
 20
-6.293520710059141
 30
0
 40
54.99999999999999
 50
221.8018441931411
 51
228.198155806859
  0
ARC
  8
1
 62
7
 10
-90
 20
-6.293520710059141
 30
0
 40
55.00000000000001
 50
41.80184419314109
 51
48.19815580685896
  0
ARC
  8
1
 62
7
 10
-90
 20
-6.293520710059141
 30
0
 40
54.99999999999999
 50
131.8018441931411
 51
138.1981558068589
  0
ARC
  8
1
 62
7
 10
-112.9124780561102
 20
-8.298102793255254
 30
0
 40
10
 50
146.3473568970546
 51
185.0000000000001
  0
ARC
  8
1
 62
7
 10
-112
 20
-6.293520710059141
 30
0
 40
20.00000000000007
 50
139.8479605493229
 51
180
  0
ARC
  8
1
 62
7
 10
-90
 20
-6.293520710059141
 30
0
 40
33.0000000000001
 50
184.9999999999999
 51
234.9999999999998
  0
ARC
  8
1
 62
7
 10
-90
 20
-6.293520710059141
 30
0
 40
42
 50
180
 51
239.9999999999999
  0
ARC
  8
1
 62
7
 10
-76.80774196392599
 20
-25.13401772870594
 30
0
 40
10.00000000000003
 50
266.347356897055
 51
305.0000000000001
  0
ARC
  8
1
 62
7
 10
-79
 20
-25.34607959331677
 30
0
 40
20.00000000000002
 50
259.8479605493233
 51
299.9999999999999
  0
ARC
  8
1
 62
7
 10
-90
 20
-6.293520710059141
 30
0
 40
32.99999999999999
 50
304.9999999999999
 51
354.9999999999999
  0
ARC
  8
1
 62
7
 10
-90
 20
-6.293520710059141
 30
0
 40
42.00000000000002
 50
299.9999999999999
 51
0
  0
ARC
  8
1
 62
7
 10
-80.27977997996402
 20
14.5515583917838
 30
0
 40
10.00000000000005
 50
26.34735689705496
 51
65.0000000000001
  0
ARC
  8
1
 62
7
 10
-90
 20
-6.293520710059141
 30
0
 40
33
 50
65.0000000000002
 51
115.0000000000002
  0
ARC
  8
1
 62
7
 10
-90
 20
-6.293520710059141
 30
0
 40
42.00000000000002
 50
60.00000000000002
 51
120
  0
ARC
  8
1
 62
7
 10
-79
 20
12.75903817319852
 30
0
 40
20.00000000000014
 50
19.84796054932315
 51
60.00000000000003
  0
ARC
  8
1
 62
7
 10
-64.01923788646684
 20
8.706479289940859
 30
0
 40
11.50000000000008
 50
58.2174585872919
 51
109.3795408143583
  0
ARC
  8
1
 62
7
 10
-64.01923788646684
 20
8.706479289940859
 30
0
 40
9.500000000000057
 50
157.3527446096161
 51
262.647255390384
  0
ARC
  8
1
 62
7
 10
-90
 20
-6.293520710059141
 30
0
 40
40.49999999999995
 50
22.28432304409673
 51
37.71567695590323
  0
ARC
  8
1
 62
7
 10
-64.01923788646684
 20
8.706479289940859
 30
0
 40
11.49999999999999
 50
310.6204591856413
 51
1.782541412707728
  0
ARC
  8
1
 62
7
 10
-115.9807621135332
 20
8.706479289940859
 30
0
 40
11.49999999999997
 50
178.2174585872923
 51
229.3795408143584
  0
ARC
  8
1
 62
7
 10
-115.9807621135332
 20
8.706479289940859
 30
0
 40
9.499999999999993
 50
277.3527446096161
 51
22.6472553903837
  0
ARC
  8
1
 62
7
 10
-90
 20
-6.293520710059141
 30
0
 40
40.49999999999999
 50
142.2843230440967
 51
157.7156769559033
  0
ARC
  8
1
 62
7
 10
-115.9807621135332
 20
8.706479289940859
 30
0
 40
11.50000000000006
 50
70.62045918564098
 51
121.7825414127074
  0
ARC
  8
1
 62
7
 10
-90.00000000000011
 20
-36.29352071005914
 30
0
 40
11.50000000000013
 50
298.2174585872927
 51
349.3795408143583
  0
ARC
  8
1
 62
7
 10
-90.00000000000011
 20
-36.29352071005914
 30
0
 40
9.500000000000098
 50
37.35274460961504
 51
142.6472553903838
  0
ARC
  8
1
 62
7
 10
-90
 20
-6.293520710059141
 30
0
 40
40.50000000000006
 50
262.2843230440967
 51
277.7156769559034
  0
ARC
  8
1
 62
7
 10
-90.00000000000011
 20
-36.29352071005914
 30
0
 40
11.49999999999981
 50
190.6204591856417
 51
241.782541412708
  0
ARC
  8
1
 62
7
 10
-90
 20
-6.293520710059141
 30
0
 40
30.00000000000012
 50
181.8901523342856
 51
238.1098476657143
  0
ARC
  8
1
 62
7
 10
-68
 20
-6.293520710059141
 30
0
 40
20
 50
0
 51
40.15203945067684
  0
ARC
  8
1
 62
7
 10
-67.08752194388978
 20
-8.298102793255282
 30
0
 40
9.999999999999826
 50
354.9999999999996
 51
33.65264310294514
  0
ARC
  8
1
 62
7
 10
-103.1922580360742
 20
-25.13401772870594
 30
0
 40
9.999999999999957
 50
235.0000000000002
 51
273.6526431029459
  0
ARC
  8
1
 62
7
 10
-101.0000000000001
 20
-25.34607959331677
 30
0
 40
20.00000000000003
 50
240
 51
280.1520394506769
  0
ARC
  8
1
 62
7
 10
-101
 20
12.75903817319852
 30
0
 40
20.00000000000002
 50
120
 51
160.1520394506768
  0
ARC
  8
1
 62
7
 10
-99.7202200200361
 20
14.55155839178383
 30
0
 40
10.00000000000002
 50
115.0000000000007
 51
153.6526431029452
  0
ARC
  8
1
 62
7
 10
-71.15346043589892
 20
28.98831521806076
 30
0
 40
9.999999999999988
 50
241.8901523342854
 51
289.3795408143588
  0
ARC
  8
1
 62
7
 10
-78.32407862561763
 20
14.67485691099776
 30
0
 40
5.999999999999973
 50
337.3527446096161
 51
60.88941969425557
  0
ARC
  8
1
 62
7
 10
-66.00289161682838
 20
-6.66606499778274
 30
0
 40
5.999999999999978
 50
359.1105803057444
 51
82.64725539038409
  0
ARC
  8
1
 62
7
 10
-50.02176401204315
 20
-7.612856638179068
 30
0
 40
10
 50
130.6204591856414
 51
178.1098476657143
  0
ARC
  8
1
 62
7
 10
-129.9782359879569
 20
-7.612856638179011
 30
0
 40
9.99999999999989
 50
1.890152334285927
 51
49.37954081435871
  0
ARC
  8
1
 62
7
 10
-113.9971083831716
 20
-6.666064997782684
 30
0
 40
5.999999999999982
 50
97.35274460961647
 51
180.8894196942559
  0
ARC
  8
1
 62
7
 10
-101.6759213743823
 20
14.67485691099776
 30
0
 40
6.00000000000008
 50
119.1105803057449
 51
202.6472553903838
  0
ARC
  8
1
 62
7
 10
-108.8465395641011
 20
28.98831521806076
 30
0
 40
9.999999999999954
 50
250.6204591856419
 51
298.1098476657147
  0
ARC
  8
1
 62
7
 10
-68.8683035761442
 20
-40.25602071005913
 30
0
 40
9.999999999999924
 50
121.8901523342858
 51
169.3795408143589
  0
ARC
  8
1
 62
7
 10
-77.67881299121082
 20
-26.88935404339257
 30
0
 40
5.999999999999926
 50
217.3527446096163
 51
300.889419694256
  0
ARC
  8
1
 62
7
 10
-102.3211870087891
 20
-26.8893540433925
 30
0
 40
6.000000000000045
 50
239.1105803057434
 51
322.6472553903831
  0
ARC
  8
1
 62
7
 10
-111.1316964238558
 20
-40.25602071005918
 30
0
 40
10.00000000000009
 50
10.6204591856416
 51
58.10984766571455
  0
ARC
  8
1
 62
7
 10
-55.35176772185919
 20
28.35471156808165
 30
0
 40
4.000000000000042
 50
233.1992112493203
 51
218.2120957866561
  0
ARC
  8
1
 62
7
 10
-63.34672704608279
 20
20.35975224385796
 30
0
 40
7.369579312365617
 50
36.80440955613264
 51
53.19559044386885
  0
ARC
  8
1
 62
7
 10
39.19237925388628
 20
-44.48698724704164
 30
0
 40
4.307662422992794
 50
271.3117937503676
 51
0.2520372571150439
  0
ARC
  8
1
 62
7
 10
39.55917328627091
 20
20.87672510709507
 30
0
 40
3.968861427409282
 50
292.3677493751974
 51
353.185896918341
  0
ARC
  8
1
 62
7
 10
39.19237925388628
 20
31.89994582692337
 30
0
 40
4.307662422992783
 50
359.7479627428851
 51
88.6882062496321
  0
ARC
  8
1
 62
7
 10
39.55917328627086
 20
-33.61299999698412
 30
0
 40
3.968861427409375
 50
359.4402327577733
 51
74.23021821369323
  0
ARC
  8
1
 62
7
 10
4.199999999999953
 20
-46.29352071005914
 30
0
 40
0.5
 50
180
 51
270
  0
ARC
  8
1
 62
7
 10
8.999999999999965
 20
-46.29352071005914
 30
0
 40
0.5
 50
270
 51
0
  0
ARC
  8
1
 62
7
 10
12.4
 20
-27.79352071005914
 30
0
 40
1
 50
0
 51
90
  0
ARC
  8
1
 62
7
 10
12.4
 20
-44.79352071005914
 30
0
 40
1
 50
270
 51
0
  0
ARC
  8
1
 62
7
 10
12.4
 20
17.20647928994086
 30
0
 40
1
 50
0
 51
90
  0
ARC
  8
1
 62
7
 10
2.699999999999953
 20
-43.79352071005914
 30
0
 40
2
 50
180
 51
270
  0
ARC
  8
1
 62
7
 10
7.499999999999965
 20
21.70647928994086
 30
0
 40
1.999999999999999
 50
0
 51
90
  0
ARC
  8
1
 62
7
 10
2.499999999999965
 20
21.70647928994086
 30
0
 40
2.000000000000011
 50
90
 51
180
  0
ARC
  8
1
 62
7
 10
58.90000000000006
 20
30.20647928994087
 30
0
 40
6.000000000000004
 50
90
 51
180
  0
ARC
  8
1
 62
7
 10
58.60979101754511
 20
-35.06554943000842
 30
0
 40
5.71626740876561
 50
112.7375202020006
 51
177.2723483112603
  0
ARC
  8
1
 62
7
 10
58.90000000000006
 20
-42.79352071005914
 30
0
 40
6
 50
180
 51
270
  0
ARC
  8
1
 62
7
 10
90.80000000000004
 20
-45.29314292445348
 30
0
 40
0.5
 50
270
 51
0
  0
ARC
  8
1
 62
7
 10
88.00000000000009
 20
-46.29314292445348
 30
0
 40
0.5
 50
90
 51
180
  0
ARC
  8
1
 62
7
 10
87.00000000000009
 20
-47.29333267042856
 30
0
 40
0.5
 50
270
 51
0
  0
ARC
  8
1
 62
7
 10
81.00000000000009
 20
-47.29333267042856
 30
0
 40
0.5000000000000711
 50
180
 51
270
  0
ARC
  8
1
 62
7
 10
80.00000000000001
 20
-46.29314292445352
 30
0
 40
0.5
 50
0
 51
90
  0
ARC
  8
1
 62
7
 10
78.59999999999998
 20
-45.29314292445352
 30
0
 40
0.5
 50
180
 51
270
  0
ARC
  8
1
 62
7
 10
77.59999999999998
 20
-26.79352071005914
 30
0
 40
0.5
 50
0
 51
90
  0
ARC
  8
1
 62
7
 10
75.80000000000003
 20
-21.79352071005914
 30
0
 40
0.5
 50
0
 51
90
  0
ARC
  8
1
 62
7
 10
71.99999999999996
 20
-20.79352071005914
 30
0
 40
0.4999999999999432
 50
180
 51
270
  0
ARC
  8
1
 62
7
 10
71.99999999999996
 20
8.206479289940859
 30
0
 40
0.5
 50
90
 51
180
  0
ARC
  8
1
 62
7
 10
76.00000000000009
 20
9.206479289940848
 30
0
 40
0.5
 50
270
 51
0
  0
ARC
  8
1
 62
7
 10
77.00000000000009
 20
13.20647928994085
 30
0
 40
0.5
 50
90
 51
180
  0
ARC
  8
1
 62
7
 10
76.80000000000003
 20
-25.79352071005914
 30
0
 40
0.5
 50
180
 51
270
  0
ARC
  8
1
 62
7
 10
77.80000000000004
 20
14.20647928994085
 30
0
 40
0.5
 50
270
 51
0
  0
ARC
  8
1
 62
7
 10
78.80000000000004
 20
23.20646875949597
 30
0
 40
0.5
 50
90
 51
180
  0
ARC
  8
1
 62
7
 10
87.00000000000009
 20
23.20646875949597
 30
0
 40
0.5
 50
0
 51
90
  0
ARC
  8
1
 62
7
 10
88.00000000000009
 20
14.20647928994085
 30
0
 40
0.5000000000000711
 50
180
 51
270
  0
ARC
  8
1
 62
7
 10
91.00000000000009
 20
13.20647928994085
 30
0
 40
0.499999999999929
 50
0
 51
90
  0
ARC
  8
1
 62
7
 10
58.60979101754511
 20
22.47850800988998
 30
0
 40
5.716267408765557
 50
182.7276516887381
 51
247.2624797979972
  0
ARC
  8
1
 62
7
 10
2.300000000000033
 20
195.7064792899409
 30
0
 40
2
 50
90
 51
180
  0
ARC
  8
1
 62
7
 10
7.300000000000033
 20
195.7064792899409
 30
0
 40
2.000000000000014
 50
0
 51
90
  0
ARC
  8
1
 62
7
 10
2.50000000000005
 20
130.2064792899409
 30
0
 40
2
 50
180
 51
270
  0
ARC
  8
1
 62
7
 10
12.20000000000007
 20
191.2064792899409
 30
0
 40
1
 50
0
 51
90
  0
ARC
  8
1
 62
7
 10
12.20000000000007
 20
129.2064792899409
 30
0
 40
1
 50
270
 51
0
  0
ARC
  8
1
 62
7
 10
12.20000000000007
 20
146.2064792899409
 30
0
 40
1
 50
0
 51
90
  0
ARC
  8
1
 62
7
 10
8.800000000000047
 20
127.7064792899409
 30
0
 40
0.5
 50
270
 51
0
  0
ARC
  8
1
 62
7
 10
4.00000000000005
 20
127.7064792899409
 30
0
 40
0.4999999999999996
 50
180
 51
270
  0
ARC
  8
1
 62
7
 10
12.20000000000007
 20
174.2064792899409
 30
0
 40
1
 50
270
 51
0
  0
ARC
  8
1
 62
7
 10
38.8923792538864
 20
129.8186135817951
 30
0
 40
4.616528816016118
 50
267.4998259682869
 51
356.4400694750352
  0
ARC
  8
1
 62
7
 10
38.8923792538864
 20
205.5943449980867
 30
0
 40
4.616528816016315
 50
3.559930524964778
 51
92.500174031713
  0
ARC
  8
1
 62
7
 10
90.80000000000004
 20
187.2064792899409
 30
0
 40
0.5
 50
0
 51
90
  0
ARC
  8
1
 62
7
 10
87.80000000000004
 20
188.2064792899409
 30
0
 40
0.5
 50
180
 51
270
  0
ARC
  8
1
 62
7
 10
76.80000000000004
 20
187.2064792899409
 30
0
 40
0.5
 50
90
 51
180
  0
ARC
  8
1
 62
7
 10
77.60000000000005
 20
188.2064792899409
 30
0
 40
0.5
 50
270
 51
0
  0
ARC
  8
1
 62
7
 10
77.60000000000005
 20
147.2064792899409
 30
0
 40
0.5
 50
0
 51
90
  0
ARC
  8
1
 62
7
 10
58.90000000000006
 20
131.2064792899409
 30
0
 40
6
 50
180
 51
270
  0
ARC
  8
1
 62
7
 10
58.90000000000006
 20
204.2064792899409
 30
0
 40
6.000000000000004
 50
92.38801546326917
 51
180
  0
ARC
  8
1
 62
7
 10
90.60000000000002
 20
128.7068570755465
 30
0
 40
0.4999999999999147
 50
270
 51
0
  0
ARC
  8
1
 62
7
 10
87.80000000000004
 20
127.7068570755466
 30
0
 40
0.5
 50
90
 51
180
  0
ARC
  8
1
 62
7
 10
86.80000000000004
 20
126.7066673295715
 30
0
 40
0.5
 50
270
 51
0
  0
ARC
  8
1
 62
7
 10
80.80000000000004
 20
126.7066673295715
 30
0
 40
0.5
 50
180
 51
270
  0
ARC
  8
1
 62
7
 10
79.80000000000004
 20
127.7068570755466
 30
0
 40
0.5
 50
0
 51
90
  0
ARC
  8
1
 62
7
 10
78.60000000000005
 20
128.7068570755465
 30
0
 40
0.5
 50
180
 51
270
  0
ARC
  8
1
 62
7
 10
76.80000000000004
 20
148.2064792899409
 30
0
 40
0.5
 50
180
 51
270
  0
ARC
  8
1
 62
7
 10
78.60000000000005
 20
197.206468759496
 30
0
 40
0.5
 50
90
 51
180
  0
ARC
  8
1
 62
7
 10
86.80000000000004
 20
197.206468759496
 30
0
 40
0.5
 50
0
 51
90
  0
CIRCLE
  8
1
 62
7
 10
181.5
 20
-6.293520710059153
 30
0
 40
42.75
  0
CIRCLE
  8
1
 62
7
 10
181.5
 20
-6.293520710059153
 30
0
 40
19.99999999999989
  0
CIRCLE
  8
1
 62
7
 10
181.5
 20
31.20647928994086
 30
0
 40
3.599999999999909
  0
CIRCLE
  8
1
 62
7
 10
149.0240473580834
 20
-25.04352071005915
 30
0
 40
3.599999999999994
  0
CIRCLE
  8
1
 62
7
 10
213.9759526419163
 20
-25.04352071005915
 30
0
 40
3.599999999999994
  0
CIRCLE
  8
1
 62
7
 10
155.5192378864668
 20
8.706479289940859
 30
0
 40
7.5
  0
CIRCLE
  8
1
 62
7
 10
155.5192378864668
 20
8.706479289940859
 30
0
 40
2
  0
CIRCLE
  8
1
 62
7
 10
155.5192378864668
 20
8.706479289940859
 30
0
 40
5.499999999999886
  0
CIRCLE
  8
1
 62
7
 10
181.5
 20
-36.29352071005917
 30
0
 40
7.5
  0
CIRCLE
  8
1
 62
7
 10
181.5
 20
-36.29352071005917
 30
0
 40
2
  0
CIRCLE
  8
1
 62
7
 10
181.5
 20
-36.29352071005917
 30
0
 40
5.499999999999886
  0
CIRCLE
  8
1
 62
7
 10
207.4807621135332
 20
8.706479289940887
 30
0
 40
7.500000000000114
  0
CIRCLE
  8
1
 62
7
 10
207.4807621135332
 20
8.706479289940887
 30
0
 40
2
  0
CIRCLE
  8
1
 62
7
 10
207.4807621135332
 20
8.706479289940887
 30
0
 40
5.5
  0
CIRCLE
  8
1
 62
7
 10
181.5
 20
-6.293520710059153
 30
0
 40
15
  0
CIRCLE
  8
1
 62
7
 10
-90
 20
-6.293520710059141
 30
0
 40
42.75
  0
CIRCLE
  8
1
 62
7
 10
-90
 20
-6.293520710059141
 30
0
 40
10
  0
CIRCLE
  8
1
 62
7
 10
-90
 20
-6.293520710059141
 30
0
 40
7.5
  0
CIRCLE
  8
1
 62
7
 10
-90
 20
-6.293520710059141
 30
0
 40
45
  0
CIRCLE
  8
1
 62
7
 10
-90
 20
31.20647928994086
 30
0
 40
3.599999999999909
  0
CIRCLE
  8
1
 62
7
 10
-122.4759526419165
 20
-25.04352071005911
 30
0
 40
3.600000000000009
  0
CIRCLE
  8
1
 62
7
 10
-57.52404735808364
 20
-25.04352071005914
 30
0
 40
3.60000000000003
  0
CIRCLE
  8
1
 62
7
 10
-64.01923788646684
 20
8.706479289940859
 30
0
 40
7.5
  0
CIRCLE
  8
1
 62
7
 10
-64.01923788646684
 20
8.706479289940859
 30
0
 40
5.5
  0
CIRCLE
  8
1
 62
7
 10
-64.01923788646684
 20
8.706479289940859
 30
0
 40
2
  0
CIRCLE
  8
1
 62
7
 10
-115.9807621135332
 20
8.706479289940859
 30
0
 40
7.5
  0
CIRCLE
  8
1
 62
7
 10
-115.9807621135332
 20
8.706479289940859
 30
0
 40
5.5
  0
CIRCLE
  8
1
 62
7
 10
-115.9807621135332
 20
8.706479289940859
 30
0
 40
2
  0
CIRCLE
  8
1
 62
7
 10
-90.00000000000011
 20
-36.29352071005914
 30
0
 40
7.5
  0
CIRCLE
  8
1
 62
7
 10
-90.00000000000011
 20
-36.29352071005914
 30
0
 40
5.5
  0
CIRCLE
  8
1
 62
7
 10
-90.00000000000011
 20
-36.29352071005914
 30
0
 40
2
  0
CIRCLE
  8
1
 62
7
 10
-90
 20
-6.293520710059141
 30
0
 40
16
  0
CIRCLE
  8
1
 62
7
 10
-90
 20
-6.293520710059141
 30
0
 40
13.5
  0
CIRCLE
  8
1
 62
7
 10
-78
 20
14.49108898076739
 30
0
 40
2.399999999999977
  0
CIRCLE
  8
1
 62
3
 10
-78
 20
14.49108898076739
 30
0
 40
3
  0
CIRCLE
  8
1
 62
7
 10
-102
 20
14.49108898076739
 30
0
 40
2.399999999999977
  0
CIRCLE
  8
1
 62
3
 10
-102
 20
14.49108898076739
 30
0
 40
3
  0
CIRCLE
  8
1
 62
7
 10
-114
 20
-6.293520710059141
 30
0
 40
2.400000000000006
  0
CIRCLE
  8
1
 62
3
 10
-114
 20
-6.293520710059141
 30
0
 40
3
  0
CIRCLE
  8
1
 62
7
 10
-102
 20
-27.07813040088567
 30
0
 40
2.399999999999977
  0
CIRCLE
  8
1
 62
3
 10
-102
 20
-27.07813040088567
 30
0
 40
3
  0
CIRCLE
  8
1
 62
7
 10
-78
 20
-27.07813040088567
 30
0
 40
2.399999999999977
  0
CIRCLE
  8
1
 62
3
 10
-78
 20
-27.07813040088567
 30
0
 40
3
  0
CIRCLE
  8
1
 62
7
 10
-66
 20
-6.293520710059141
 30
0
 40
2.399999999999977
  0
CIRCLE
  8
1
 62
3
 10
-66
 20
-6.293520710059141
 30
0
 40
3.000000000000107
  0
CIRCLE
  8
1
 62
7
 10
146.8517677218592
 20
-40.94175298819992
 30
0
 40
4
  0
CIRCLE
  8
1
 62
7
 10
146.8517677218592
 20
28.35471156808165
 30
0
 40
4
  0
CIRCLE
  8
1
 62
7
 10
216.1482322781408
 20
28.35471156808165
 30
0
 40
4
  0
CIRCLE
  8
1
 62
7
 10
216.1482322781408
 20
-40.94175298819992
 30
0
 40
4
  0
CIRCLE
  8
1
 62
7
 10
181.5
 20
58.70647928994084
 30
0
 40
4
  0
CIRCLE
  8
1
 62
3
 10
-124.6482322781408
 20
-40.94175298819992
 30
0
 40
1.899999999999992
  0
CIRCLE
  8
1
 62
7
 10
-124.6482322781408
 20
-40.94175298819992
 30
0
 40
2.5
  0
CIRCLE
  8
1
 62
7
 10
-124.6482322781408
 20
-40.94175298819992
 30
0
 40
4
  0
CIRCLE
  8
1
 62
3
 10
-124.6482322781408
 20
28.35471156808165
 30
0
 40
1.899999999999992
  0
CIRCLE
  8
1
 62
7
 10
-124.6482322781408
 20
28.35471156808165
 30
0
 40
2.5
  0
CIRCLE
  8
1
 62
7
 10
-124.6482322781408
 20
28.35471156808165
 30
0
 40
4
  0
CIRCLE
  8
1
 62
3
 10
-55.35176772185919
 20
-40.94175298819992
 30
0
 40
1.900000000000013
  0
CIRCLE
  8
1
 62
7
 10
-55.35176772185919
 20
-40.94175298819992
 30
0
 40
2.5
  0
CIRCLE
  8
1
 62
7
 10
-55.35176772185919
 20
-40.94175298819992
 30
0
 40
4
  0
CIRCLE
  8
1
 62
3
 10
-55.35176772185919
 20
28.35471156808165
 30
0
 40
1.900000000000013
  0
CIRCLE
  8
1
 62
7
 10
-55.35176772185919
 20
28.35471156808165
 30
0
 40
2.5
  0
CIRCLE
  8
1
 62
7
 10
-90.00000000000001
 20
58.70647928994084
 30
0
 40
4
  0
CIRCLE
  8
1
 62
7
 10
41.09999999999999
 20
12.95647928994086
 30
0
 40
2.549999999999955
  0
CIRCLE
  8
1
 62
7
 10
41.09999999999999
 20
-25.54352071005914
 30
0
 40
2.549999999999955
  0
CIRCLE
  8
1
 62
7
 10
63.70000000000001
 20
-25.54352071005914
 30
0
 40
2.549999999999947
  0
CIRCLE
  8
1
 62
7
 10
63.70000000000001
 20
12.95647928994086
 30
0
 40
2.549999999999947
  0
CIRCLE
  8
1
 62
7
 10
59.90000000000002
 20
166.4564792899409
 30
0
 40
1.25
  0
CIRCLE
  8
1
 62
7
 10
59.90000000000002
 20
168.9564792899409
 30
0
 40
1.25
  0
CIRCLE
  8
1
 62
7
 10
35.30000000000003
 20
168.9564792899409
 30
0
 40
1.25
  0
CIRCLE
  8
1
 62
7
 10
35.30000000000003
 20
166.4564792899409
 30
0
 40
1.25
  0
TEXT
  8
1
 62
7
 10
-102.1535465331428
 20
191.4175195607448
 30
0
 40
5
  1
DC2406
 41
0.9
  7
SIMPLEX
  0
TEXT
  8
1
 62
7
 10
-101.356018783395
 20
200.6551583094838
 30
0
 40
5
  1
TMAT 1.2
 41
0.9
  7
SIMPLEX
  0
ENDSEC
  0
EOF
