  0
SECTION
  2
HEADER
  9
$ACADVER
  1
AC1009
  9
$INSBASE
 10
0
 20
0
  9
$EXTMIN
 10
-202.9425917159762
 20
-83.50760946745561
  9
$EXTMAX
 10
337.2574082840237
 20
320.4923905325443
  9
$LIMMIN
 10
-202.9425917159762
 20
-83.50760946745561
  9
$LIMMAX
 10
337.2574082840237
 20
320.4923905325443
  9
$VIEWCTR
 10
10
 20
10
  9
$VIEWSIZE
 40
10
  9
$SNAPMODE
 70
0
  9
$SNAPUNIT
 10
1
 20
1
  9
$SNAPBASE
 10
0
 20
0
  9
$SNAPANG
 50
0
  9
$SNAPSTYLE
 70
0
  9
$SNAPISOPAIR
 70
0
  9
$GRIDMODE
 70
0
  9
$GRIDUNIT
 10
0
 20
0
  9
$ORTHOMODE
 70
0
  9
$REGENMODE
 70
1
  9
$FILLMODE
 70
1
  9
$QTEXTMODE
 70
0
  9
$DRAGMODE
 70
2
  9
$LTSCALE
 40
1
  9
$OSMODE
 70
0
  9
$ATTMODE
 70
1
  9
$TEXTSIZE
 40
3.5
  9
$TRACEWID
 40
0.5
  9
$TEXTSTYLE
  7
STANDARD
  9
$CLAYER
  8
0
  9
$CELTYPE
  6
BYLAYER
  9
$CECOLOR
 62
256
  9
$DIMSCALE
 40
1
  9
$DIMASZ
 40
0.18
  9
$DIMEXO
 40
0.0625
  9
$DIMDLI
 40
0.38
  9
$DIMRND
 40
0
  9
$DIMDLE
 40
0
  9
$DIMEXE
 40
0.18
  9
$DIMTP
 40
0
  9
$DIMTM
 40
0
  9
$DIMTXT
 40
0.18
  9
$DIMCEN
 40
0.09
  9
$DIMTSZ
 40
0
  9
$DIMTOL
 70
0
  9
$DIMLIM
 70
0
  9
$DIMTIH
 70
1
  9
$DIMTOH
 70
1
  9
$DIMSE1
 70
0
  9
$DIMSE2
 70
0
  9
$DIMTAD
 70
0
  9
$DIMZIN
 70
0
  9
$DIMBLK
  1

  9
$DIMASO
 70
1
  9
$DIMSHO
 70
1
  9
$DIMPOST
  1

  9
$DIMAPOST
  1

  9
$DIMALT
 70
0
  9
$DIMALTD
 70
2
  9
$DIMALTF
 40
25.4
  9
$DIMLFAC
 40
1
  9
$DIMTOFL
 70
0
  9
$DIMTVP
 40
0
  9
$DIMTIX
 70
0
  9
$DIMSOXD
 70
0
  9
$DIMSAH
 70
0
  9
$DIMBLK1
  1

  9
$DIMBLK2
  1

  9
$DIMSTYLE
  2
*UNNAMED
  9
$DIMCLRD
 70
0
  9
$DIMCLRE
 70
0
  9
$DIMCLRT
 70
0
  9
$DIMTFAC
 40
1
  9
$DIMGAP
 40
0.09
  9
$LUNITS
 70
2
  9
$LUPREC
 70
4
  9
$AXISMODE
 70
0
  9
$AXISUNIT
 10
0
 20
0
  9
$SKETCHINC
 40
0.1
  9
$FILLETRAD
 40
2
  9
$AUNITS
 70
0
  9
$AUPREC
 70
0
  9
$MENU
  1
ACAD
  9
$ELEVATION
 40
0
  9
$THICKNESS
 40
0
  9
$VIEWDIR
 10
0
 20
0
 30
1
  9
$LIMCHECK
 70
0
  9
$BLIPMODE
 70
1
  9
$CHAMFERA
 40
0
  9
$CHAMFERB
 40
0
  9
$FASTZOOM
 70
1
  9
$SKPOLY
 70
0
  9
$ANGBASE
 50
0
  9
$ANGDIR
 70
0
  9
$PDMODE
 70
0
  9
$PDSIZE
 40
0
  9
$PLINEWID
 40
0
  9
$COORDS
 70
2
  0
ENDSEC
  0
SECTION
  2
TABLES
  0
TABLE
  2
DIMSTYLE
 70
0
  0
ENDTAB
  0
TABLE
  2
LTYPE
 70
9
  0
LTYPE
  2
CONTINUOUS
 70
64
  3
Solid line
 72
65
 73
0
 40
0
  0
LTYPE
  2
BORDER
 70
64
  3
__ __ . __ __ .
 72
65
 73
6
 40
24.87763157894737
 49
7.107894736842105
 49
-3.553947368421052
 49
7.107894736842105
 49
-3.553947368421052
 49
0
 49
-3.553947368421052
  0
LTYPE
  2
CENTER
 70
64
  3
____ _ ____ _
 72
65
 73
4
 40
28.43157894736842
 49
17.76973684210526
 49
-3.553947368421052
 49
3.553947368421052
 49
-3.553947368421052
  0
LTYPE
  2
DASHDOT
 70
64
  3
__ . __ . __ .
 72
65
 73
4
 40
14.21578947368421
 49
7.107894736842105
 49
-3.553947368421052
 49
0
 49
-3.553947368421052
  0
LTYPE
  2
DASHED
 70
64
  3
__ __ __ __ __
 72
65
 73
2
 40
10.66184210526316
 49
7.107894736842105
 49
-3.553947368421052
  0
LTYPE
  2
DIVIDE
 70
64
  3
__ . . __ . . 
 72
65
 73
6
 40
17.76973684210526
 49
7.107894736842105
 49
-3.553947368421052
 49
0
 49
-3.553947368421052
 49
0
 49
-3.553947368421052
  0
LTYPE
  2
DOT
 70
64
  3
..............
 72
65
 73
4
 40
7.107894736842105
 49
0
 49
-3.553947368421052
 49
0
 49
-3.553947368421052
  0
LTYPE
  2
HIDDEN
 70
64
  3
_ _ _ _ _ _ _
 72
65
 73
2
 40
5.330921052631578
 49
3.553947368421052
 49
-1.776973684210526
  0
LTYPE
  2
PHANTOM
 70
64
  3
_____ _ _ _____ _ _ 
 72
65
 73
6
 40
35.53947368421052
 49
17.76973684210526
 49
-3.553947368421052
 49
3.553947368421052
 49
-3.553947368421052
 49
3.553947368421052
 49
-3.553947368421052
  0
ENDTAB
  0
TABLE
  2
LAYER
 70
3
  0
LAYER
  2
1
 70
0
 62
7
  6
CONTINUOUS
  0
LAYER
  2
0
 70
0
 62
7
  6
CONTINUOUS
  0
ENDTAB
  0
TABLE
  2
STYLE
 70
4
  0
STYLE
  2
STANDARD
 70
0
 40
0
 41
1
 50
0
 71
0
 42
3.5
  3
txt
  4

  0
STYLE
  2
SIMPLEX
 70
0
 40
0
 41
1
 50
0
 71
0
 42
3.5
  3
simplex
  4

  0
STYLE
  2
COMPLEX
 70
0
 40
0
 41
1
 50
0
 71
0
 42
3.5
  3
complex
  4

  0
STYLE
  2
ITALIC
 70
0
 40
0
 41
1
 50
0
 71
0
 42
3.5
  3
italic
  4

  0
ENDTAB
  0
TABLE
  2
VIEW
 70
0
  0
ENDTAB
  0
ENDSEC
  0
SECTION
  2
BLOCKS
  0
ENDSEC
  0
SECTION
  2
ENTITIES
  0
LINE
  8
1
 62
7
 10
91.78787745123012
 20
76.52615860712946
 30
0
 11
89.18787745122998
 21
76.52615860712946
 31
0
  0
LINE
  8
1
 62
7
 10
78.95740828402384
 20
12.9923905325444
 30
0
 11
78.95740828402384
 21
107.4923905325444
 31
0
  0
LINE
  8
1
 62
7
 10
70.05740828402379
 20
233.4923905325443
 30
0
 11
78.05740828402381
 21
233.4923905325443
 31
0
  0
LINE
  8
1
 62
3
  6
DASHDOT
 10
66.53708701558023
 20
249.4923905325443
 30
0
 11
82.56146822762619
 21
249.4923905325443
 31
0
  0
LINE
  8
1
 62
7
 10
70.05740828402379
 20
265.4923905325442
 30
0
 11
78.05740828402381
 21
265.4923905325442
 31
0
  0
LINE
  8
1
 62
7
 10
67.55740828402379
 20
311.9923905325443
 30
0
 11
81.45740828402379
 21
311.9923905325443
 31
0
  0
LINE
  8
1
 62
7
 10
10.95740828402368
 20
217.4923517083712
 30
0
 11
9.957408284023714
 21
217.4923517083712
 31
0
  0
LINE
  8
1
 62
7
 10
11.95740828402381
 20
215.4923905325443
 30
0
 11
11.95740828402368
 21
216.4923517083712
 31
0
  0
LINE
  8
1
 62
7
 10
10.15740828402369
 20
214.4923905325443
 30
0
 11
10.95740828402368
 21
214.4923905325443
 31
0
  0
LINE
  8
1
 62
7
 10
109.5574082840239
 20
181.8923905325443
 30
0
 11
104.6574082840239
 21
181.8923905325443
 31
0
  0
LINE
  8
1
 62
7
 10
31.55740828402366
 20
181.8923905325443
 30
0
 11
31.55740828402379
 21
317.0923905325443
 31
0
  0
LINE
  8
1
 62
7
 10
31.55740828402366
 20
181.8923905325443
 30
0
 11
36.45740828402387
 21
181.8923905325443
 31
0
  0
LINE
  8
1
 62
7
 10
109.5574082840239
 20
317.0923905325443
 30
0
 11
104.6574082840239
 21
317.0923905325443
 31
0
  0
LINE
  8
1
 62
7
 10
104.6574082840239
 20
317.0923905325443
 30
0
 11
104.6574082840239
 21
181.8923905325443
 31
0
  0
LINE
  8
1
 62
7
 10
36.457408284024
 20
317.0923905325443
 30
0
 11
36.45740828402387
 21
181.8923905325443
 31
0
  0
LINE
  8
1
 62
7
 10
36.457408284024
 20
317.0923905325443
 30
0
 11
31.55740828402379
 21
317.0923905325443
 31
0
  0
LINE
  8
1
 62
7
 10
69.05740828402379
 20
186.9923905325443
 30
0
 11
69.05740828402379
 21
311.9923905325443
 31
0
  0
LINE
  8
1
 62
7
 10
40.9781342261874
 20
178.4923905325444
 30
0
 11
38.95740828402376
 21
181.9923905325444
 31
0
  0
LINE
  8
1
 62
7
 10
38.95740828402376
 20
181.9923905325444
 30
0
 11
36.95740828402377
 21
181.9923905325444
 31
0
  0
LINE
  8
1
 62
7
 10
52.95740828402379
 20
320.4923905325443
 30
0
 11
52.95740828402379
 21
178.4923905325444
 31
0
  0
LINE
  8
1
 62
7
 10
52.95740828402379
 20
178.4923905325444
 30
0
 11
40.9781342261874
 21
178.4923905325444
 31
0
  0
LINE
  8
1
 62
7
 10
40.9781342261874
 20
320.4923905325443
 30
0
 11
52.95740828402379
 21
320.4923905325443
 31
0
  0
LINE
  8
1
 62
7
 10
36.95740828402377
 20
316.9923905325443
 30
0
 11
38.95740828402377
 21
316.9923905325443
 31
0
  0
LINE
  8
1
 62
7
 10
38.95740828402377
 20
316.9923905325443
 30
0
 11
40.9781342261874
 21
320.4923905325443
 31
0
  0
LINE
  8
1
 62
7
 10
36.95740828402377
 20
316.9923905325443
 30
0
 11
36.95740828402377
 21
181.9923905325444
 31
0
  0
LINE
  8
1
 62
7
 10
38.95740828402376
 20
181.9923905325444
 30
0
 11
38.95740828402377
 21
316.9923905325443
 31
0
  0
LINE
  8
1
 62
7
 10
40.9781342261874
 20
320.4923905325443
 30
0
 11
40.9781342261874
 21
178.4923905325444
 31
0
  0
LINE
  8
1
 62
7
 10
30.75740828402379
 20
296.9923905325443
 30
0
 11
31.55740828402366
 21
296.9923905325443
 31
0
  0
LINE
  8
1
 62
7
 10
30.75740828402366
 20
182.9556647953017
 30
0
 11
30.75740828402379
 21
296.9923905325443
 31
0
  0
LINE
  8
1
 62
7
 10
27.75740828402379
 20
305.4923905325443
 30
0
 11
27.75740828402379
 21
314.4923905325443
 31
0
  0
LINE
  8
1
 62
7
 10
28.25740828402379
 20
304.9923905325443
 30
0
 11
30.55740828402379
 21
304.9923905325443
 31
0
  0
LINE
  8
1
 62
7
 10
28.25740828402366
 20
314.9923905325443
 30
0
 11
30.55740828402366
 21
314.9923905325443
 31
0
  0
LINE
  8
1
 62
7
 10
30.55740828402366
 20
300.1096836761867
 30
0
 11
30.55740828402366
 21
315.9923905325443
 31
0
  0
LINE
  8
1
 62
7
 10
30.55740828402366
 20
315.9923905325443
 30
0
 11
31.55740828402366
 21
315.9923905325443
 31
0
  0
LINE
  8
1
 62
7
 10
29.85740828402382
 20
304.9923905325443
 30
0
 11
29.85740828402369
 21
314.9923905325443
 31
0
  0
LINE
  8
1
 62
7
 10
27.75740828402379
 20
314.4923905325443
 30
0
 11
28.25740828402366
 21
314.9923905325443
 31
0
  0
LINE
  8
1
 62
7
 10
27.75740828402379
 20
305.4923905325443
 30
0
 11
28.25740828402379
 21
304.9923905325443
 31
0
  0
LINE
  8
1
 62
7
 10
30.75740828402379
 20
296.9923905325443
 30
0
 11
31.55740828402366
 21
299.9780311785993
 31
0
  0
LINE
  8
1
 62
7
 10
29.75740828402379
 20
297.1240430301317
 30
0
 11
30.55740828402366
 21
300.1096836761867
 31
0
  0
LINE
  8
1
 62
7
 10
29.75740828402366
 20
182.9556647953017
 30
0
 11
30.75740828402366
 21
182.9556647953017
 31
0
  0
LINE
  8
1
 62
7
 10
28.6574082840237
 20
208.9923905325443
 30
0
 11
29.75740828402366
 21
208.9923905325443
 31
0
  0
LINE
  8
1
 62
7
 10
28.6574082840237
 20
194.9923905325443
 30
0
 11
29.75740828402366
 21
194.9923905325443
 31
0
  0
LINE
  8
1
 62
7
 10
28.6574082840237
 20
190.4923905325443
 30
0
 11
28.6574082840237
 21
213.4923905325443
 31
0
  0
LINE
  8
1
 62
7
 10
23.6574082840237
 20
189.4923905325443
 30
0
 11
27.6574082840237
 21
189.4923905325443
 31
0
  0
LINE
  8
1
 62
7
 10
23.1574082840237
 20
187.9923905325443
 30
0
 11
23.1574082840237
 21
214.4923905325443
 31
0
  0
LINE
  8
1
 62
7
 10
14.65740828402383
 20
187.4923905325443
 30
0
 11
22.6574082840237
 21
187.4923905325443
 31
0
  0
LINE
  8
1
 62
7
 10
12.15740828402383
 20
189.4923905325443
 30
0
 11
13.65740828402383
 21
189.4923905325443
 31
0
  0
LINE
  8
1
 62
7
 10
23.6574082840237
 20
214.4923905325443
 30
0
 11
27.6574082840237
 21
214.4923905325443
 31
0
  0
LINE
  8
1
 62
7
 10
10.1574082840237
 20
217.4923517083712
 30
0
 11
10.1574082840237
 21
191.4923905325443
 31
0
  0
LINE
  8
1
 62
7
 10
9.957408284023842
 20
290.4923905325443
 30
0
 11
9.957408284023714
 21
217.4923517083712
 31
0
  0
LINE
  8
1
 62
7
 10
22.1574082840237
 20
292.4923905325443
 30
0
 11
11.95740828402384
 21
292.4923905325443
 31
0
  0
LINE
  8
1
 62
7
 10
27.6574082840237
 20
285.7423905325443
 30
0
 11
23.1574082840237
 21
285.7423905325443
 31
0
  0
LINE
  8
1
 62
7
 10
28.6574082840237
 20
261.7423905325443
 30
0
 11
28.65740828402383
 21
284.7423905325443
 31
0
  0
LINE
  8
1
 62
7
 10
29.75740828402366
 20
280.2423905325443
 30
0
 11
28.6574082840237
 21
280.2423905325443
 31
0
  0
LINE
  8
1
 62
7
 10
28.6574082840237
 20
266.2423905325443
 30
0
 11
29.75740828402366
 21
266.2423905325443
 31
0
  0
LINE
  8
1
 62
3
  6
DASHDOT
 10
4.826403591111641
 20
249.4923905325443
 30
0
 11
9.957408284023714
 21
249.4923905325443
 31
0
  0
LINE
  8
1
 62
7
 10
31.55740828402366
 20
201.9923905325443
 30
0
 11
30.75740828402366
 21
201.9923905325443
 31
0
  0
LINE
  8
1
 62
7
 10
23.1574082840237
 20
214.9923905325443
 30
0
 11
23.1574082840237
 21
291.4923905325443
 31
0
  0
LINE
  8
1
 62
7
 10
27.6574082840237
 20
260.7423905325443
 30
0
 11
23.1574082840237
 21
260.7423905325443
 31
0
  0
LINE
  8
1
 62
7
 10
15.15740828402383
 20
288.7255305901086
 30
0
 11
23.15740828402383
 21
288.7255305901086
 31
0
  0
LINE
  8
1
 62
7
 10
14.1574082840237
 20
248.2469062570329
 30
0
 11
14.1574082840237
 21
287.7255305901086
 31
0
  0
LINE
  8
1
 62
7
 10
11.15740828402383
 20
285.7423905325443
 30
0
 11
14.15740828402383
 21
285.7423905325443
 31
0
  0
LINE
  8
1
 62
7
 10
10.1574082840237
 20
248.2469062570329
 30
0
 11
10.15740828402383
 21
284.7423905325443
 31
0
  0
LINE
  8
1
 62
7
 10
10.1574082840237
 20
248.2469062570329
 30
0
 11
9.957408284023714
 21
248.2469062570329
 31
0
  0
LINE
  8
1
 62
7
 10
29.75740828402366
 20
233.4923905325443
 30
0
 11
23.1574082840237
 21
233.4923905325443
 31
0
  0
LINE
  8
1
 62
7
 10
13.15740828402383
 20
210.9006972356
 30
0
 11
10.1574082840237
 21
210.9006972356
 31
0
  0
LINE
  8
1
 62
7
 10
112.7574082840238
 20
214.4923905325443
 30
0
 11
115.7574082840238
 21
214.4923905325443
 31
0
  0
LINE
  8
1
 62
7
 10
116.2574082840238
 20
291.9923905325442
 30
0
 11
116.2574082840238
 21
234.3988740992071
 31
0
  0
LINE
  8
1
 62
7
 10
112.2574082840238
 20
240.2579112394959
 30
0
 11
112.2574082840238
 21
224.0065692537939
 31
0
  0
LINE
  8
1
 62
7
 10
125.2574082840238
 20
291.4923905325442
 30
0
 11
125.2574082840238
 21
187.4923905325443
 31
0
  0
LINE
  8
1
 62
7
 10
125.7574082840238
 20
260.7561210511086
 30
0
 11
130.4574082840238
 21
260.7561210511086
 31
0
  0
LINE
  8
1
 62
7
 10
112.7574082840238
 20
260.7561210511086
 30
0
 11
115.7574082840238
 21
260.7561210511086
 31
0
  0
LINE
  8
1
 62
7
 10
130.9574082840238
 20
288.217130786519
 30
0
 11
130.9574082840238
 21
221.9923905325443
 31
0
  0
LINE
  8
1
 62
7
 10
125.7574082840238
 20
288.717130786519
 30
0
 11
130.4574082840238
 21
288.717130786519
 31
0
  0
LINE
  8
1
 62
7
 10
112.7574082840238
 20
288.717130786519
 30
0
 11
115.7574082840238
 21
288.717130786519
 31
0
  0
LINE
  8
1
 62
7
 10
110.3574082840239
 20
296.9923905325443
 30
0
 11
110.3574082840239
 21
182.9556647953017
 31
0
  0
LINE
  8
1
 62
7
 10
111.3574082840239
 20
297.1240430301317
 30
0
 11
111.3574082840239
 21
182.9556647953017
 31
0
  0
LINE
  8
1
 62
7
 10
110.3574082840239
 20
182.9556647953017
 30
0
 11
111.3574082840239
 21
182.9556647953017
 31
0
  0
LINE
  8
1
 62
7
 10
110.5574082840239
 20
300.1096836761867
 30
0
 11
111.3574082840239
 21
297.1240430301317
 31
0
  0
LINE
  8
1
 62
7
 10
109.5574082840239
 20
299.9780311785993
 30
0
 11
110.3574082840239
 21
296.9923905325443
 31
0
  0
LINE
  8
1
 62
7
 10
110.5574082840239
 20
315.9923905325443
 30
0
 11
110.5574082840239
 21
300.1096836761867
 31
0
  0
LINE
  8
1
 62
7
 10
112.8574082840239
 20
304.9923905325443
 30
0
 11
113.3574082840239
 21
305.4923905325443
 31
0
  0
LINE
  8
1
 62
7
 10
112.8574082840239
 20
314.9923905325443
 30
0
 11
113.3574082840239
 21
314.4923905325443
 31
0
  0
LINE
  8
1
 62
7
 10
111.2574082840239
 20
314.9923905325443
 30
0
 11
111.2574082840239
 21
304.9923905325443
 31
0
  0
LINE
  8
1
 62
7
 10
109.5574082840239
 20
315.9923905325443
 30
0
 11
110.5574082840239
 21
315.9923905325443
 31
0
  0
LINE
  8
1
 62
7
 10
110.5574082840239
 20
314.9923905325443
 30
0
 11
112.8574082840239
 21
314.9923905325443
 31
0
  0
LINE
  8
1
 62
7
 10
110.5574082840239
 20
304.9923905325443
 30
0
 11
112.8574082840239
 21
304.9923905325443
 31
0
  0
LINE
  8
1
 62
7
 10
113.3574082840239
 20
314.4923905325443
 30
0
 11
113.3574082840239
 21
305.4923905325443
 31
0
  0
LINE
  8
1
 62
7
 10
87.35740828402382
 20
181.9923905325443
 30
0
 11
104.1574082840239
 21
181.9923905325443
 31
0
  0
LINE
  8
1
 62
7
 10
81.4574082840239
 20
249.4923905325443
 30
0
 11
81.45740828402379
 21
185.2254288921768
 31
0
  0
LINE
  8
1
 62
7
 10
81.45740828402379
 20
313.7593521729118
 30
0
 11
81.45740828402379
 21
185.2254288921768
 31
0
  0
LINE
  8
1
 62
7
 10
104.1574082840239
 20
316.9923905325443
 30
0
 11
87.35740828402382
 21
316.9923905325443
 31
0
  0
LINE
  8
1
 62
7
 10
110.5574082840239
 20
300.1096836761867
 30
0
 11
111.3574082840239
 21
297.1240430301317
 31
0
  0
LINE
  8
1
 62
7
 10
124.2574082840238
 20
292.4923905325442
 30
0
 11
116.7574082840238
 21
292.4923905325442
 31
0
  0
LINE
  8
1
 62
7
 10
115.2574082840238
 20
189.4923905325443
 30
0
 11
113.2574082840238
 21
189.4923905325443
 31
0
  0
LINE
  8
1
 62
7
 10
115.2574082840238
 20
189.4923905325443
 30
0
 11
113.2574082840238
 21
189.4923905325443
 31
0
  0
LINE
  8
1
 62
7
 10
116.2574082840238
 20
187.4923905325443
 30
0
 11
116.2574082840238
 21
222.0065692537939
 31
0
  0
LINE
  8
1
 62
7
 10
124.2574082840238
 20
186.4923905325443
 30
0
 11
117.2574082840238
 21
186.4923905325443
 31
0
  0
LINE
  8
1
 62
7
 10
124.2574082840238
 20
186.4923905325443
 30
0
 11
117.2574082840238
 21
186.4923905325443
 31
0
  0
LINE
  8
1
 62
7
 10
129.7574082840238
 20
189.4923905325443
 30
0
 11
126.2574082840238
 21
189.4923905325443
 31
0
  0
LINE
  8
1
 62
7
 10
125.2574082840238
 20
188.4923905325443
 30
0
 11
125.2574082840238
 21
187.4923905325443
 31
0
  0
LINE
  8
1
 62
7
 10
125.2574082840238
 20
188.4923905325443
 30
0
 11
125.2574082840238
 21
187.4923905325443
 31
0
  0
LINE
  8
1
 62
7
 10
129.9574082840238
 20
220.9923905325443
 30
0
 11
126.2574082840238
 21
220.9923905325443
 31
0
  0
LINE
  8
1
 62
7
 10
126.2574082840238
 20
214.4923905325443
 30
0
 11
129.7574082840238
 21
214.4923905325443
 31
0
  0
LINE
  8
1
 62
7
 10
112.2574082840238
 20
261.2561210511086
 30
0
 11
112.2574082840238
 21
288.217130786519
 31
0
  0
LINE
  8
1
 62
3
  6
DASHDOT
 10
130.9574082840238
 20
249.4923905325443
 30
0
 11
135.7471836420218
 21
249.4923905325443
 31
0
  0
LINE
  8
1
 62
7
 10
116.2574082840238
 20
221.559402658347
 30
0
 11
116.2574082840238
 21
222.0065692537939
 31
0
  0
LINE
  8
1
 62
7
 10
111.3574082840239
 20
208.8297876981329
 30
0
 11
112.2574082840238
 21
208.8297876981329
 31
0
  0
LINE
  8
1
 62
7
 10
111.3574082840239
 20
195.1549933669556
 30
0
 11
112.2574082840238
 21
195.1549933669556
 31
0
  0
LINE
  8
1
 62
7
 10
109.5574082840239
 20
201.9923905325443
 30
0
 11
110.3574082840239
 21
201.9923905325443
 31
0
  0
LINE
  8
1
 62
7
 10
115.2574082840238
 20
233.3988740992071
 30
0
 11
113.2574082840238
 21
233.3988740992071
 31
0
  0
LINE
  8
1
 62
7
 10
113.2574082840238
 20
223.0065692537939
 30
0
 11
115.2574082840238
 21
223.0065692537939
 31
0
  0
LINE
  8
1
 62
7
 10
79.05740828402381
 20
186.9923905325443
 30
0
 11
79.05740828402381
 21
311.9923905325443
 31
0
  0
LINE
  8
1
 62
7
 10
85.45740828402381
 20
306.8378991215353
 30
0
 11
85.45740828402381
 21
298.2128991215353
 31
0
  0
LINE
  8
1
 62
7
 10
84.96666055521263
 20
308.2753991215353
 30
0
 11
81.45740828402381
 21
308.2753991215353
 31
0
  0
LINE
  8
1
 62
7
 10
84.96666055521263
 20
305.4003991215353
 30
0
 11
81.45740828402381
 21
305.4003991215353
 31
0
  0
LINE
  8
1
 62
7
 10
84.96666055521263
 20
299.6503991215353
 30
0
 11
81.45740828402381
 21
299.6503991215353
 31
0
  0
LINE
  8
1
 62
7
 10
84.96666055521263
 20
296.7753991215353
 30
0
 11
81.45740828402381
 21
296.7753991215353
 31
0
  0
LINE
  8
1
 62
7
 10
57.05740828402381
 20
305.5253991215353
 30
0
 11
56.45740828402381
 21
304.9253991215354
 31
0
  0
LINE
  8
1
 62
7
 10
56.45740828402381
 20
304.9253991215354
 30
0
 11
56.45740828402381
 21
300.1253991215353
 31
0
  0
LINE
  8
1
 62
7
 10
56.45740828402381
 20
300.1253991215353
 30
0
 11
57.05740828402381
 21
299.5253991215353
 31
0
  0
LINE
  8
1
 62
7
 10
57.05740828402381
 20
299.5253991215353
 30
0
 11
61.0574082840238
 21
299.5253991215353
 31
0
  0
LINE
  8
1
 62
7
 10
57.05740828402381
 20
305.5253991215353
 30
0
 11
57.05740828402381
 21
299.5253991215353
 31
0
  0
LINE
  8
1
 62
3
 10
56.45740828402381
 20
304.9253991215354
 30
0
 11
61.0574082840238
 21
304.9253991215354
 31
0
  0
LINE
  8
1
 62
3
 10
56.45740828402381
 20
300.1253991215353
 30
0
 11
61.0574082840238
 21
300.1253991215353
 31
0
  0
LINE
  8
1
 62
7
 10
67.55740828402379
 20
308.6253991215353
 30
0
 11
67.55740828402379
 21
296.4253991215354
 31
0
  0
LINE
  8
1
 62
7
 10
61.0574082840238
 20
298.2128991215353
 30
0
 11
61.0574082840238
 21
306.8378991215353
 31
0
  0
LINE
  8
1
 62
7
 10
61.54815601283497
 20
296.7753991215353
 30
0
 11
66.05740828402381
 21
296.7753991215353
 31
0
  0
LINE
  8
1
 62
7
 10
61.54815601283499
 20
299.6503991215353
 30
0
 11
66.05740828402381
 21
299.6503991215353
 31
0
  0
LINE
  8
1
 62
7
 10
61.54815601283499
 20
305.4003991215353
 30
0
 11
66.05740828402381
 21
305.4003991215353
 31
0
  0
LINE
  8
1
 62
7
 10
61.54815601283499
 20
308.2753991215353
 30
0
 11
66.05740828402381
 21
308.2753991215353
 31
0
  0
LINE
  8
1
 62
7
 10
61.0574082840238
 20
305.5253991215353
 30
0
 11
57.05740828402381
 21
305.5253991215353
 31
0
  0
LINE
  8
1
 62
7
 10
85.45740828402381
 20
200.7718819435532
 30
0
 11
85.45740828402381
 21
192.1468819435532
 31
0
  0
LINE
  8
1
 62
7
 10
84.96666055521263
 20
202.2093819435532
 30
0
 11
81.45740828402381
 21
202.2093819435532
 31
0
  0
LINE
  8
1
 62
7
 10
84.96666055521263
 20
199.3343819435532
 30
0
 11
81.45740828402381
 21
199.3343819435532
 31
0
  0
LINE
  8
1
 62
7
 10
84.96666055521263
 20
193.5843819435532
 30
0
 11
81.45740828402381
 21
193.5843819435532
 31
0
  0
LINE
  8
1
 62
7
 10
84.96666055521263
 20
190.7093819435532
 30
0
 11
81.45740828402381
 21
190.7093819435532
 31
0
  0
LINE
  8
1
 62
7
 10
57.05740828402381
 20
199.4593819435532
 30
0
 11
56.45740828402381
 21
198.8593819435532
 31
0
  0
LINE
  8
1
 62
7
 10
56.45740828402381
 20
198.8593819435532
 30
0
 11
56.45740828402381
 21
194.0593819435532
 31
0
  0
LINE
  8
1
 62
7
 10
56.45740828402381
 20
194.0593819435532
 30
0
 11
57.05740828402381
 21
193.4593819435532
 31
0
  0
LINE
  8
1
 62
7
 10
57.05740828402381
 20
193.4593819435532
 30
0
 11
61.05736671528049
 21
193.4593819435532
 31
0
  0
LINE
  8
1
 62
7
 10
57.05740828402381
 20
199.4593819435532
 30
0
 11
57.05740828402381
 21
193.4593819435532
 31
0
  0
LINE
  8
1
 62
3
 10
56.45740828402381
 20
198.8593819435532
 30
0
 11
61.05736671528049
 21
198.8593819435532
 31
0
  0
LINE
  8
1
 62
3
 10
56.45740828402381
 20
194.0593819435532
 30
0
 11
61.05736671528049
 21
194.0593819435532
 31
0
  0
LINE
  8
1
 62
7
 10
61.05736671528049
 20
192.1468819435532
 30
0
 11
61.05736671528049
 21
200.7718819435532
 31
0
  0
LINE
  8
1
 62
7
 10
61.54811444409167
 20
190.7093819435532
 30
0
 11
66.05736671528049
 21
190.7093819435532
 31
0
  0
LINE
  8
1
 62
7
 10
61.54811444409167
 20
193.5843819435532
 30
0
 11
66.05736671528049
 21
193.5843819435532
 31
0
  0
LINE
  8
1
 62
7
 10
61.54811444409167
 20
199.3343819435532
 30
0
 11
66.05736671528049
 21
199.3343819435532
 31
0
  0
LINE
  8
1
 62
7
 10
61.54811444409167
 20
202.2093819435532
 30
0
 11
66.05736671528049
 21
202.2093819435532
 31
0
  0
LINE
  8
1
 62
7
 10
61.05736671528049
 20
199.4593819435532
 30
0
 11
57.05740828402381
 21
199.4593819435532
 31
0
  0
LINE
  8
1
 62
7
 10
295.4191757230311
 20
49.99239053254439
 30
0
 11
323.5090563553689
 21
49.99239053254439
 31
0
  0
LINE
  8
1
 62
7
 10
332.1574082840237
 20
13.23758977515679
 30
0
 11
332.1574082840237
 21
41.34403860388945
 31
0
  0
LINE
  8
1
 62
7
 10
332.1574082840237
 20
-38.26629732223604
 30
0
 11
332.1574082840237
 21
-65.00760946745561
 31
0
  0
LINE
  8
1
 62
7
 10
323.5090563553689
 20
-75.00760946745561
 30
0
 11
295.3989259375471
 21
-75.00760946745561
 31
0
  0
LINE
  8
1
 62
7
 10
243.8987204292436
 20
-75.00760946745561
 30
0
 11
217.1574082840238
 21
-75.00760946745561
 31
0
  0
LINE
  8
1
 62
7
 10
207.1574082840238
 20
-38.25133721400577
 30
0
 11
207.1574082840238
 21
-65.00760946745561
 31
0
  0
LINE
  8
1
 62
7
 10
207.1574082840238
 20
13.22594205958569
 30
0
 11
207.1574082840238
 21
41.34403860388941
 31
0
  0
LINE
  8
1
 62
7
 10
243.8987204292436
 20
49.9923905325444
 30
0
 11
215.8057602126787
 21
49.99239053254439
 31
0
  0
LINE
  8
1
 62
7
 10
-184.1996445532581
 20
-60.57215387142901
 30
0
 11
-186.4698927585806
 21
-59.9638426981946
 31
0
  0
LINE
  8
1
 62
7
 10
-190.5523756632193
 20
-64.04632560283324
 30
0
 11
-189.0580832096059
 21
-69.62310096108529
 31
0
  0
LINE
  8
1
 62
7
 10
-186.4698927585806
 20
-59.9638426981946
 30
0
 11
-190.5523756632193
 21
-64.04632560283324
 31
0
  0
LINE
  8
1
 62
7
 10
-179.3988249467152
 20
-67.03491051006012
 30
0
 11
-180.0071361199496
 21
-64.76466230473746
 31
0
  0
LINE
  8
1
 62
7
 10
-183.4813078513539
 20
-71.11739341469873
 30
0
 11
-179.3988249467152
 21
-67.03491051006012
 31
0
  0
LINE
  8
1
 62
7
 10
-189.0580832096059
 20
-69.62310096108529
 30
0
 11
-183.4813078513539
 21
-71.11739341469873
 31
0
  0
LINE
  8
1
 62
7
 10
-180.0071361199496
 20
39.74944336982626
 30
0
 11
-179.3988249467152
 21
42.01969157514889
 31
0
  0
LINE
  8
1
 62
7
 10
-183.4813078513539
 20
46.10217447978752
 30
0
 11
-189.0580832096059
 21
44.60788202617408
 31
0
  0
LINE
  8
1
 62
7
 10
-179.3988249467152
 20
42.01969157514889
 30
0
 11
-183.4813078513539
 21
46.10217447978752
 31
0
  0
LINE
  8
1
 62
7
 10
-186.4698927585806
 20
34.9486237632834
 30
0
 11
-184.1996445532581
 21
35.5569349365178
 31
0
  0
LINE
  8
1
 62
7
 10
-190.5523756632193
 20
39.03110666792203
 30
0
 11
-186.4698927585806
 21
34.9486237632834
 31
0
  0
LINE
  8
1
 62
7
 10
-189.0580832096059
 20
44.60788202617408
 30
0
 11
-190.5523756632193
 21
39.03110666792203
 31
0
  0
LINE
  8
1
 62
7
 10
-83.87804731200276
 20
-64.76466230473744
 30
0
 11
-84.48635848523716
 21
-67.03491051006012
 31
0
  0
LINE
  8
1
 62
7
 10
-80.40387558059848
 20
-71.11739341469873
 30
0
 11
-74.82710022234647
 21
-69.62310096108529
 31
0
  0
LINE
  8
1
 62
7
 10
-84.48635848523716
 20
-67.03491051006012
 30
0
 11
-80.40387558059848
 21
-71.11739341469873
 31
0
  0
LINE
  8
1
 62
7
 10
-77.41529067337166
 20
-59.9638426981946
 30
0
 11
-79.68553887869427
 21
-60.57215387142901
 31
0
  0
LINE
  8
1
 62
7
 10
-73.33280776873306
 20
-64.04632560283324
 30
0
 11
-77.41529067337166
 21
-59.9638426981946
 31
0
  0
LINE
  8
1
 62
7
 10
-74.82710022234647
 20
-69.62310096108529
 30
0
 11
-73.33280776873306
 21
-64.04632560283324
 31
0
  0
LINE
  8
1
 62
7
 10
-79.68553887869427
 20
35.5569349365178
 30
0
 11
-77.41529067337166
 21
34.9486237632834
 31
0
  0
LINE
  8
1
 62
7
 10
-73.33280776873306
 20
39.03110666792203
 30
0
 11
-74.82710022234647
 21
44.60788202617408
 31
0
  0
LINE
  8
1
 62
7
 10
-77.41529067337166
 20
34.9486237632834
 30
0
 11
-73.33280776873306
 21
39.03110666792203
 31
0
  0
LINE
  8
1
 62
7
 10
-84.48635848523716
 20
42.01969157514891
 30
0
 11
-83.87804731200276
 21
39.74944336982625
 31
0
  0
LINE
  8
1
 62
7
 10
-80.40387558059848
 20
46.10217447978752
 30
0
 11
-84.48635848523716
 21
42.01969157514891
 31
0
  0
LINE
  8
1
 62
7
 10
-74.82710022234647
 20
44.60788202617408
 30
0
 11
-80.40387558059848
 21
46.10217447978752
 31
0
  0
LINE
  8
1
 62
3
  6
DASHDOT
 10
-131.9425917159762
 20
-4.282870590700844
 30
0
 11
-131.9425917159762
 21
-20.73234834421035
 31
0
  0
LINE
  8
1
 62
3
  6
DASHDOT
 10
-123.7178528392214
 20
-12.5076094674556
 30
0
 11
-140.1673305927309
 21
-12.5076094674556
 31
0
  0
LINE
  8
1
 62
7
 10
-85.63502539505177
 20
15.9601272210154
 30
0
 11
-89.30638503621537
 21
13.84046674389771
 31
0
  0
LINE
  8
1
 62
7
 10
-84.13502539505177
 20
13.36205100966208
 30
0
 11
-87.80638503621537
 21
11.24239053254439
 31
0
  0
LINE
  8
1
 62
7
 10
-93.8063850362154
 20
11.24239053254439
 30
0
 11
-97.47774467737889
 21
9.122730055426699
 31
0
  0
LINE
  8
1
 62
7
 10
-92.30638503621529
 20
8.644314321191059
 30
0
 11
-95.97774467737889
 21
6.52465384407339
 31
0
  0
LINE
  8
1
 62
7
 10
-179.7501580369006
 20
13.36205100966208
 30
0
 11
-176.078798395737
 21
11.24239053254439
 31
0
  0
LINE
  8
1
 62
7
 10
-178.2501580369006
 20
15.9601272210154
 30
0
 11
-174.578798395737
 21
13.84046674389771
 31
0
  0
LINE
  8
1
 62
7
 10
-171.578798395737
 20
8.644314321191081
 30
0
 11
-167.9074387545736
 21
6.52465384407339
 31
0
  0
LINE
  8
1
 62
7
 10
-170.078798395737
 20
11.2423905325444
 30
0
 11
-166.4074387545736
 21
9.122730055426699
 31
0
  0
LINE
  8
1
 62
7
 10
-130.4425917159762
 20
-66.84500663304436
 30
0
 11
-130.4425917159762
 21
-62.60568567880899
 31
0
  0
LINE
  8
1
 62
7
 10
-133.4425917159762
 20
-66.84500663304434
 30
0
 11
-133.4425917159762
 21
-62.60568567880899
 31
0
  0
LINE
  8
1
 62
7
 10
-130.4425917159762
 20
-57.40953325610236
 30
0
 11
-130.4425917159762
 21
-53.170212301867
 31
0
  0
LINE
  8
1
 62
7
 10
-133.4425917159762
 20
-57.4095332561023
 30
0
 11
-133.4425917159762
 21
-53.170212301867
 31
0
  0
LINE
  8
1
 62
3
  6
DASHDOT
 10
269.6574082840238
 20
33.0246904556136
 30
0
 11
269.6574082840238
 21
-18.53754656655908
 31
0
  0
LINE
  8
1
 62
3
  6
DASHDOT
 10
275.6873453831272
 20
-12.5076094674556
 30
0
 11
263.6274711849201
 21
-12.5076094674556
 31
0
  0
LINE
  8
1
 62
7
 10
267.1574082840238
 20
76.52615860712946
 30
0
 11
272.1574082840238
 21
76.52615860712946
 31
0
  0
LINE
  8
1
 62
7
 10
270.3588871482699
 20
81.52615860712947
 30
0
 11
270.3588871482699
 21
76.52615860712947
 31
0
  0
LINE
  8
1
 62
7
 10
270.8859656038486
 20
81.52615860712947
 30
0
 11
270.8859656038486
 21
76.52615860712947
 31
0
  0
LINE
  8
1
 62
7
 10
271.5184597505431
 20
81.52615860712947
 30
0
 11
271.5184597505431
 21
76.52615860712947
 31
0
  0
LINE
  8
1
 62
7
 10
267.7963568175043
 20
76.52615860712947
 30
0
 11
267.7963568175043
 21
81.52615860712947
 31
0
  0
LINE
  8
1
 62
7
 10
268.4288509641987
 20
76.52615860712947
 30
0
 11
268.4288509641987
 21
81.52615860712947
 31
0
  0
LINE
  8
1
 62
7
 10
268.9559294197777
 20
76.52615860712947
 30
0
 11
268.9559294197777
 21
81.52615860712947
 31
0
  0
LINE
  8
1
 62
7
 10
266.1574082840238
 20
-0.5076094674556106
 30
0
 11
266.1574082840238
 21
2.992390532544389
 31
0
  0
LINE
  8
1
 62
7
 10
266.1574082840238
 20
2.992390532544389
 30
0
 11
273.1574082840238
 21
2.992390532544389
 31
0
  0
LINE
  8
1
 62
7
 10
273.1574082840238
 20
2.992390532544389
 30
0
 11
273.1574082840238
 21
-0.5076094674556106
 31
0
  0
LINE
  8
1
 62
7
 10
268.1574082840238
 20
-53.17021230186696
 30
0
 11
268.1574082840238
 21
-58.33055848433076
 31
0
  0
LINE
  8
1
 62
7
 10
271.1574082840238
 20
-53.17021230186696
 30
0
 11
271.1574082840238
 21
-58.33055848433076
 31
0
  0
LINE
  8
1
 62
7
 10
268.1574082840238
 20
-61.68466045058046
 30
0
 11
268.1574082840238
 21
-66.84500663304428
 31
0
  0
LINE
  8
1
 62
7
 10
271.1574082840238
 20
-61.68466045058046
 30
0
 11
271.1574082840238
 21
-66.84500663304428
 31
0
  0
LINE
  8
1
 62
7
 10
305.622255322621
 20
6.5246538440734
 30
0
 11
310.0912462089568
 21
9.10482693530532
 31
0
  0
LINE
  8
1
 62
7
 10
304.122255322621
 20
9.12273005542672
 30
0
 11
308.5912462089568
 21
11.70290314665863
 31
0
  0
LINE
  8
1
 62
7
 10
312.9959837186123
 20
10.78187791843016
 30
0
 11
317.4649746049481
 21
13.36205100966207
 31
0
  0
LINE
  8
1
 62
7
 10
311.4959837186123
 20
13.37995412978347
 30
0
 11
315.9649746049481
 21
15.96012722101539
 31
0
  0
LINE
  8
1
 62
7
 10
226.318832849435
 20
10.78187791843018
 30
0
 11
221.8498419630993
 21
13.3620510096621
 31
0
  0
LINE
  8
1
 62
7
 10
227.818832849435
 20
13.3799541297835
 30
0
 11
223.3498419630993
 21
15.96012722101542
 31
0
  0
LINE
  8
1
 62
7
 10
235.1925612454264
 20
9.122730055426741
 30
0
 11
230.7235703590906
 21
11.70290314665866
 31
0
  0
LINE
  8
1
 62
7
 10
233.6925612454264
 20
6.524653844073439
 30
0
 11
229.2235703590906
 21
9.104826935305349
 31
0
  0
LINE
  8
1
 62
3
  6
DASHED
 10
272.6574082840238
 20
10.9923905325444
 30
0
 11
272.6574082840238
 21
2.9923905325444
 31
0
  0
LINE
  8
1
 62
7
  6
DASHED
 10
272.0574082840236
 20
10.9923905325444
 30
0
 11
272.0574082840236
 21
2.9923905325444
 31
0
  0
LINE
  8
1
 62
7
  6
DASHED
 10
267.2574082840237
 20
2.9923905325444
 30
0
 11
267.2574082840237
 21
10.9923905325444
 31
0
  0
LINE
  8
1
 62
3
  6
DASHED
 10
266.6574082840238
 20
2.9923905325444
 30
0
 11
266.6574082840238
 21
10.9923905325444
 31
0
  0
LINE
  8
1
 62
7
  6
DASHED
 10
265.6574082840238
 20
10.9923905325444
 30
0
 11
265.6574082840238
 21
30.30593978975967
 31
0
  0
LINE
  8
1
 62
7
  6
DASHED
 10
265.6574082840238
 20
10.9923905325444
 30
0
 11
273.6574082840238
 21
10.9923905325444
 31
0
  0
LINE
  8
1
 62
7
  6
DASHED
 10
273.6574082840238
 20
30.30593978975967
 30
0
 11
273.6574082840238
 21
10.9923905325444
 31
0
  0
LINE
  8
1
 62
7
  6
DASHED
 10
251.3058112950893
 20
-27.72171108259335
 30
0
 11
234.5797870010989
 21
-37.378485711201
 31
0
  0
LINE
  8
1
 62
7
  6
DASHED
 10
230.5797870010989
 20
-30.45028248092548
 30
0
 11
247.3058112950893
 21
-20.79350785231784
 31
0
  0
LINE
  8
1
 62
3
  6
DASHDOT
 10
230.2252798579136
 20
-35.2737594289902
 30
0
 11
257.4304203388371
 21
-19.56686424898737
 31
0
  0
LINE
  8
1
 62
7
  6
DASHED
 10
251.3058112950893
 20
-27.72171108259335
 30
0
 11
247.3058112950893
 21
-20.79350785231784
 31
0
  0
LINE
  8
1
 62
7
  6
DASHED
 10
250.5058112950894
 20
-26.33607043653824
 30
0
 11
260.2334965750532
 21
-20.71978872155916
 31
0
  0
LINE
  8
1
 62
7
  6
DASHED
 10
248.1058112950893
 20
-22.17914849837295
 30
0
 11
257.8334965750533
 21
-16.56286678339388
 31
0
  0
LINE
  8
1
 62
3
  6
DASHED
 10
257.6484835055319
 20
-15.97686380585808
 30
0
 11
247.8058112950893
 21
-21.65953325610229
 31
0
  0
LINE
  8
1
 62
3
  6
CENTER
 10
257.4304203388371
 20
-19.56686424898737
 30
0
 11
260.4517878184062
 21
-17.82247692133736
 31
0
  0
LINE
  8
1
 62
3
  6
DASHED
 10
260.6484835055319
 20
-21.17301622856471
 30
0
 11
250.8058112950893
 21
-26.85568567880891
 31
0
  0
LINE
  8
1
 62
7
 10
280.4634769034099
 20
107.4923905325444
 30
0
 11
258.8513396646375
 21
107.4923905325444
 31
0
  0
LINE
  8
1
 62
7
 10
250.6704336381399
 20
103.2432840792564
 30
0
 11
208.976502257526
 21
43.93178200927712
 31
0
  0
LINE
  8
1
 62
7
 10
288.6443829299074
 20
103.2432840792564
 30
0
 11
330.3383143105214
 21
43.93178200927714
 31
0
  0
LINE
  8
1
 62
7
 10
220.7068825996713
 20
36.4429162168968
 30
0
 11
222.2011750532847
 21
42.01969157514888
 31
0
  0
LINE
  8
1
 62
7
 10
222.2011750532847
 20
42.01969157514888
 30
0
 11
218.1186921486461
 21
46.1021744797875
 31
0
  0
LINE
  8
1
 62
7
 10
218.1186921486461
 20
46.1021744797875
 30
0
 11
212.541916790394
 21
44.60788202617406
 31
0
  0
LINE
  8
1
 62
7
 10
212.541916790394
 20
44.60788202617406
 30
0
 11
211.0476243367806
 21
39.03110666792201
 31
0
  0
LINE
  8
1
 62
7
 10
211.0476243367806
 20
39.03110666792201
 30
0
 11
215.1301072414191
 21
34.94862376328339
 31
0
  0
LINE
  8
1
 62
7
 10
215.1301072414191
 20
34.94862376328339
 30
0
 11
220.7068825996713
 21
36.4429162168968
 31
0
  0
LINE
  8
1
 62
7
 10
318.607933968376
 20
36.44291621689686
 30
0
 11
324.184709326628
 21
34.94862376328335
 31
0
  0
LINE
  8
1
 62
7
 10
324.184709326628
 20
34.94862376328335
 30
0
 11
328.2671922312669
 21
39.03110666792191
 31
0
  0
LINE
  8
1
 62
7
 10
328.2671922312669
 20
39.03110666792191
 30
0
 11
326.7728997776535
 21
44.60788202617399
 31
0
  0
LINE
  8
1
 62
7
 10
326.7728997776535
 20
44.60788202617399
 30
0
 11
321.1961244194013
 21
46.1021744797875
 31
0
  0
LINE
  8
1
 62
7
 10
321.1961244194013
 20
46.1021744797875
 30
0
 11
317.1136415147627
 21
42.01969157514895
 31
0
  0
LINE
  8
1
 62
7
 10
317.1136415147627
 20
42.01969157514895
 30
0
 11
318.607933968376
 21
36.44291621689686
 31
0
  0
LINE
  8
1
 62
7
 10
220.7068825996713
 20
-61.45813515180801
 30
0
 11
215.1301072414191
 21
-59.96384269819462
 31
0
  0
LINE
  8
1
 62
7
 10
215.1301072414191
 20
-59.96384269819462
 30
0
 11
211.0476243367806
 21
-64.04632560283326
 31
0
  0
LINE
  8
1
 62
7
 10
211.0476243367806
 20
-64.04632560283326
 30
0
 11
212.5419167903941
 21
-69.62310096108531
 31
0
  0
LINE
  8
1
 62
7
 10
212.5419167903941
 20
-69.62310096108531
 30
0
 11
218.1186921486461
 21
-71.11739341469873
 31
0
  0
LINE
  8
1
 62
7
 10
218.1186921486461
 20
-71.11739341469873
 30
0
 11
222.2011750532847
 21
-67.03491051006006
 31
0
  0
LINE
  8
1
 62
7
 10
222.2011750532847
 20
-67.03491051006006
 30
0
 11
220.7068825996713
 21
-61.45813515180801
 31
0
  0
LINE
  8
1
 62
7
 10
318.6079339683763
 20
-61.458135151808
 30
0
 11
317.1136415147627
 21
-67.03491051006004
 31
0
  0
LINE
  8
1
 62
7
 10
317.1136415147627
 20
-67.03491051006004
 30
0
 11
321.1961244194013
 21
-71.11739341469873
 31
0
  0
LINE
  8
1
 62
7
 10
321.1961244194013
 20
-71.11739341469873
 30
0
 11
326.7728997776533
 21
-69.62310096108539
 31
0
  0
LINE
  8
1
 62
7
 10
326.7728997776533
 20
-69.62310096108539
 30
0
 11
328.2671922312669
 21
-64.04632560283334
 31
0
  0
LINE
  8
1
 62
7
 10
328.2671922312669
 20
-64.04632560283334
 30
0
 11
324.1847093266283
 21
-59.96384269819466
 31
0
  0
LINE
  8
1
 62
7
 10
324.1847093266283
 20
-59.96384269819466
 30
0
 11
318.6079339683763
 21
-61.458135151808
 31
0
  0
LINE
  8
1
 62
7
 10
-98.2565411905733
 20
49.9923905325444
 30
0
 11
-77.32803321734878
 21
49.9923905325444
 31
0
  0
LINE
  8
1
 62
7
 10
-165.6286422413792
 20
-75.00760946745561
 30
0
 11
-186.5571502146036
 21
-75.00760946745561
 31
0
  0
LINE
  8
1
 62
7
 10
-165.6286422413792
 20
49.9923905325444
 30
0
 11
-186.5571502146037
 21
49.9923905325444
 31
0
  0
LINE
  8
1
 62
7
 10
-69.44259171597616
 20
42.10694903117185
 30
0
 11
-69.44259171597616
 21
21.17844105794735
 31
0
  0
LINE
  8
1
 62
7
 10
-98.25654119057339
 20
-75.00760946745561
 30
0
 11
-77.32803321734878
 21
-75.00760946745561
 31
0
  0
LINE
  8
1
 62
7
 10
-194.4425917159762
 20
-67.12216796608306
 30
0
 11
-194.4425917159762
 21
-46.19365999285855
 31
0
  0
LINE
  8
1
 62
7
 10
-194.4425917159762
 20
42.10694903117185
 30
0
 11
-194.4425917159762
 21
21.17844105794735
 31
0
  0
LINE
  8
1
 62
7
 10
-142.7369212104588
 20
107.4923905325444
 30
0
 11
-121.1482622214937
 21
107.4923905325444
 31
0
  0
LINE
  8
1
 62
7
 10
-112.9567417786038
 20
103.2281548960548
 30
0
 11
-72.42463387034988
 21
45.34230577782579
 31
0
  0
LINE
  8
1
 62
7
 10
-150.9284416533487
 20
103.2281548960548
 30
0
 11
-191.4605495616025
 21
45.34230577782601
 31
0
  0
LINE
  8
1
 62
7
 10
-69.44259171597616
 20
-67.12216796608306
 30
0
 11
-69.44259171597616
 21
-46.19365999285855
 31
0
  0
LINE
  8
1
 62
7
 10
-77.32803321734878
 20
-75.00760946745561
 30
0
 11
-69.44259171597616
 21
-67.12216796608306
 31
0
  0
LINE
  8
1
 62
7
 10
272.1574082840238
 20
76.52615860712946
 30
0
 11
272.1574082840238
 21
55.44641911069413
 31
0
  0
LINE
  8
1
 62
7
 10
267.1574082840238
 20
76.52615860712946
 30
0
 11
267.1574082840238
 21
55.44641911069413
 31
0
  0
LINE
  8
1
 62
7
 10
269.6429802564664
 20
76.52615860712946
 30
0
 11
269.6429802564664
 21
55.4923890018974
 31
0
  0
LINE
  8
1
 62
7
 10
-134.4281636884188
 20
76.52615860712946
 30
0
 11
-129.4281636884189
 21
76.52615860712946
 31
0
  0
LINE
  8
1
 62
7
 10
-131.2266848241728
 20
81.52615860712947
 30
0
 11
-131.2266848241728
 21
76.52615860712947
 31
0
  0
LINE
  8
1
 62
7
 10
-130.6996063685941
 20
81.52615860712947
 30
0
 11
-130.6996063685941
 21
76.52615860712947
 31
0
  0
LINE
  8
1
 62
7
 10
-130.0671122218996
 20
81.52615860712947
 30
0
 11
-130.0671122218996
 21
76.52615860712947
 31
0
  0
LINE
  8
1
 62
7
 10
-133.7892151549382
 20
76.52615860712947
 30
0
 11
-133.7892151549382
 21
81.52615860712947
 31
0
  0
LINE
  8
1
 62
7
 10
-133.1567210082438
 20
76.52615860712947
 30
0
 11
-133.1567210082438
 21
81.52615860712947
 31
0
  0
LINE
  8
1
 62
7
 10
-132.629642552665
 20
76.52615860712947
 30
0
 11
-132.629642552665
 21
81.52615860712947
 31
0
  0
LINE
  8
1
 62
7
 10
-129.4281636884189
 20
76.52615860712946
 30
0
 11
-129.4281636884189
 21
58.4478529839599
 31
0
  0
LINE
  8
1
 62
7
 10
-131.9425917159762
 20
76.52615860712946
 30
0
 11
-131.9425917159762
 21
58.49239053254441
 31
0
  0
LINE
  8
1
 62
7
 10
-134.4281636884188
 20
76.52615860712946
 30
0
 11
-134.4281636884188
 21
58.44886967271741
 31
0
  0
LINE
  8
1
 62
3
  6
DASHDOT
 10
-128.1758088652353
 20
92.49239053254441
 30
0
 11
-135.7093745667171
 21
92.49239053254441
 31
0
  0
LINE
  8
1
 62
3
  6
DASHDOT
 10
-131.9425917159762
 20
96.2591733832853
 30
0
 11
-131.9425917159762
 21
88.72560768180351
 31
0
  0
LINE
  8
1
 62
7
 10
-186.1039025484055
 20
52.99239053254438
 30
0
 11
-159.3424092336168
 21
52.99239053254438
 31
0
  0
LINE
  8
1
 62
7
 10
-104.5427741983357
 20
52.99239053254438
 30
0
 11
-77.78128088354706
 21
52.99239053254438
 31
0
  0
LINE
  8
1
 62
3
  6
DASHDOT
 10
275.6574082840237
 20
92.49239053254441
 30
0
 11
263.6574082840237
 21
92.49239053254441
 31
0
  0
LINE
  8
1
 62
3
  6
DASHDOT
 10
269.6574082840237
 20
98.49239053254441
 30
0
 11
269.6574082840237
 21
86.49239053254441
 31
0
  0
LINE
  8
1
 62
7
 10
104.1574082840239
 20
20.4923905325444
 30
0
 11
96.45740828402384
 21
20.4923905325444
 31
0
  0
LINE
  8
1
 62
7
 10
78.95740828402384
 20
-43.25760946745559
 30
0
 11
70.05740828402375
 21
-43.25760946745559
 31
0
  0
LINE
  8
1
 62
7
 10
78.95740828402384
 20
18.2423905325444
 30
0
 11
70.05740828402375
 21
18.2423905325444
 31
0
  0
LINE
  8
1
 62
7
 10
57.85740828402393
 20
-35.00760946745547
 30
0
 11
95.55740828402375
 21
-35.00760946745547
 31
0
  0
LINE
  8
1
 62
7
 10
95.55740828402375
 20
9.9923905325444
 30
0
 11
58.05740828402374
 21
9.9923905325444
 31
0
  0
LINE
  8
1
 62
7
 10
58.05740828402374
 20
22.9923905325444
 30
0
 11
58.05740828402374
 21
9.9923905325444
 31
0
  0
LINE
  8
1
 62
7
 10
130.9524589726729
 20
-25.0076094674556
 30
0
 11
13.9574082840238
 21
-25.0076094674556
 31
0
  0
LINE
  8
1
 62
7
 10
130.9574082840238
 20
-0.007609467455599983
 30
0
 11
13.95740828402379
 21
-0.007609467455599983
 31
0
  0
LINE
  8
1
 62
7
 10
130.9574082840238
 20
2.9923905325444
 30
0
 11
37.15740828402384
 21
2.9923905325444
 31
0
  0
LINE
  8
1
 62
7
 10
30.75740828402375
 20
-60.00760946745559
 30
0
 11
31.5574082840237
 21
-60.00760946745559
 31
0
  0
LINE
  8
1
 62
7
 10
29.75740828402375
 20
-28.5076094674556
 30
0
 11
29.75740828402375
 21
-79.04433520469819
 31
0
  0
LINE
  8
1
 62
7
 10
109.5574082840237
 20
-80.1076094674556
 30
0
 11
104.6574082840238
 21
-80.1076094674556
 31
0
  0
LINE
  8
1
 62
7
 10
109.5574082840237
 20
-80.1076094674556
 30
0
 11
109.5574082840237
 21
-60.00760946745559
 31
0
  0
LINE
  8
1
 62
7
 10
31.5574082840237
 20
-80.1076094674556
 30
0
 11
31.5574082840237
 21
-60.00760946745559
 31
0
  0
LINE
  8
1
 62
7
 10
36.45740828402379
 20
-80.1076094674556
 30
0
 11
36.45740828402379
 21
-28.5076094674556
 31
0
  0
LINE
  8
1
 62
7
 10
36.45740828402379
 20
-80.1076094674556
 30
0
 11
31.5574082840237
 21
-80.1076094674556
 31
0
  0
LINE
  8
1
 62
7
 10
109.5574082840237
 20
55.09239053254438
 30
0
 11
104.6574082840238
 21
55.09239053254438
 31
0
  0
LINE
  8
1
 62
7
 10
104.6574082840238
 20
55.09239053254438
 30
0
 11
104.6574082840238
 21
9.992390532544386
 31
0
  0
LINE
  8
1
 62
7
 10
36.45740828402387
 20
55.09239053254438
 30
0
 11
31.55740828402384
 21
55.09239053254438
 31
0
  0
LINE
  8
1
 62
7
 10
70.05740828402375
 20
-75.00760946745547
 30
0
 11
70.05740828402375
 21
-35.00760946745547
 31
0
  0
LINE
  8
1
 62
7
 10
67.45736671528042
 20
-75.0076094674556
 30
0
 11
81.35740828402371
 21
-75.00760946745547
 31
0
  0
LINE
  8
1
 62
7
 10
67.45736671528042
 20
-75.0076094674556
 30
0
 11
67.45736671528042
 21
-46.5076094674555
 31
0
  0
LINE
  8
1
 62
7
 10
70.05740828402375
 20
52.99239053254441
 30
0
 11
70.05740828402375
 21
9.9923905325444
 31
0
  0
LINE
  8
1
 62
7
 10
52.95740828402379
 20
16.4923905325444
 30
0
 11
37.15740828402384
 21
16.4923905325444
 31
0
  0
LINE
  8
1
 62
7
 10
36.45740828402387
 20
3.4923905325444
 30
0
 11
36.45740828402387
 21
55.09239053254438
 31
0
  0
LINE
  8
1
 62
7
 10
31.55740828402379
 20
34.99239053254441
 30
0
 11
31.55740828402384
 21
55.09239053254438
 31
0
  0
LINE
  8
1
 62
7
 10
30.75740828402384
 20
34.99239053254441
 30
0
 11
31.55740828402379
 21
34.99239053254441
 31
0
  0
LINE
  8
1
 62
7
 10
30.75740828402384
 20
3.4923905325444
 30
0
 11
30.75740828402384
 21
34.99239053254441
 31
0
  0
LINE
  8
1
 62
7
 10
30.75740828402384
 20
20.4923905325444
 30
0
 11
36.45740828402387
 21
20.4923905325444
 31
0
  0
LINE
  8
1
 62
7
 10
36.45740828402379
 20
-45.50760946745559
 30
0
 11
30.75740828402375
 21
-45.50760946745559
 31
0
  0
LINE
  8
1
 62
7
 10
27.75740828402384
 20
43.49239053254441
 30
0
 11
27.75740828402384
 21
52.49239053254441
 31
0
  0
LINE
  8
1
 62
7
 10
28.25740828402384
 20
42.99239053254441
 30
0
 11
30.55740828402384
 21
42.99239053254441
 31
0
  0
LINE
  8
1
 62
7
 10
28.25740828402384
 20
52.99239053254441
 30
0
 11
30.55740828402384
 21
52.99239053254441
 31
0
  0
LINE
  8
1
 62
7
 10
30.55740828402379
 20
38.10968367618683
 30
0
 11
30.55740828402384
 21
53.99239053254441
 31
0
  0
LINE
  8
1
 62
7
 10
30.55740828402384
 20
53.99239053254441
 30
0
 11
31.55740828402379
 21
53.99239053254441
 31
0
  0
LINE
  8
1
 62
7
 10
29.85740828402387
 20
42.99239053254441
 30
0
 11
29.85740828402387
 21
52.99239053254441
 31
0
  0
LINE
  8
1
 62
7
 10
27.75740828402384
 20
52.49239053254441
 30
0
 11
28.25740828402384
 21
52.99239053254441
 31
0
  0
LINE
  8
1
 62
7
 10
27.75740828402384
 20
43.49239053254441
 30
0
 11
28.25740828402384
 21
42.99239053254441
 31
0
  0
LINE
  8
1
 62
7
 10
30.55740828402384
 20
41.99239053254441
 30
0
 11
31.49854973057525
 21
41.99239053254441
 31
0
  0
LINE
  8
1
 62
7
 10
30.75740828402384
 20
34.99239053254441
 30
0
 11
31.55740828402379
 21
37.9780311785995
 31
0
  0
LINE
  8
1
 62
7
 10
29.75740828402384
 20
35.12404303013177
 30
0
 11
30.55740828402379
 21
38.10968367618683
 31
0
  0
LINE
  8
1
 62
7
 10
29.75740828402384
 20
3.4923905325444
 30
0
 11
29.75740828402384
 21
35.12404303013177
 31
0
  0
LINE
  8
1
 62
7
 10
30.75740828402375
 20
-79.04433520469819
 30
0
 11
30.75740828402375
 21
-78.1265651826843
 31
0
  0
LINE
  8
1
 62
7
 10
29.75740828402375
 20
-79.04433520469819
 30
0
 11
30.75740828402375
 21
-79.04433520469819
 31
0
  0
LINE
  8
1
 62
7
 10
30.75740828402375
 20
-78.17965977170694
 30
0
 11
30.75740828402375
 21
-28.5076094674556
 31
0
  0
LINE
  8
1
 62
7
 10
37.15740828402384
 20
-41.50760946745548
 30
0
 11
37.15740828402384
 21
16.4923905325444
 31
0
  0
LINE
  8
1
 62
7
 10
52.95740828402379
 20
-38.00760946745548
 30
0
 11
58.05740828402374
 21
-38.00760946745559
 31
0
  0
LINE
  8
1
 62
7
 10
52.95740828402379
 20
-38.00760946745548
 30
0
 11
52.95740828402379
 21
-45.65760946745546
 31
0
  0
LINE
  8
1
 62
7
 10
52.95740828402379
 20
-45.65760946745546
 30
0
 11
42.95740828402379
 21
-45.65760946745546
 31
0
  0
LINE
  8
1
 62
7
 10
42.95740828402379
 20
-45.65760946745546
 30
0
 11
42.95740828402379
 21
-80.70760946745553
 31
0
  0
LINE
  8
1
 62
7
 10
42.95740828402379
 20
-80.70760946745553
 30
0
 11
52.95740828402379
 21
-80.70760946745553
 31
0
  0
LINE
  8
1
 62
7
 10
40.9781342261874
 20
-83.50760946745548
 30
0
 11
38.95740828402379
 21
-80.00760946745548
 31
0
  0
LINE
  8
1
 62
7
 10
38.95740828402379
 20
-80.00760946745548
 30
0
 11
36.95740828402377
 21
-80.00760946745548
 31
0
  0
LINE
  8
1
 62
7
 10
52.95740828402379
 20
-41.50760946745548
 30
0
 11
37.15740828402384
 21
-41.50760946745548
 31
0
  0
LINE
  8
1
 62
7
 10
38.75740828402379
 20
-46.0076094674555
 30
0
 11
36.95740828402377
 21
-46.0076094674555
 31
0
  0
LINE
  8
1
 62
7
 10
38.75740828402379
 20
-46.0076094674555
 30
0
 11
38.75740828402379
 21
-41.50760946745558
 31
0
  0
LINE
  8
1
 62
7
 10
52.95740828402379
 20
-83.5076094674555
 30
0
 11
52.95740828402379
 21
-80.70760946745553
 31
0
  0
LINE
  8
1
 62
7
 10
52.95740828402379
 20
-83.5076094674555
 30
0
 11
40.9781342261874
 21
-83.50760946745548
 31
0
  0
LINE
  8
1
 62
7
 10
40.9781342261874
 20
58.49239053254441
 30
0
 11
52.95740828402379
 21
58.49239053254441
 31
0
  0
LINE
  8
1
 62
7
 10
52.95740828402379
 20
55.69239053254443
 30
0
 11
52.95740828402379
 21
58.49239053254441
 31
0
  0
LINE
  8
1
 62
7
 10
38.75740828402379
 20
16.4923905325444
 30
0
 11
38.75740828402379
 21
20.9923905325444
 31
0
  0
LINE
  8
1
 62
7
 10
36.95740828402377
 20
20.9923905325444
 30
0
 11
38.75740828402379
 21
20.9923905325444
 31
0
  0
LINE
  8
1
 62
7
 10
36.95740828402377
 20
20.9923905325444
 30
0
 11
36.95740828402377
 21
54.99239053254441
 31
0
  0
LINE
  8
1
 62
7
 10
36.95740828402377
 20
54.99239053254441
 30
0
 11
38.95740828402379
 21
54.99239053254441
 31
0
  0
LINE
  8
1
 62
7
 10
38.95740828402379
 20
54.99239053254441
 30
0
 11
40.9781342261874
 21
58.49239053254441
 31
0
  0
LINE
  8
1
 62
7
 10
52.95740828402379
 20
55.69239053254443
 30
0
 11
42.95740828402379
 21
55.69239053254443
 31
0
  0
LINE
  8
1
 62
7
 10
42.95740828402379
 20
55.69239053254443
 30
0
 11
42.95740828402379
 21
20.64239053254438
 31
0
  0
LINE
  8
1
 62
7
 10
42.95740828402379
 20
20.64239053254438
 30
0
 11
52.95740828402379
 21
20.64239053254438
 31
0
  0
LINE
  8
1
 62
7
 10
52.95740828402379
 20
20.64239053254438
 30
0
 11
52.95740828402379
 21
12.9923905325444
 31
0
  0
LINE
  8
1
 62
7
 10
52.95740828402379
 20
12.9923905325444
 30
0
 11
58.05740828402374
 21
12.99239053254441
 31
0
  0
LINE
  8
1
 62
7
 10
44.45740828402383
 20
54.84239053254442
 30
0
 11
54.45740828402383
 21
54.84239053254442
 31
0
  0
LINE
  8
1
 62
7
 10
54.45740828402383
 20
54.99239053254441
 30
0
 11
54.45740828402383
 21
54.84239053254442
 31
0
  0
LINE
  8
1
 62
7
 10
44.45740828402383
 20
21.4923905325444
 30
0
 11
44.45740828402383
 21
54.84239053254442
 31
0
  0
LINE
  8
1
 62
7
 10
54.45740828402383
 20
-80.0076094674556
 30
0
 11
60.45740828402383
 21
-80.0076094674556
 31
0
  0
LINE
  8
1
 62
7
 10
44.45740828402383
 20
-79.85760946745562
 30
0
 11
44.45740828402383
 21
-46.50760946745559
 31
0
  0
LINE
  8
1
 62
7
 10
54.45740828402383
 20
-79.85760946745562
 30
0
 11
54.45740828402383
 21
-80.0076094674556
 31
0
  0
LINE
  8
1
 62
7
 10
54.45740828402383
 20
-79.85760946745562
 30
0
 11
44.45740828402383
 21
-79.85760946745562
 31
0
  0
LINE
  8
1
 62
7
 10
36.95740828402377
 20
-80.00760946745548
 30
0
 11
36.95740828402377
 21
-46.0076094674555
 31
0
  0
LINE
  8
1
 62
7
 10
28.65740828402383
 20
-53.00760946745559
 30
0
 11
29.75740828402375
 21
-53.00760946745559
 31
0
  0
LINE
  8
1
 62
7
 10
28.65740828402383
 20
-67.0076094674556
 30
0
 11
29.75740828402375
 21
-67.0076094674556
 31
0
  0
LINE
  8
1
 62
7
 10
23.65740828402383
 20
-72.5076094674556
 30
0
 11
27.65740828402383
 21
-72.50760946745561
 31
0
  0
LINE
  8
1
 62
7
 10
23.15740828402383
 20
-74.0076094674556
 30
0
 11
23.15740828402371
 21
-73.0076094674556
 31
0
  0
LINE
  8
1
 62
7
 10
14.65740828402373
 20
-74.5076094674556
 30
0
 11
22.65740828402371
 21
-74.5076094674556
 31
0
  0
LINE
  8
1
 62
7
 10
14.15740828402373
 20
-73.0076094674556
 30
0
 11
14.15740828402373
 21
-74.0076094674556
 31
0
  0
LINE
  8
1
 62
7
 10
12.15740828402373
 20
-72.5076094674556
 30
0
 11
13.65740828402373
 21
-72.5076094674556
 31
0
  0
LINE
  8
1
 62
7
 10
28.65740828402383
 20
-48.50760946745559
 30
0
 11
28.65740828402383
 21
-71.50760946745561
 31
0
  0
LINE
  8
1
 62
7
 10
23.65740828402383
 20
-47.50760946745559
 30
0
 11
27.65740828402383
 21
-47.50760946745559
 31
0
  0
LINE
  8
1
 62
7
 10
23.15740828402371
 20
3.4923905325444
 30
0
 11
23.15740828402371
 21
29.49239053254441
 31
0
  0
LINE
  8
1
 62
7
 10
10.15740828402372
 20
-44.50764829162869
 30
0
 11
10.15740828402372
 21
-70.5076094674556
 31
0
  0
LINE
  8
1
 62
7
 10
9.957408284023785
 20
-44.50764829162869
 30
0
 11
10.95740828402381
 21
-44.50764829162869
 31
0
  0
LINE
  8
1
 62
7
 10
9.957408284023845
 20
28.4923905325444
 30
0
 11
9.957408284023785
 21
-44.50764829162869
 31
0
  0
LINE
  8
1
 62
7
 10
22.15740828402371
 20
30.49239053254441
 30
0
 11
11.95740828402379
 21
30.49239053254441
 31
0
  0
LINE
  8
1
 62
7
 10
11.95740828402379
 20
-46.50760946745559
 30
0
 11
11.95740828402379
 21
-45.50764829162869
 31
0
  0
LINE
  8
1
 62
7
 10
10.15740828402372
 20
-47.50760946745559
 30
0
 11
10.95740828402379
 21
-47.50760946745559
 31
0
  0
LINE
  8
1
 62
7
 10
27.65740828402383
 20
23.7423905325444
 30
0
 11
23.15740828402371
 21
23.7423905325444
 31
0
  0
LINE
  8
1
 62
7
 10
28.65740828402383
 20
3.4923905325444
 30
0
 11
28.65740828402383
 21
22.7423905325444
 31
0
  0
LINE
  8
1
 62
7
 10
29.75740828402384
 20
18.2423905325444
 30
0
 11
28.65740828402383
 21
18.2423905325444
 31
0
  0
LINE
  8
1
 62
7
 10
28.65740828402383
 20
4.2423905325444
 30
0
 11
29.75740828402383
 21
4.2423905325444
 31
0
  0
LINE
  8
1
 62
3
  6
DASHDOT
 10
4.826403591111536
 20
-12.5076094674556
 30
0
 11
9.957408284023845
 21
-12.5076094674556
 31
0
  0
LINE
  8
1
 62
3
 10
23.15740828402371
 20
18.4923905325444
 30
0
 11
9.957408284023785
 21
18.4923905325444
 31
0
  0
LINE
  8
1
 62
3
 10
9.957408284023785
 20
26.4923905325444
 30
0
 11
23.15740828402371
 21
26.4923905325444
 31
0
  0
LINE
  8
1
 62
7
 10
23.15740828402371
 20
19.2923905325444
 30
0
 11
9.957408284023785
 21
19.2923905325444
 31
0
  0
LINE
  8
1
 62
7
 10
9.957408284023785
 20
25.6923905325444
 30
0
 11
23.15740828402371
 21
25.6923905325444
 31
0
  0
LINE
  8
1
 62
3
  6
DASHDOT
 10
26.15740828402383
 20
22.4923905325444
 30
0
 11
6.957408284023785
 21
22.4923905325444
 31
0
  0
LINE
  8
1
 62
7
 10
13.95740828402379
 20
13.4923905325444
 30
0
 11
9.957408284023785
 21
13.4923905325444
 31
0
  0
LINE
  8
1
 62
7
 10
13.95740828402379
 20
-38.50760946745559
 30
0
 11
13.95740828402379
 21
13.4923905325444
 31
0
  0
LINE
  8
1
 62
7
 10
23.15740828402371
 20
8.9923905325444
 30
0
 11
13.95740828402379
 21
8.9923905325444
 31
0
  0
LINE
  8
1
 62
7
 10
13.95740828402379
 20
-34.0076094674556
 30
0
 11
23.15740828402371
 21
-34.0076094674556
 31
0
  0
LINE
  8
1
 62
7
 10
9.957408284023785
 20
-38.50760946745559
 30
0
 11
13.95740828402379
 21
-38.50760946745559
 31
0
  0
LINE
  8
1
 62
7
 10
36.95740828402379
 20
-28.5076094674556
 30
0
 11
13.95740828402379
 21
-28.5076094674556
 31
0
  0
LINE
  8
1
 62
7
 10
23.15740828402371
 20
-47.00760946745559
 30
0
 11
23.15740828402371
 21
-28.5076094674556
 31
0
  0
LINE
  8
1
 62
7
 10
68.95740828402383
 20
107.4923905325444
 30
0
 11
68.95740828402383
 21
50.54995019262372
 31
0
  0
LINE
  8
1
 62
3
  6
DASHDOT
 10
65.97254498815462
 20
92.49239053254441
 30
0
 11
82.29460786467146
 21
92.49239053254441
 31
0
  0
LINE
  8
1
 62
7
 10
68.95740828402383
 20
98.49239053254441
 30
0
 11
78.95740828402384
 21
98.49239053254441
 31
0
  0
LINE
  8
1
 62
7
 10
78.95740828402384
 20
86.49239053254441
 30
0
 11
68.95740828402383
 21
86.49239053254441
 31
0
  0
LINE
  8
1
 62
7
 10
68.95740828402383
 20
107.4923905325444
 30
0
 11
78.95740828402384
 21
107.4923905325444
 31
0
  0
LINE
  8
1
 62
7
 10
58.05740828402374
 20
22.9923905325444
 30
0
 11
56.45740828402375
 21
22.9923905325444
 31
0
  0
LINE
  8
1
 62
7
 10
56.45740828402375
 20
22.9923905325444
 30
0
 11
56.45740828402375
 21
13.84478588073362
 31
0
  0
LINE
  8
1
 62
7
 10
56.45740828402375
 20
21.4923905325444
 30
0
 11
44.45740828402383
 21
21.4923905325444
 31
0
  0
LINE
  8
1
 62
7
 10
56.4574082840236
 20
-46.50760946745559
 30
0
 11
44.45740828402383
 21
-46.50760946745559
 31
0
  0
LINE
  8
1
 62
7
 10
56.45740828402375
 20
19.4923905325444
 30
0
 11
58.05740828402374
 21
19.4923905325444
 31
0
  0
LINE
  8
1
 62
7
 10
70.05740828402375
 20
12.9923905325444
 30
0
 11
83.55740828402375
 21
12.9923905325444
 31
0
  0
LINE
  8
1
 62
7
 10
70.05740828402375
 20
-38.00760946745559
 30
0
 11
83.55740828402375
 21
-38.00760946745559
 31
0
  0
LINE
  8
1
 62
7
 10
78.95740828402384
 20
-38.00760946745559
 30
0
 11
78.95740828402384
 21
-75.00760946745547
 31
0
  0
LINE
  8
1
 62
7
 10
56.15740828402365
 20
76.52615860712936
 30
0
 11
56.15740828402365
 21
54.99239053254441
 31
0
  0
LINE
  8
1
 62
7
 10
110.3574082840237
 20
-70.78883565689237
 30
0
 11
111.3574082840237
 21
-70.78883565689237
 31
0
  0
LINE
  8
1
 62
7
 10
111.3574082840239
 20
35.12404303013178
 30
0
 11
111.3574082840239
 21
15.99740309543778
 31
0
  0
LINE
  8
1
 62
7
 10
110.3574082840237
 20
-51.00760946745559
 30
0
 11
111.3574082840237
 21
-51.00760946745559
 31
0
  0
LINE
  8
1
 62
7
 10
110.3574082840239
 20
-79.0443352046982
 30
0
 11
111.3574082840239
 21
-79.0443352046982
 31
0
  0
LINE
  8
1
 62
7
 10
111.3574082840239
 20
-41.01262203034897
 30
0
 11
111.3574082840239
 21
-79.0443352046982
 31
0
  0
LINE
  8
1
 62
7
 10
110.5574082840237
 20
38.10968367618687
 30
0
 11
111.3574082840239
 21
35.12404303013178
 31
0
  0
LINE
  8
1
 62
7
 10
109.5574082840237
 20
37.9780311785995
 30
0
 11
110.3574082840239
 21
34.99239053254441
 31
0
  0
LINE
  8
1
 62
7
 10
110.5574082840237
 20
38.10968367618687
 30
0
 11
110.5574082840237
 21
53.99239053254441
 31
0
  0
LINE
  8
1
 62
7
 10
109.6162668374723
 20
41.99239053254441
 30
0
 11
110.5574082840237
 21
41.99239053254441
 31
0
  0
LINE
  8
1
 62
7
 10
112.8574082840239
 20
42.99239053254441
 30
0
 11
113.3574082840239
 21
43.49239053254441
 31
0
  0
LINE
  8
1
 62
7
 10
112.8574082840239
 20
52.99239053254441
 30
0
 11
113.3574082840239
 21
52.49239053254441
 31
0
  0
LINE
  8
1
 62
7
 10
111.2574082840237
 20
52.99239053254441
 30
0
 11
111.2574082840237
 21
42.99239053254441
 31
0
  0
LINE
  8
1
 62
7
 10
109.5574082840237
 20
53.99239053254441
 30
0
 11
110.5574082840237
 21
53.99239053254441
 31
0
  0
LINE
  8
1
 62
7
 10
110.5574082840237
 20
52.99239053254441
 30
0
 11
112.8574082840239
 21
52.99239053254441
 31
0
  0
LINE
  8
1
 62
7
 10
110.5574082840237
 20
42.99239053254441
 30
0
 11
112.8574082840239
 21
42.99239053254441
 31
0
  0
LINE
  8
1
 62
7
 10
113.3574082840239
 20
52.49239053254441
 30
0
 11
113.3574082840239
 21
43.49239053254441
 31
0
  0
LINE
  8
1
 62
7
 10
110.3574082840239
 20
-45.50760946745559
 30
0
 11
104.6574082840238
 21
-45.50760946745559
 31
0
  0
LINE
  8
1
 62
7
 10
104.6574082840238
 20
20.49239053254439
 30
0
 11
110.3574082840239
 21
20.49239053254439
 31
0
  0
LINE
  8
1
 62
7
 10
110.3574082840239
 20
34.99239053254441
 30
0
 11
110.3574082840239
 21
15.99239053254439
 31
0
  0
LINE
  8
1
 62
7
 10
109.5574082840237
 20
34.99239053254441
 30
0
 11
110.3574082840239
 21
34.99239053254441
 31
0
  0
LINE
  8
1
 62
7
 10
56.81009427803431
 20
76.52615860712946
 30
0
 11
56.81009427803431
 21
81.52615860712947
 31
0
  0
LINE
  8
1
 62
7
 10
57.21780273518404
 20
76.52615860712946
 30
0
 11
57.21780273518404
 21
81.52615860712947
 31
0
  0
LINE
  8
1
 62
7
 10
58.10472229001336
 20
81.52615860712947
 30
0
 11
58.10472229001336
 21
76.52615860712946
 31
0
  0
LINE
  8
1
 62
7
 10
57.6970138328634
 20
81.52615860712947
 30
0
 11
57.6970138328634
 21
76.52615860712946
 31
0
  0
LINE
  8
1
 62
7
 10
56.15740828402365
 20
76.52615860712936
 30
0
 11
58.75740828402379
 21
76.52615860712946
 31
0
  0
LINE
  8
1
 62
7
 10
58.75740828402379
 20
76.52615860712946
 30
0
 11
58.75740828402379
 21
54.99239053254441
 31
0
  0
LINE
  8
1
 62
7
 10
87.2574082840238
 20
-80.00760946745561
 30
0
 11
104.1574082840239
 21
-80.00760946745561
 31
0
  0
LINE
  8
1
 62
7
 10
104.1574082840239
 20
54.99239053254441
 30
0
 11
104.1574082840239
 21
9.992390532544389
 31
0
  0
LINE
  8
1
 62
7
 10
81.35740828402371
 20
51.75935217291192
 30
0
 11
81.35740828402371
 21
12.9923905325444
 31
0
  0
LINE
  8
1
 62
7
 10
104.1574082840239
 20
54.99239053254441
 30
0
 11
87.2574082840238
 21
54.99239053254441
 31
0
  0
LINE
  8
1
 62
7
 10
78.95740828402384
 20
49.99239053254441
 30
0
 11
81.35740828402371
 21
49.99239053254446
 31
0
  0
LINE
  8
1
 62
7
 10
78.95740828402384
 20
20.9923905325444
 30
0
 11
81.35740828402371
 21
20.9923905325444
 31
0
  0
LINE
  8
1
 62
7
 10
81.35740828402371
 20
-46.00760946745559
 30
0
 11
78.95740828402384
 21
-46.00760946745559
 31
0
  0
LINE
  8
1
 62
7
 10
109.5574082840237
 20
-60.00760946745559
 30
0
 11
109.5574082840237
 21
-70.00760946745561
 31
0
  0
LINE
  8
1
 62
7
 10
110.3574082840239
 20
-60.00760946745559
 30
0
 11
109.5574082840237
 21
-60.00760946745559
 31
0
  0
LINE
  8
1
 62
7
 10
130.9574082840238
 20
14.99239053254439
 30
0
 11
130.9574082840238
 21
-40.00760946745558
 31
0
  0
LINE
  8
1
 62
7
 10
129.9574082840238
 20
-41.00760946745558
 30
0
 11
126.2574082840238
 21
-41.00760946745558
 31
0
  0
LINE
  8
1
 62
7
 10
125.2574082840238
 20
-42.00760946745558
 30
0
 11
125.2574082840238
 21
-46.50760946745561
 31
0
  0
LINE
  8
1
 62
7
 10
126.2574082840238
 20
-47.50760946745561
 30
0
 11
129.7574082840238
 21
-47.50760946745561
 31
0
  0
LINE
  8
1
 62
7
 10
129.7574082840238
 20
-72.50760946745561
 30
0
 11
126.2574082840238
 21
-72.50760946745561
 31
0
  0
LINE
  8
1
 62
7
 10
125.2574082840238
 20
-73.50760946745561
 30
0
 11
125.2574082840238
 21
-74.50760946745561
 31
0
  0
LINE
  8
1
 62
7
 10
124.2574082840238
 20
-75.50760946745561
 30
0
 11
117.2574082840238
 21
-75.50760946745561
 31
0
  0
LINE
  8
1
 62
7
 10
116.2574082840238
 20
-74.50760946745561
 30
0
 11
116.2574082840238
 21
-73.50760946745561
 31
0
  0
LINE
  8
1
 62
7
 10
115.2574082840238
 20
-72.50760946745561
 30
0
 11
113.2574082840238
 21
-72.50760946745561
 31
0
  0
LINE
  8
1
 62
7
 10
112.2574082840238
 20
-71.50760946745561
 30
0
 11
112.2574082840238
 21
-42.00760946745558
 31
0
  0
LINE
  8
1
 62
7
 10
111.2574082840238
 20
-41.00760946745558
 30
0
 11
107.9574082840238
 21
-41.00760946745558
 31
0
  0
LINE
  8
1
 62
7
 10
106.9574082840238
 20
-40.00760946745558
 30
0
 11
106.9574082840238
 21
-36.00760946745558
 31
0
  0
LINE
  8
1
 62
7
 10
100.9574082840238
 20
-35.0076094674556
 30
0
 11
100.9574082840238
 21
9.992390532544388
 31
0
  0
LINE
  8
1
 62
7
 10
111.3574082840239
 20
-53.17021230186696
 30
0
 11
112.2574082840238
 21
-53.17021230186696
 31
0
  0
LINE
  8
1
 62
7
 10
111.3574082840239
 20
-66.84500663304428
 30
0
 11
112.2574082840238
 21
-66.84500663304428
 31
0
  0
LINE
  8
1
 62
7
 10
110.3574082840239
 20
-41.00760946745558
 30
0
 11
110.3574082840239
 21
-79.0443352046982
 31
0
  0
LINE
  8
1
 62
7
 10
104.1574082840239
 20
-35.0076094674556
 30
0
 11
104.1574082840239
 21
-80.00760946745561
 31
0
  0
LINE
  8
1
 62
7
 10
104.6574082840238
 20
-35.0076094674556
 30
0
 11
104.6574082840238
 21
-80.1076094674556
 31
0
  0
LINE
  8
1
 62
7
 10
106.9574082840238
 20
10.99239053254439
 30
0
 11
106.9574082840238
 21
14.99239053254439
 31
0
  0
LINE
  8
1
 62
7
 10
107.9574082840238
 20
15.99239053254439
 30
0
 11
111.2574082840238
 21
15.99239053254439
 31
0
  0
LINE
  8
1
 62
7
 10
112.2574082840238
 20
16.99239053254439
 30
0
 11
112.2574082840238
 21
29.49239053254439
 31
0
  0
LINE
  8
1
 62
7
 10
126.2574082840238
 20
15.99239053254439
 30
0
 11
129.9574082840238
 21
15.99239053254439
 31
0
  0
LINE
  8
1
 62
7
 10
125.2574082840238
 20
16.99239053254439
 30
0
 11
125.2574082840238
 21
29.49239053254439
 31
0
  0
LINE
  8
1
 62
7
 10
124.2574082840238
 20
30.49239053254439
 30
0
 11
113.2574082840238
 21
30.49239053254439
 31
0
  0
LINE
  8
1
 62
7
 10
122.4574082840238
 20
30.49239053254439
 30
0
 11
122.4574082840238
 21
10.9923905325444
 31
0
  0
LINE
  8
1
 62
7
 10
114.4574082840238
 20
10.9923905325444
 30
0
 11
114.4574082840238
 21
30.49239053254439
 31
0
  0
LINE
  8
1
 62
3
 10
121.4574082840238
 20
10.9923905325444
 30
0
 11
121.4574082840238
 21
2.9923905325444
 31
0
  0
LINE
  8
1
 62
3
 10
115.4574082840238
 20
2.9923905325444
 30
0
 11
115.4574082840238
 21
10.9923905325444
 31
0
  0
LINE
  8
1
 62
7
 10
120.8574082840237
 20
10.9923905325444
 30
0
 11
120.8574082840237
 21
2.9923905325444
 31
0
  0
LINE
  8
1
 62
7
 10
116.0574082840237
 20
2.9923905325444
 30
0
 11
116.0574082840237
 21
10.9923905325444
 31
0
  0
LINE
  8
1
 62
7
 10
114.4574082840238
 20
10.9923905325444
 30
0
 11
122.4574082840238
 21
10.9923905325444
 31
0
  0
LINE
  8
1
 62
3
  6
DASHDOT
 10
118.4574082840238
 20
33.0246904556136
 30
0
 11
118.4574082840238
 21
1.61090009560794
 31
0
  0
LINE
  8
1
 62
3
 10
130.9574082840238
 20
-12.5076094674556
 30
0
 11
134.1964320161578
 21
-12.5076094674556
 31
0
  0
LINE
  8
1
 62
7
 10
95.55740828402375
 20
9.192390532544399
 30
0
 11
96.80740828402375
 21
9.192390532544399
 31
0
  0
LINE
  8
1
 62
7
 10
95.55740828402375
 20
21.4923905325444
 30
0
 11
95.55740828402375
 21
9.192390532544399
 31
0
  0
LINE
  8
1
 62
7
 10
95.55740828402375
 20
12.1923905325444
 30
0
 11
96.80740828402375
 21
12.1923905325444
 31
0
  0
LINE
  8
1
 62
7
 10
96.80740828402375
 20
12.1923905325444
 30
0
 11
96.80740828402375
 21
9.192390532544399
 31
0
  0
LINE
  8
1
 62
7
 10
95.55740828402375
 20
-34.2076094674556
 30
0
 11
96.80740828402375
 21
-34.2076094674556
 31
0
  0
LINE
  8
1
 62
7
 10
96.80740828402375
 20
-34.2076094674556
 30
0
 11
96.80740828402375
 21
-37.20760946745561
 31
0
  0
LINE
  8
1
 62
7
 10
96.80740828402375
 20
-37.20760946745561
 30
0
 11
95.55740828402375
 21
-37.20760946745561
 31
0
  0
LINE
  8
1
 62
7
 10
81.35740828402371
 20
-76.77457110782302
 30
0
 11
81.35740828402393
 21
-38.00760946745559
 31
0
  0
LINE
  8
1
 62
7
 10
70.05740828402375
 20
49.99239053254441
 30
0
 11
67.45740828402383
 21
49.99239053254441
 31
0
  0
LINE
  8
1
 62
7
 10
68.95740828402383
 20
52.99239053254441
 30
0
 11
70.05740828402375
 21
52.99239053254441
 31
0
  0
LINE
  8
1
 62
7
 10
89.84056344524041
 20
76.52615860712946
 30
0
 11
89.84056344524041
 21
81.52615860712947
 31
0
  0
LINE
  8
1
 62
7
 10
90.24827190239037
 20
76.52615860712946
 30
0
 11
90.24827190239037
 21
81.52615860712947
 31
0
  0
LINE
  8
1
 62
7
 10
91.13519145721969
 20
81.52615860712947
 30
0
 11
91.13519145721969
 21
76.52615860712946
 31
0
  0
LINE
  8
1
 62
7
 10
90.72748300006973
 20
81.52615860712947
 30
0
 11
90.72748300006973
 21
76.52615860712946
 31
0
  0
LINE
  8
1
 62
7
 10
91.78787745123012
 20
76.52615860712946
 30
0
 11
91.78787745123012
 21
54.99239053254441
 31
0
  0
LINE
  8
1
 62
7
 10
89.18787745122998
 20
76.52615860712946
 30
0
 11
89.18787745122998
 21
54.99239053254441
 31
0
  0
LINE
  8
1
 62
7
 10
30.75740828402375
 20
-51.00760946745559
 30
0
 11
29.75740828402375
 21
-51.00760946745559
 31
0
  0
LINE
  8
1
 62
7
 10
29.75740828402375
 20
-70.78883565689237
 30
0
 11
30.75740828402375
 21
-70.78883565689235
 31
0
  0
LINE
  8
1
 62
7
 10
67.55740828402379
 20
302.5253991215353
 30
0
 11
66.05740828402381
 21
301.0253991215353
 31
0
  0
LINE
  8
1
 62
7
 10
67.55740828402379
 20
304.0253991215353
 30
0
 11
66.05740828402381
 21
302.5253991215353
 31
0
  0
LINE
  8
1
 62
7
 10
67.55740828402379
 20
296.4253991215354
 30
0
 11
66.05740828402381
 21
296.4253991215354
 31
0
  0
LINE
  8
1
 62
7
 10
66.05740828402381
 20
296.4253991215354
 30
0
 11
66.05740828402381
 21
308.6253991215353
 31
0
  0
LINE
  8
1
 62
7
 10
66.05740828402381
 20
308.6253991215353
 30
0
 11
67.55740828402379
 21
308.6253991215353
 31
0
  0
LINE
  8
1
 62
7
 10
67.55740828402379
 20
308.6253991215353
 30
0
 11
67.55740828402379
 21
296.4253991215354
 31
0
  0
LINE
  8
1
 62
7
 10
67.55736671528049
 20
196.4593819435532
 30
0
 11
66.05736671528049
 21
194.9593819435532
 31
0
  0
LINE
  8
1
 62
7
 10
67.55736671528049
 20
197.9593819435532
 30
0
 11
66.05736671528049
 21
196.4593819435532
 31
0
  0
LINE
  8
1
 62
7
 10
67.55736671528049
 20
190.3593819435532
 30
0
 11
66.05736671528049
 21
190.3593819435532
 31
0
  0
LINE
  8
1
 62
7
 10
66.05736671528049
 20
190.3593819435532
 30
0
 11
66.05736671528049
 21
202.5593819435532
 31
0
  0
LINE
  8
1
 62
7
 10
66.05736671528049
 20
202.5593819435532
 30
0
 11
67.55736671528049
 21
202.5593819435532
 31
0
  0
LINE
  8
1
 62
7
 10
13.95740828402379
 20
3.4923905325444
 30
0
 11
36.95740828402379
 21
3.4923905325444
 31
0
  0
LINE
  8
1
 62
7
 10
109.5574082840237
 20
55.09239053254438
 30
0
 11
109.5574082840237
 21
34.99239053254441
 31
0
  0
LINE
  8
1
 62
7
 10
67.45740828402383
 20
49.99239053254441
 30
0
 11
67.45740828402383
 21
21.4923905325444
 31
0
  0
LINE
  8
1
 62
7
 10
60.31253232879319
 20
54.99089115464884
 30
0
 11
54.45740828402383
 21
54.99089115464884
 31
0
  0
LINE
  8
1
 62
7
 10
62.24000801165665
 20
12.8098905325444
 30
0
 11
58.05740828402374
 21
12.8098905325444
 31
0
  0
LINE
  8
1
 62
7
 10
65.87480855639083
 20
12.8098905325444
 30
0
 11
70.05740828402375
 21
12.8098905325444
 31
0
  0
LINE
  8
1
 62
7
 10
62.24000801165665
 20
18.6748905325444
 30
0
 11
58.05740828402374
 21
18.6748905325444
 31
0
  0
LINE
  8
1
 62
7
 10
65.87480855639083
 20
18.6748905325444
 30
0
 11
70.05740828402375
 21
18.6748905325444
 31
0
  0
LINE
  8
1
 62
7
 10
68.78240828402375
 20
19.3792655325444
 30
0
 11
68.78240828402375
 21
12.1055155325444
 31
0
  0
LINE
  8
1
 62
7
 10
59.33240828402374
 20
19.3792655325444
 30
0
 11
59.33240828402374
 21
12.1055155325444
 31
0
  0
LINE
  8
1
 62
7
 10
58.05740828402374
 20
21.4923905325444
 30
0
 11
70.05740828402375
 21
21.4923905325444
 31
0
  0
LINE
  8
1
 62
7
 10
56.45740828402375
 20
-38.86000481564482
 30
0
 11
56.45740828402375
 21
-48.0076094674556
 31
0
  0
LINE
  8
1
 62
7
 10
56.45740828402375
 20
-48.0076094674556
 30
0
 11
58.05740828402374
 21
-48.0076094674556
 31
0
  0
LINE
  8
1
 62
7
 10
58.05740828402374
 20
-44.5076094674556
 30
0
 11
56.45740828402375
 21
-44.5076094674556
 31
0
  0
LINE
  8
1
 62
7
 10
58.05740828402374
 20
-35.0076094674556
 30
0
 11
58.05740828402374
 21
-48.0076094674556
 31
0
  0
LINE
  8
1
 62
7
 10
58.05740828402374
 20
-37.8251094674556
 30
0
 11
62.24000801165665
 21
-37.8251094674556
 31
0
  0
LINE
  8
1
 62
7
 10
59.33240828402374
 20
-37.1207344674556
 30
0
 11
59.33240828402374
 21
-44.3944844674556
 31
0
  0
LINE
  8
1
 62
7
 10
58.05740828402374
 20
-43.6901094674556
 30
0
 11
62.24000801165665
 21
-43.6901094674556
 31
0
  0
LINE
  8
1
 62
7
 10
70.05740828402375
 20
-43.6901094674556
 30
0
 11
65.87480855639083
 21
-43.6901094674556
 31
0
  0
LINE
  8
1
 62
7
 10
68.78240828402375
 20
-37.1207344674556
 30
0
 11
68.78240828402375
 21
-44.3944844674556
 31
0
  0
LINE
  8
1
 62
7
 10
70.05740828402375
 20
-37.8251094674556
 30
0
 11
65.87480855639083
 21
-37.8251094674556
 31
0
  0
LINE
  8
1
 62
7
 10
70.05740828402375
 20
-46.50760946745559
 30
0
 11
58.05740828402374
 21
-46.5076094674556
 31
0
  0
LINE
  8
1
 62
7
 10
95.55740828402375
 20
-34.2076094674556
 30
0
 11
95.55740828402375
 21
-46.5076094674556
 31
0
  0
LINE
  8
1
 62
7
 10
94.28240828402375
 20
19.3792655325444
 30
0
 11
94.28240828402375
 21
12.1055155325444
 31
0
  0
LINE
  8
1
 62
7
 10
91.37480855639083
 20
18.6748905325444
 30
0
 11
95.55740828402375
 21
18.6748905325444
 31
0
  0
LINE
  8
1
 62
7
 10
91.37480855639083
 20
12.8098905325444
 30
0
 11
95.55740828402375
 21
12.8098905325444
 31
0
  0
LINE
  8
1
 62
7
 10
87.74000801165664
 20
12.8098905325444
 30
0
 11
83.55740828402375
 21
12.8098905325444
 31
0
  0
LINE
  8
1
 62
7
 10
84.83240828402374
 20
19.3792655325444
 30
0
 11
84.83240828402374
 21
12.1055155325444
 31
0
  0
LINE
  8
1
 62
7
 10
87.74000801165664
 20
18.6748905325444
 30
0
 11
83.55740828402375
 21
18.6748905325444
 31
0
  0
LINE
  8
1
 62
7
 10
83.55740828402375
 20
9.9923905325444
 30
0
 11
83.55740828402375
 21
21.4923905325444
 31
0
  0
LINE
  8
1
 62
7
 10
83.55740828402375
 20
21.4923905325444
 30
0
 11
96.45740828402384
 21
21.4923905325444
 31
0
  0
LINE
  8
1
 62
7
 10
96.45740828402384
 20
21.4923905325444
 30
0
 11
96.45740828402384
 21
17.1203905325444
 31
0
  0
LINE
  8
1
 62
7
 10
96.45740828402384
 20
-45.5076094674556
 30
0
 11
104.1574082840239
 21
-45.5076094674556
 31
0
  0
LINE
  8
1
 62
7
 10
96.45740828402384
 20
-42.1356094674556
 30
0
 11
96.45740828402384
 21
-46.5076094674556
 31
0
  0
LINE
  8
1
 62
7
 10
95.55740828402375
 20
-37.8251094674556
 30
0
 11
91.37480855639083
 21
-37.8251094674556
 31
0
  0
LINE
  8
1
 62
7
 10
94.28240828402375
 20
-37.1207344674556
 30
0
 11
94.28240828402375
 21
-44.3944844674556
 31
0
  0
LINE
  8
1
 62
7
 10
95.55740828402375
 20
-43.6901094674556
 30
0
 11
91.37480855639083
 21
-43.6901094674556
 31
0
  0
LINE
  8
1
 62
7
 10
83.55740828402375
 20
-37.8251094674556
 30
0
 11
87.74000801165664
 21
-37.8251094674556
 31
0
  0
LINE
  8
1
 62
7
 10
84.83240828402374
 20
-37.1207344674556
 30
0
 11
84.83240828402374
 21
-44.3944844674556
 31
0
  0
LINE
  8
1
 62
7
 10
83.55740828402375
 20
-43.6901094674556
 30
0
 11
87.74000801165664
 21
-43.6901094674556
 31
0
  0
LINE
  8
1
 62
7
 10
83.55740828402375
 20
-46.5076094674556
 30
0
 11
83.55740828402375
 21
-35.0076094674556
 31
0
  0
LINE
  8
1
 62
7
 10
96.45740828402384
 20
-46.5076094674556
 30
0
 11
83.55740828402375
 21
-46.5076094674556
 31
0
  0
LINE
  8
1
 62
7
 10
105.9574082840238
 20
9.992390532544389
 30
0
 11
96.80740828402375
 21
9.9923905325444
 31
0
  0
LINE
  8
1
 62
7
 10
105.9574082840238
 20
-35.0076094674556
 30
0
 11
96.80740828402375
 21
-35.00760946745547
 31
0
  0
LINE
  8
1
 62
7
 10
130.7574082840238
 20
-71.50760946745561
 30
0
 11
130.7574082840238
 21
-40.60760946745557
 31
0
  0
LINE
  8
1
 62
7
 10
104.1574082840239
 20
316.9923905325443
 30
0
 11
104.1574082840239
 21
181.9923905325443
 31
0
  0
LINE
  8
1
 62
7
 10
67.55740828402379
 20
186.9923905325443
 30
0
 11
81.45740828402379
 21
186.9923905325443
 31
0
  0
LINE
  8
1
 62
7
 10
67.55740828402379
 20
186.9923905325443
 30
0
 11
67.55740828402379
 21
311.9923905325443
 31
0
  0
LINE
  8
1
 62
7
 10
60.08928335866205
 20
182.0080609974883
 30
0
 11
54.45740828402383
 21
182.0080609974883
 31
0
  0
LINE
  8
1
 62
7
 10
130.7574082840238
 20
190.4923905325443
 30
0
 11
130.7574082840238
 21
221.3923905325443
 31
0
  0
LINE
  8
1
 62
7
 10
112.2574082840238
 20
190.4923905325443
 30
0
 11
112.2574082840238
 21
219.9923905325443
 31
0
  0
LINE
  8
1
 62
7
 10
109.5574082840239
 20
181.8923905325443
 30
0
 11
109.5574082840239
 21
317.0923905325443
 31
0
  0
LINE
  8
1
 62
7
 10
111.3574082840239
 20
240.7579112394959
 30
0
 11
111.7574082840238
 21
240.7579112394959
 31
0
  0
LINE
  8
1
 62
7
 10
110.3574082840239
 20
296.9923905325443
 30
0
 11
109.5574082840239
 21
296.9923905325444
 31
0
  0
LINE
  8
1
 62
7
 10
60.41253232879327
 20
316.9908911546487
 30
0
 11
54.45740828402383
 21
316.9908911546487
 31
0
  0
LINE
  8
1
 62
7
 10
54.45740828402383
 20
316.9908911546487
 30
0
 11
54.45740828402383
 21
316.8423905325443
 31
0
  0
LINE
  8
1
 62
7
 10
54.45740828402383
 20
316.8423905325443
 30
0
 11
52.95740828402379
 21
316.8423905325443
 31
0
  0
LINE
  8
1
 62
7
 10
54.45740828402383
 20
182.1423905325443
 30
0
 11
54.45740828402383
 21
181.9938899104399
 31
0
  0
LINE
  8
1
 62
7
 10
52.95740828402379
 20
182.1423905325443
 30
0
 11
54.45740828402383
 21
182.1423905325443
 31
0
  0
LINE
  8
1
 62
7
 10
14.1574082840237
 20
187.9923905325443
 30
0
 11
14.1574082840237
 21
209.9006972356
 31
0
  0
LINE
  8
1
 62
7
 10
29.75740828402366
 20
182.9556647953017
 30
0
 11
29.75740828402379
 21
297.1240430301317
 31
0
  0
ARC
  8
1
 62
7
 10
-131.9425917159762
 20
-12.5076094674556
 30
0
 40
42.99999999999999
 50
181.6597901008607
 51
238.3402098991391
  0
ARC
  8
1
 62
7
 10
10.95740828402368
 20
216.4923517083712
 30
0
 40
1
 50
0
 51
90
  0
ARC
  8
1
 62
7
 10
10.95740828402368
 20
215.4923905325443
 30
0
 40
1
 50
270
 51
0
  0
ARC
  8
1
 62
7
 10
10.95740828402368
 20
215.4923905325443
 30
0
 40
1
 50
270
 51
0
  0
ARC
  8
1
 62
7
 10
11.95740828402371
 20
290.4923905325443
 30
0
 40
2
 50
89.99999999999629
 51
180
  0
ARC
  8
1
 62
7
 10
22.1574082840237
 20
291.4923905325443
 30
0
 40
1
 50
0
 51
90
  0
ARC
  8
1
 62
7
 10
12.1574082840237
 20
191.4923905325443
 30
0
 40
2
 50
180
 51
270.0000000000037
  0
ARC
  8
1
 62
7
 10
14.6574082840237
 20
187.9923905325443
 30
0
 40
0.5
 50
180
 51
270.0000000000148
  0
ARC
  8
1
 62
7
 10
22.6574082840237
 20
187.9923905325443
 30
0
 40
0.5
 50
270
 51
0
  0
ARC
  8
1
 62
7
 10
27.6574082840237
 20
190.4923905325443
 30
0
 40
1
 50
270
 51
0
  0
ARC
  8
1
 62
7
 10
23.6574082840237
 20
188.9923905325443
 30
0
 40
0.5
 50
90
 51
180
  0
ARC
  8
1
 62
7
 10
13.6574082840237
 20
188.9923905325443
 30
0
 40
0.5
 50
0
 51
89.99999999998515
  0
ARC
  8
1
 62
7
 10
23.6574082840237
 20
214.9923905325443
 30
0
 40
0.5
 50
180
 51
270
  0
ARC
  8
1
 62
7
 10
27.6574082840237
 20
213.4923905325443
 30
0
 40
1
 50
0
 51
90
  0
ARC
  8
1
 62
7
 10
27.6574082840237
 20
284.7423905325443
 30
0
 40
1.000000000000132
 50
0
 51
90
  0
ARC
  8
1
 62
7
 10
27.6574082840237
 20
261.7423905325443
 30
0
 40
1
 50
270
 51
0
  0
ARC
  8
1
 62
7
 10
13.1574082840237
 20
209.9006972356
 30
0
 40
1
 50
0
 51
89.99999999999257
  0
ARC
  8
1
 62
7
 10
115.7574082840238
 20
214.9923905325443
 30
0
 40
0.5
 50
270
 51
0
  0
ARC
  8
1
 62
7
 10
112.7574082840238
 20
213.9923905325443
 30
0
 40
0.5
 50
90
 51
180
  0
ARC
  8
1
 62
7
 10
111.7574082840238
 20
240.2579112394959
 30
0
 40
0.5
 50
0
 51
90
  0
ARC
  8
1
 62
7
 10
125.7574082840238
 20
260.2561210511086
 30
0
 40
0.5
 50
90
 51
180
  0
ARC
  8
1
 62
7
 10
130.4574082840238
 20
261.2561210511086
 30
0
 40
0.5
 50
270
 51
0
  0
ARC
  8
1
 62
7
 10
111.2574082840238
 20
261.2561210511086
 30
0
 40
0.9999999999999927
 50
275.739170477273
 51
0
  0
ARC
  8
1
 62
7
 10
115.7574082840238
 20
260.2561210511086
 30
0
 40
0.5
 50
0
 51
90
  0
ARC
  8
1
 62
7
 10
112.7574082840238
 20
261.2561210511086
 30
0
 40
0.5
 50
180
 51
270
  0
ARC
  8
1
 62
7
 10
130.4574082840238
 20
288.217130786519
 30
0
 40
0.5
 50
0
 51
90
  0
ARC
  8
1
 62
7
 10
125.7574082840238
 20
289.217130786519
 30
0
 40
0.5
 50
180
 51
270
  0
ARC
  8
1
 62
7
 10
115.7574082840238
 20
289.217130786519
 30
0
 40
0.5
 50
270
 51
0
  0
ARC
  8
1
 62
7
 10
116.7574082840238
 20
291.9923905325442
 30
0
 40
0.5
 50
90
 51
180
  0
ARC
  8
1
 62
7
 10
112.7574082840238
 20
288.217130786519
 30
0
 40
0.5
 50
90
 51
180
  0
ARC
  8
1
 62
7
 10
87.35740828402382
 20
188.9923905325443
 30
0
 40
7.000000000000043
 50
212.5569318374544
 51
270
  0
ARC
  8
1
 62
7
 10
87.35740828402382
 20
309.9923905325443
 30
0
 40
7
 50
90
 51
147.4430681625455
  0
ARC
  8
1
 62
7
 10
124.2574082840238
 20
291.4923905325442
 30
0
 40
1
 50
0
 51
90
  0
ARC
  8
1
 62
7
 10
113.2574082840238
 20
190.4923905325443
 30
0
 40
1
 50
180
 51
270
  0
ARC
  8
1
 62
7
 10
115.2574082840238
 20
188.4923905325443
 30
0
 40
1
 50
0
 51
90
  0
ARC
  8
1
 62
7
 10
115.2574082840238
 20
188.4923905325443
 30
0
 40
1
 50
0
 51
90
  0
ARC
  8
1
 62
7
 10
117.2574082840238
 20
187.4923905325443
 30
0
 40
1
 50
180
 51
270
  0
ARC
  8
1
 62
7
 10
117.2574082840238
 20
187.4923905325443
 30
0
 40
1
 50
180
 51
270
  0
ARC
  8
1
 62
7
 10
126.2574082840238
 20
188.4923905325443
 30
0
 40
1
 50
90
 51
180
  0
ARC
  8
1
 62
7
 10
126.2574082840238
 20
188.4923905325443
 30
0
 40
1
 50
90
 51
180
  0
ARC
  8
1
 62
7
 10
129.7574082840238
 20
190.4923905325443
 30
0
 40
1
 50
270
 51
0
  0
ARC
  8
1
 62
7
 10
126.2574082840238
 20
188.4923905325443
 30
0
 40
1
 50
90
 51
180
  0
ARC
  8
1
 62
7
 10
124.2574082840238
 20
187.4923905325443
 30
0
 40
1
 50
270
 51
0
  0
ARC
  8
1
 62
7
 10
129.7574082840238
 20
213.4923905325443
 30
0
 40
1
 50
0
 51
90
  0
ARC
  8
1
 62
7
 10
126.2574082840238
 20
219.9923905325443
 30
0
 40
1
 50
90
 51
180
  0
ARC
  8
1
 62
7
 10
129.9574082840238
 20
221.9923905325443
 30
0
 40
1
 50
270
 51
0
  0
ARC
  8
1
 62
7
 10
126.2574082840238
 20
215.4923905325443
 30
0
 40
1
 50
180
 51
270
  0
ARC
  8
1
 62
7
 10
111.2574082840238
 20
278.9923905325442
 30
0
 40
0.9999999999999927
 50
275.739170477273
 51
0
  0
ARC
  8
1
 62
7
 10
115.2574082840238
 20
234.3988740992071
 30
0
 40
1
 50
270
 51
0
  0
ARC
  8
1
 62
7
 10
115.2574082840238
 20
222.0065692537939
 30
0
 40
1
 50
0
 51
90
  0
ARC
  8
1
 62
7
 10
113.2574082840238
 20
224.0065692537939
 30
0
 40
1
 50
180
 51
270
  0
ARC
  8
1
 62
7
 10
113.2574082840238
 20
232.3988740992071
 30
0
 40
1
 50
90
 51
180
  0
ARC
  8
1
 62
7
 10
-104.4096433117912
 20
38.54076711958663
 30
0
 40
15
 50
241.6597901008607
 51
296.4878783281627
  0
ARC
  8
1
 62
7
 10
-73.96692656755036
 20
-14.18756500186632
 30
0
 40
14.99999999999995
 50
123.512121671837
 51
178.3402098991393
  0
ARC
  8
1
 62
7
 10
-114.6724492304874
 20
16.77962629372394
 30
0
 40
9.000000000000052
 50
346.9377452846855
 51
59.47293165849055
  0
ARC
  8
1
 62
7
 10
-97.9440302974262
 20
-12.19484522863516
 30
0
 40
8.99999999999997
 50
0.5270683415096396
 51
73.06225471531486
  0
ARC
  8
1
 62
7
 10
-189.9182568644021
 20
-14.18756500186629
 30
0
 40
15.00000000000006
 50
1.65979010086077
 51
56.48787832816279
  0
ARC
  8
1
 62
7
 10
-159.4755401201613
 20
38.54076711958663
 30
0
 40
14.99999999999998
 50
243.5121216718374
 51
298.3402098991392
  0
ARC
  8
1
 62
7
 10
-165.9411531345261
 20
-12.19484522863516
 30
0
 40
9.000000000000002
 50
106.9377452846856
 51
179.4729316584904
  0
ARC
  8
1
 62
7
 10
-149.212734201465
 20
16.77962629372394
 30
0
 40
9.000000000000053
 50
120.52706834151
 51
193.0622547153147
  0
ARC
  8
1
 62
7
 10
-101.4998749717354
 20
-61.87603052008726
 30
0
 40
14.99999999999996
 50
121.6597901008607
 51
176.4878783281624
  0
ARC
  8
1
 62
7
 10
-162.3853084602171
 20
-61.87603052008723
 30
0
 40
15.00000000000008
 50
3.512121671837362
 51
58.34020989913961
  0
ARC
  8
1
 62
7
 10
-115.214172782915
 20
-42.10760946745566
 30
0
 40
8.999999999999986
 50
226.9377452846854
 51
299.4729316584904
  0
ARC
  8
1
 62
7
 10
-148.6710106490373
 20
-42.10760946745566
 30
0
 40
9.000000000000064
 50
240.5270683415092
 51
313.0622547153142
  0
ARC
  8
1
 62
7
 10
322.1574082840237
 20
38.18088846256506
 30
0
 40
10.00000000000002
 50
25.07435374138181
 51
35.10588999740777
  0
ARC
  8
1
 62
7
 10
-184.4425917159762
 20
-65.00760946745561
 30
0
 40
10.00000000000003
 50
194.2761654117193
 51
255.7238345882814
  0
ARC
  8
1
 62
7
 10
-79.44259171597616
 20
-65.00760946745561
 30
0
 40
9.99999999999997
 50
283.9401290818814
 51
346.0598709181179
  0
ARC
  8
1
 62
7
 10
-142.7369212104588
 20
97.49239053254441
 30
0
 40
10
 50
90
 51
145.0000000000002
  0
ARC
  8
1
 62
7
 10
-121.1482622214937
 20
97.49239053254441
 30
0
 40
9.999999999999947
 50
34.99999999999978
 51
90
  0
ARC
  8
1
 62
7
 10
280.4634769034099
 20
97.49239053254441
 30
0
 40
9.999999999999835
 50
35.10588999740808
 51
90
  0
ARC
  8
1
 62
7
 10
258.8513396646375
 20
97.49239053254441
 30
0
 40
10
 50
90
 51
144.8941100025923
  0
ARC
  8
1
 62
7
 10
217.1574082840238
 20
38.18088846256506
 30
0
 40
10.00000000000013
 50
144.8941100025926
 51
154.9256462586194
  0
ARC
  8
1
 62
7
 10
322.1574082840237
 20
-65.00760946745561
 30
0
 40
10.00000000000003
 50
278.5054143476003
 51
0
  0
ARC
  8
1
 62
7
 10
217.1574082840238
 20
-65.00760946745561
 30
0
 40
10
 50
180
 51
270
  0
ARC
  8
1
 62
7
 10
11.1574082840237
 20
284.7423905325443
 30
0
 40
1
 50
89.99999999999257
 51
180
  0
ARC
  8
1
 62
7
 10
15.1574082840237
 20
287.7255305901086
 30
0
 40
1
 50
89.99999999999257
 51
180
  0
ARC
  8
1
 62
7
 10
11.95740828402379
 20
28.49239053254441
 30
0
 40
2
 50
90
 51
180
  0
ARC
  8
1
 62
7
 10
22.15740828402371
 20
29.49239053254441
 30
0
 40
1
 50
0
 51
90
  0
ARC
  8
1
 62
7
 10
12.15740828402373
 20
-70.5076094674556
 30
0
 40
2.000000000000009
 50
180
 51
270
  0
ARC
  8
1
 62
7
 10
14.65740828402373
 20
-74.0076094674556
 30
0
 40
0.5
 50
180
 51
270
  0
ARC
  8
1
 62
7
 10
22.65740828402371
 20
-74.0076094674556
 30
0
 40
0.5
 50
270
 51
0
  0
ARC
  8
1
 62
7
 10
27.65740828402383
 20
-71.50760946745561
 30
0
 40
1
 50
270
 51
0
  0
ARC
  8
1
 62
7
 10
10.95740828402379
 20
-45.50764829162869
 30
0
 40
1
 50
0
 51
90
  0
ARC
  8
1
 62
7
 10
10.95740828402381
 20
-46.50760946745559
 30
0
 40
1
 50
270
 51
0
  0
ARC
  8
1
 62
7
 10
23.65740828402383
 20
-73.0076094674556
 30
0
 40
0.5
 50
90
 51
180
  0
ARC
  8
1
 62
7
 10
13.65740828402383
 20
-73.0076094674556
 30
0
 40
0.4999999999998988
 50
0
 51
90.0000000000116
  0
ARC
  8
1
 62
7
 10
23.65740828402383
 20
-47.00760946745559
 30
0
 40
0.5000000000001208
 50
180
 51
270
  0
ARC
  8
1
 62
7
 10
27.65740828402383
 20
-48.50760946745559
 30
0
 40
1
 50
0
 51
90
  0
ARC
  8
1
 62
7
 10
27.65740828402383
 20
22.7423905325444
 30
0
 40
1
 50
0
 51
90
  0
ARC
  8
1
 62
7
 10
87.2574082840238
 20
-73.00760946745561
 30
0
 40
7.000000000000044
 50
212.5569318374535
 51
270
  0
ARC
  8
1
 62
7
 10
87.2574082840238
 20
47.99239053254441
 30
0
 40
7
 50
90
 51
147.4430681625458
  0
ARC
  8
1
 62
7
 10
129.9574082840238
 20
14.99239053254439
 30
0
 40
1
 50
0
 51
90
  0
ARC
  8
1
 62
7
 10
129.9574082840238
 20
-40.00760946745558
 30
0
 40
1
 50
270
 51
0
  0
ARC
  8
1
 62
7
 10
126.2574082840238
 20
-42.00760946745558
 30
0
 40
1
 50
90
 51
180
  0
ARC
  8
1
 62
7
 10
126.2574082840238
 20
-46.50760946745561
 30
0
 40
1
 50
180
 51
270
  0
ARC
  8
1
 62
7
 10
129.7574082840238
 20
-48.50760946745561
 30
0
 40
1
 50
0
 51
90
  0
ARC
  8
1
 62
7
 10
129.7574082840238
 20
-71.50760946745561
 30
0
 40
1
 50
270
 51
0
  0
ARC
  8
1
 62
7
 10
126.2574082840238
 20
-73.50760946745561
 30
0
 40
1
 50
90
 51
180
  0
ARC
  8
1
 62
7
 10
115.2574082840238
 20
-73.50760946745561
 30
0
 40
1
 50
0
 51
90
  0
ARC
  8
1
 62
7
 10
111.2574082840238
 20
-42.00760946745558
 30
0
 40
1
 50
0
 51
90
  0
ARC
  8
1
 62
7
 10
107.9574082840238
 20
-40.00760946745558
 30
0
 40
1
 50
180
 51
270
  0
ARC
  8
1
 62
7
 10
111.2574082840238
 20
16.99239053254439
 30
0
 40
1.000000000000002
 50
270
 51
0
  0
ARC
  8
1
 62
7
 10
124.2574082840238
 20
29.49239053254439
 30
0
 40
1
 50
0
 51
90
  0
ARC
  8
1
 62
7
 10
113.2574082840238
 20
29.49239053254439
 30
0
 40
1
 50
90
 51
180
  0
ARC
  8
1
 62
7
 10
107.9574082840238
 20
14.99239053254439
 30
0
 40
1
 50
90
 51
180
  0
ARC
  8
1
 62
7
 10
105.9574082840238
 20
10.99239053254439
 30
0
 40
1
 50
270
 51
0
  0
ARC
  8
1
 62
7
 10
105.9574082840238
 20
-36.00760946745558
 30
0
 40
1
 50
0
 51
90
  0
ARC
  8
1
 62
7
 10
117.2574082840238
 20
-74.50760946745561
 30
0
 40
1
 50
180
 51
270
  0
ARC
  8
1
 62
7
 10
124.2574082840238
 20
-74.50760946745561
 30
0
 40
1
 50
270
 51
0
  0
ARC
  8
1
 62
7
 10
113.2574082840238
 20
-71.50760946745561
 30
0
 40
1
 50
180
 51
270
  0
ARC
  8
1
 62
7
 10
126.2574082840238
 20
16.99239053254439
 30
0
 40
1
 50
180
 51
270
  0
ARC
  8
1
 62
7
 10
60.5574082840238
 20
309.9923905325443
 30
0
 40
6.999999999999993
 50
0
 51
91.18591050077575
  0
ARC
  8
1
 62
7
 10
60.5574082840238
 20
188.9923905325443
 30
0
 40
7.000000000000056
 50
266.1654835641779
 51
0.197456880950401
  0
ARC
  8
1
 62
7
 10
83.10666935251359
 20
306.8378991215353
 30
0
 40
2.350738931510219
 50
322.3012451533185
 51
37.69875484668151
  0
ARC
  8
1
 62
7
 10
76.79057415119968
 20
302.5253991215353
 30
0
 40
8.66683413282413
 50
340.6265294576771
 51
19.37347054232293
  0
ARC
  8
1
 62
7
 10
83.10666935251359
 20
298.2128991215353
 30
0
 40
2.350738931510219
 50
322.3012451533185
 51
37.69875484668151
  0
ARC
  8
1
 62
7
 10
63.40814721553402
 20
298.2128991215353
 30
0
 40
2.350738931510219
 50
142.3012451533185
 51
217.6987548466813
  0
ARC
  8
1
 62
7
 10
69.72424241684792
 20
302.5253991215353
 30
0
 40
8.666834132824111
 50
160.626529457677
 51
199.373470542323
  0
ARC
  8
1
 62
7
 10
63.40814721553402
 20
306.8378991215353
 30
0
 40
2.350738931510219
 50
142.3012451533185
 51
217.6987548466815
  0
ARC
  8
1
 62
7
 10
83.10666935251359
 20
200.7718819435532
 30
0
 40
2.350738931510219
 50
322.3012451533185
 51
37.69875484668151
  0
ARC
  8
1
 62
7
 10
76.79057415119968
 20
196.4593819435532
 30
0
 40
8.66683413282413
 50
340.6265294576771
 51
19.37347054232293
  0
ARC
  8
1
 62
7
 10
83.10666935251359
 20
192.1468819435532
 30
0
 40
2.350738931510219
 50
322.3012451533185
 51
37.69875484668151
  0
ARC
  8
1
 62
7
 10
63.40810564679072
 20
192.1468819435532
 30
0
 40
2.350738931510235
 50
142.3012451533188
 51
217.6987548466812
  0
ARC
  8
1
 62
7
 10
69.72420084810459
 20
196.4593819435532
 30
0
 40
8.666834132824103
 50
160.626529457677
 51
199.373470542323
  0
ARC
  8
1
 62
7
 10
63.40810564679071
 20
200.7718819435532
 30
0
 40
2.350738931510224
 50
142.3012451533186
 51
217.6987548466814
  0
ARC
  8
1
 62
7
 10
269.6574082840238
 20
-12.50760946745561
 30
0
 40
82.50000000000004
 50
310.7490543774704
 51
319.2509456225296
  0
ARC
  8
1
 62
7
 10
-184.9756003049673
 20
-65.54061805644668
 30
0
 40
5.000000000000044
 50
80.70820038369314
 51
9.291799616306495
  0
ARC
  8
1
 62
7
 10
-184.9756003049673
 20
40.52539912153547
 30
0
 40
5.000000000000067
 50
350.7082003836935
 51
279.291799616307
  0
ARC
  8
1
 62
7
 10
-78.90958312698507
 20
-65.54061805644668
 30
0
 40
5.0000000000001
 50
170.7082003836932
 51
99.29179961630729
  0
ARC
  8
1
 62
7
 10
-78.90958312698507
 20
40.52539912153547
 30
0
 40
5.000000000000012
 50
260.7082003836927
 51
189.2917996163066
  0
ARC
  8
1
 62
7
 10
-131.9425917159762
 20
-12.5076094674556
 30
0
 40
66.99999999999999
 50
59.99999999999999
 51
120
  0
ARC
  8
1
 62
7
 10
-131.9425917159762
 20
-12.5076094674556
 30
0
 40
53.99999999999994
 50
65.00000000000007
 51
115
  0
ARC
  8
1
 62
7
 10
-131.9425917159762
 20
-12.5076094674556
 30
0
 40
53.99999999999994
 50
185
 51
235
  0
ARC
  8
1
 62
7
 10
-131.9425917159762
 20
-12.5076094674556
 30
0
 40
67
 50
180
 51
240
  0
ARC
  8
1
 62
7
 10
-168.9425917159762
 20
-12.50760946745563
 30
0
 40
29.99999999999999
 50
130.796778267372
 51
180
  0
ARC
  8
1
 62
7
 10
-167.805600847279
 20
-15.64521620637131
 30
0
 40
17.99999999999995
 50
133.9316478548617
 51
184.9999999999999
  0
ARC
  8
1
 62
7
 10
-111.2938400073386
 20
-41.9970830618593
 30
0
 40
18.00000000000001
 50
253.9316478548621
 51
305.0000000000002
  0
ARC
  8
1
 62
7
 10
-113.4425917159762
 20
-44.55054940747983
 30
0
 40
30.00000000000002
 50
250.7967782673721
 51
300.0000000000003
  0
ARC
  8
1
 62
7
 10
-131.9425917159762
 20
-12.5076094674556
 30
0
 40
67.00000000000006
 50
300.0000000000001
 51
0
  0
ARC
  8
1
 62
7
 10
-131.9425917159762
 20
-12.5076094674556
 30
0
 40
54
 50
305
 51
354.9999999999999
  0
ARC
  8
1
 62
7
 10
-116.728334293311
 20
20.11947086586378
 30
0
 40
18
 50
13.93164785486189
 51
65.00000000000027
  0
ARC
  8
1
 62
7
 10
-113.4425917159762
 20
19.53533047256861
 30
0
 40
30.00000000000005
 50
10.79677826737206
 51
59.99999999999999
  0
ARC
  8
1
 62
7
 10
-131.9425917159762
 20
-12.5076094674556
 30
0
 40
47.50000000000001
 50
289.946071626425
 51
10.05392837357498
  0
ARC
  8
1
 62
7
 10
-90.80638503621529
 20
11.24239053254436
 30
0
 40
15.49999999999996
 50
53.77859599899104
 51
116.4878783281628
  0
ARC
  8
1
 62
7
 10
-90.80638503621529
 20
11.24239053254436
 30
0
 40
15.50000000000002
 50
166.9377452846852
 51
253.0622547153144
  0
ARC
  8
1
 62
7
 10
-131.9425917159762
 20
-12.5076094674556
 30
0
 40
42.99999999999996
 50
61.65979010086073
 51
118.3402098991394
  0
ARC
  8
1
 62
7
 10
-173.078798395737
 20
11.2423905325444
 30
0
 40
15.50000000000009
 50
173.7785959989911
 51
236.4878783281622
  0
ARC
  8
1
 62
7
 10
-173.078798395737
 20
11.2423905325444
 30
0
 40
15.50000000000001
 50
286.9377452846853
 51
13.06225471531467
  0
ARC
  8
1
 62
7
 10
-131.9425917159762
 20
-60.00760946745561
 30
0
 40
15.50000000000003
 50
293.7785959989913
 51
356.4878783281624
  0
ARC
  8
1
 62
7
 10
-131.9425917159762
 20
-60.00760946745561
 30
0
 40
15.49999999999998
 50
46.93774528468511
 51
133.0622547153149
  0
ARC
  8
1
 62
7
 10
-131.9425917159762
 20
-12.5076094674556
 30
0
 40
43.00000000000007
 50
301.6597901008606
 51
358.3402098991392
  0
ARC
  8
1
 62
7
 10
-131.9425917159762
 20
-12.5076094674556
 30
0
 40
62.00000000000003
 50
24.21471020877553
 51
35.7852897912244
  0
ARC
  8
1
 62
7
 10
-90.80638503621529
 20
11.24239053254436
 30
0
 40
15.49999999999997
 50
303.5121216718375
 51
6.221404001009216
  0
ARC
  8
1
 62
7
 10
-131.9425917159762
 20
-60.00760946745561
 30
0
 40
15.49999999999995
 50
183.5121216718376
 51
246.2214040010082
  0
ARC
  8
1
 62
7
 10
-131.9425917159762
 20
-12.5076094674556
 30
0
 40
61.9999999999999
 50
144.2147102087756
 51
155.7852897912245
  0
ARC
  8
1
 62
7
 10
-173.078798395737
 20
11.2423905325444
 30
0
 40
15.49999999999993
 50
63.51212167183784
 51
126.2214040010092
  0
ARC
  8
1
 62
7
 10
-94.94259171597619
 20
-12.50760946745565
 30
0
 40
30.00000000000003
 50
0
 51
49.20322173262797
  0
ARC
  8
1
 62
7
 10
-96.07958258467329
 20
-15.64521620637134
 30
0
 40
17.99999999999991
 50
354.9999999999999
 51
46.06835214513816
  0
ARC
  8
1
 62
7
 10
-150.4425917159762
 20
-44.55054940747983
 30
0
 40
30
 50
240
 51
289.2032217326276
  0
ARC
  8
1
 62
7
 10
-152.5913434246139
 20
-41.9970830618593
 30
0
 40
17.99999999999998
 50
235.0000000000001
 51
286.068352145138
  0
ARC
  8
1
 62
7
 10
-131.9425917159762
 20
-12.5076094674556
 30
0
 40
47.50000000000004
 50
169.946071626425
 51
250.053928373575
  0
ARC
  8
1
 62
7
 10
-147.1568491386414
 20
20.1194708658638
 30
0
 40
18
 50
115
 51
166.0683521451382
  0
ARC
  8
1
 62
7
 10
-150.4425917159762
 20
19.53533047256864
 30
0
 40
30.00000000000001
 50
120
 51
169.203221732628
  0
ARC
  8
1
 62
7
 10
-131.9425917159762
 20
-12.5076094674556
 30
0
 40
47.49999999999998
 50
49.94607162642495
 51
130.053928373575
  0
ARC
  8
1
 62
7
 10
269.6574082840238
 20
-12.50760946745561
 30
0
 40
82.5
 50
220.7490543774704
 51
229.2509456225296
  0
ARC
  8
1
 62
7
 10
269.6574082840238
 20
-12.50760946745561
 30
0
 40
82.49999999999993
 50
40.74905437747045
 51
49.25094562252959
  0
ARC
  8
1
 62
7
 10
269.6574082840238
 20
-12.50760946745561
 30
0
 40
82.50000000000004
 50
130.7490543774704
 51
139.2509456225296
  0
ARC
  8
1
 62
7
 10
269.6574082840238
 20
-12.50760946745561
 30
0
 40
47.49999999999998
 50
289.9460716264249
 51
10.05392837357507
  0
ARC
  8
1
 62
7
 10
269.6574082840238
 20
-12.50760946745561
 30
0
 40
66.99999999999997
 50
300.0000000000001
 51
0
  0
ARC
  8
1
 62
7
 10
269.6574082840238
 20
-12.50760946745561
 30
0
 40
53.99999999999984
 50
304.9999999999999
 51
354.9999999999999
  0
ARC
  8
1
 62
7
 10
269.6574082840238
 20
-12.50760946745561
 30
0
 40
53.99999999999999
 50
65.0000000000001
 51
115
  0
ARC
  8
1
 62
7
 10
269.6574082840238
 20
-12.50760946745561
 30
0
 40
66.99999999999997
 50
60.00000000000009
 51
120
  0
ARC
  8
1
 62
7
 10
288.1574082840237
 20
19.53533047256861
 30
0
 40
30.00000000000004
 50
10.79677826737208
 51
60.00000000000005
  0
ARC
  8
1
 62
7
 10
284.8716657066888
 20
20.11947086586377
 30
0
 40
18.0000000000001
 50
13.93164785486186
 51
64.99999999999982
  0
ARC
  8
1
 62
7
 10
269.6574082840238
 20
-12.50760946745561
 30
0
 40
67
 50
180
 51
239.9999999999999
  0
ARC
  8
1
 62
7
 10
269.6574082840238
 20
-12.50760946745561
 30
0
 40
54.00000000000005
 50
185
 51
234.9999999999998
  0
ARC
  8
1
 62
7
 10
288.1574082840237
 20
-44.55054940747983
 30
0
 40
30.00000000000005
 50
250.7967782673721
 51
300.0000000000002
  0
ARC
  8
1
 62
7
 10
290.3061599926613
 20
-41.99708306185932
 30
0
 40
17.99999999999997
 50
253.931647854862
 51
304.9999999999999
  0
ARC
  8
1
 62
7
 10
233.7943991527208
 20
-15.64521620637132
 30
0
 40
18
 50
133.9316478548617
 51
184.9999999999999
  0
ARC
  8
1
 62
7
 10
232.6574082840238
 20
-12.50760946745564
 30
0
 40
30.00000000000007
 50
130.7967782673722
 51
180
  0
ARC
  8
1
 62
7
 10
269.6574082840238
 20
-12.50760946745561
 30
0
 40
12.5
 50
106.260204708312
 51
73.73979529168804
  0
ARC
  8
1
 62
7
 10
239.2146915397829
 20
-61.87603052008719
 30
0
 40
14.99999999999989
 50
3.512121671837463
 51
58.34020989913974
  0
ARC
  8
1
 62
7
 10
269.6574082840238
 20
-12.50760946745561
 30
0
 40
43.00000000000008
 50
181.6597901008607
 51
238.3402098991391
  0
ARC
  8
1
 62
7
 10
249.0086565753861
 20
-41.99708306185932
 30
0
 40
18.0000000000001
 50
234.9999999999995
 51
286.0683521451382
  0
ARC
  8
1
 62
7
 10
269.6574082840238
 20
-12.50760946745561
 30
0
 40
47.50000000000013
 50
169.946071626425
 51
250.053928373575
  0
ARC
  8
1
 62
7
 10
300.1001250282646
 20
-61.87603052008719
 30
0
 40
14.99999999999995
 50
121.6597901008606
 51
176.4878783281627
  0
ARC
  8
1
 62
7
 10
251.1574082840237
 20
-44.55054940747983
 30
0
 40
30
 50
240
 51
289.203221732628
  0
ARC
  8
1
 62
7
 10
269.6574082840238
 20
-60.00760946745561
 30
0
 40
15.50000000000015
 50
183.5121216718374
 51
356.4878783281624
  0
ARC
  8
1
 62
7
 10
297.1903566882086
 20
38.54076711958667
 30
0
 40
15
 50
241.6597901008608
 51
296.4878783281629
  0
ARC
  8
1
 62
7
 10
310.7936149637846
 20
11.24239053254439
 30
0
 40
15.50000000000005
 50
303.5121216718376
 51
116.4878783281627
  0
ARC
  8
1
 62
7
 10
327.6330734324495
 20
-14.18756500186632
 30
0
 40
14.9999999999999
 50
123.5121216718368
 51
178.3402098991392
  0
ARC
  8
1
 62
7
 10
211.6817431355979
 20
-14.18756500186627
 30
0
 40
14.99999999999994
 50
1.659790100860708
 51
56.48787832816262
  0
ARC
  8
1
 62
7
 10
211.6817431355979
 20
-14.18756500186627
 30
0
 40
14.99999999999994
 50
1.659790100860708
 51
56.48787832816262
  0
ARC
  8
1
 62
7
 10
228.5212016042629
 20
11.24239053254443
 30
0
 40
15.49999999999997
 50
63.51212167183756
 51
236.4878783281627
  0
ARC
  8
1
 62
7
 10
242.1244598798388
 20
38.54076711958668
 30
0
 40
15.00000000000004
 50
243.512121671837
 51
298.340209899139
  0
ARC
  8
1
 62
7
 10
305.5204174153266
 20
-15.64521620637135
 30
0
 40
17.99999999999996
 50
354.9999999999999
 51
46.06835214513836
  0
ARC
  8
1
 62
7
 10
306.6574082840237
 20
-12.50760946745566
 30
0
 40
30
 50
0
 51
49.20322173262793
  0
ARC
  8
1
 62
7
 10
269.6574082840238
 20
-12.50760946745561
 30
0
 40
43.00000000000001
 50
301.6597901008607
 51
358.3402098991393
  0
ARC
  8
1
 62
7
 10
251.1574082840238
 20
19.53533047256863
 30
0
 40
30
 50
120
 51
169.203221732628
  0
ARC
  8
1
 62
7
 10
254.4431508613586
 20
20.11947086586378
 30
0
 40
18.00000000000001
 50
115
 51
166.068352145138
  0
ARC
  8
1
 62
7
 10
269.6574082840238
 20
-12.50760946745561
 30
0
 40
47.49999999999992
 50
49.94607162642503
 51
130.0539283735751
  0
ARC
  8
1
 62
7
 10
269.6574082840238
 20
-12.50760946745561
 30
0
 40
42.99999999999992
 50
61.65979010086097
 51
118.3402098991393
  0
ARC
  8
1
 62
7
 10
-131.9425917159762
 20
-12.5076094674556
 30
0
 40
83.00000000000003
 50
41.1480312019706
 51
48.8519687980294
  0
ARC
  8
1
 62
7
 10
-131.9425917159762
 20
-12.5076094674556
 30
0
 40
83
 50
221.1480312019706
 51
228.8519687980295
  0
ARC
  8
1
 62
7
 10
-131.9425917159762
 20
-12.5076094674556
 30
0
 40
83.00000000000003
 50
131.1480312019706
 51
138.8519687980294
  0
ARC
  8
1
 62
7
 10
-131.9425917159762
 20
-12.5076094674556
 30
0
 40
62.00000000000001
 50
264.2147102087753
 51
275.7852897912246
  0
ARC
  8
1
 62
7
 10
60.45740828402383
 20
47.99239053254441
 30
0
 40
7
 50
0
 51
91.18591050077662
  0
ARC
  8
1
 62
7
 10
60.45740828402383
 20
27.9923905325444
 30
0
 40
6.999999999999939
 50
291.7867892982605
 51
0
  0
ARC
  8
1
 62
7
 10
60.45740828402383
 20
-73.0076094674556
 30
0
 40
6.999999999999997
 50
266.165483564178
 51
0.1974568809510978
  0
ARC
  8
1
 62
7
 10
60.45740828402383
 20
-53.00760946745559
 30
0
 40
7
 50
0
 51
68.21321070173944
  0
ARC
  8
1
 62
7
 10
87.2574082840238
 20
27.99239053254439
 30
0
 40
7.000000000000104
 50
212.5569318374543
 51
248.213210701736
  0
ARC
  8
1
 62
7
 10
87.2574082840238
 20
-53.00760946745559
 30
0
 40
7.000000000000092
 50
111.786789298264
 51
147.4430681625458
  0
ARC
  8
1
 62
7
 10
111.2574082840238
 20
219.9923905325443
 30
0
 40
1
 50
0
 51
84.26082952272695
  0
CIRCLE
  8
1
 62
7
 10
57.5574082840238
 20
250.7923905325443
 30
0
 40
1.299999999999997
  0
CIRCLE
  8
1
 62
7
 10
57.5574082840238
 20
248.1923905325443
 30
0
 40
1.299999999999997
  0
CIRCLE
  8
1
 62
7
 10
91.4574082840239
 20
248.1923905325443
 30
0
 40
1.300000000000011
  0
CIRCLE
  8
1
 62
7
 10
91.4574082840239
 20
250.7923905325443
 30
0
 40
1.300000000000011
  0
CIRCLE
  8
1
 62
7
 10
269.6574082840238
 20
-12.50760946745561
 30
0
 40
67.59999999999991
  0
CIRCLE
  8
1
 62
7
 10
-131.9425917159762
 20
-12.5076094674556
 30
0
 40
67.59999999999999
  0
CIRCLE
  8
1
 62
3
 10
-184.9756003049673
 20
-65.54061805644668
 30
0
 40
2.399999999999892
  0
CIRCLE
  8
1
 62
7
 10
-184.9756003049673
 20
-65.54061805644668
 30
0
 40
3
  0
CIRCLE
  8
1
 62
3
 10
-184.9756003049673
 20
40.52539912153547
 30
0
 40
2.399999999999892
  0
CIRCLE
  8
1
 62
7
 10
-184.9756003049673
 20
40.52539912153547
 30
0
 40
3
  0
CIRCLE
  8
1
 62
3
 10
-78.90958312698507
 20
-65.54061805644668
 30
0
 40
2.400000000000006
  0
CIRCLE
  8
1
 62
7
 10
-78.90958312698507
 20
-65.54061805644668
 30
0
 40
3
  0
CIRCLE
  8
1
 62
3
 10
-78.90958312698507
 20
40.52539912153547
 30
0
 40
2.400000000000006
  0
CIRCLE
  8
1
 62
7
 10
-78.90958312698507
 20
40.52539912153547
 30
0
 40
3
  0
CIRCLE
  8
1
 62
7
 10
-131.9425917159762
 20
-12.5076094674556
 30
0
 40
71.00000000000001
  0
CIRCLE
  8
1
 62
7
 10
-131.9425917159762
 20
47.9923905325444
 30
0
 40
4.999999999999986
  0
CIRCLE
  8
1
 62
7
 10
-173.078798395737
 20
11.2423905325444
 30
0
 40
3
  0
CIRCLE
  8
1
 62
7
 10
-184.3371286449348
 20
-42.75760946745559
 30
0
 40
5
  0
CIRCLE
  8
1
 62
7
 10
-79.54805478701766
 20
-42.75760946745565
 30
0
 40
5
  0
CIRCLE
  8
1
 62
7
 10
-131.9425917159762
 20
-60.00760946745561
 30
0
 40
3.000000000000085
  0
CIRCLE
  8
1
 62
7
 10
-90.80638503621529
 20
11.24239053254436
 30
0
 40
2.999999999999915
  0
CIRCLE
  8
1
 62
7
 10
-90.80638503621529
 20
11.24239053254436
 30
0
 40
12.49999999999992
  0
CIRCLE
  8
1
 62
7
 10
-90.80638503621529
 20
11.24239053254436
 30
0
 40
9.999999999999915
  0
CIRCLE
  8
1
 62
7
 10
-90.80638503621529
 20
11.24239053254436
 30
0
 40
6.999999999999915
  0
CIRCLE
  8
1
 62
7
 10
-90.80638503621529
 20
11.24239053254436
 30
0
 40
2.999999999999915
  0
CIRCLE
  8
1
 62
7
 10
-173.078798395737
 20
11.2423905325444
 30
0
 40
12.5
  0
CIRCLE
  8
1
 62
7
 10
-173.078798395737
 20
11.2423905325444
 30
0
 40
10
  0
CIRCLE
  8
1
 62
7
 10
-173.078798395737
 20
11.2423905325444
 30
0
 40
7
  0
CIRCLE
  8
1
 62
7
 10
-173.078798395737
 20
11.2423905325444
 30
0
 40
3
  0
CIRCLE
  8
1
 62
7
 10
-131.9425917159762
 20
-60.00760946745561
 30
0
 40
12.49999999999999
  0
CIRCLE
  8
1
 62
7
 10
-131.9425917159762
 20
-60.00760946745561
 30
0
 40
10.00000000000009
  0
CIRCLE
  8
1
 62
7
 10
-131.9425917159762
 20
-60.00760946745561
 30
0
 40
6.999999999999986
  0
CIRCLE
  8
1
 62
7
 10
-131.9425917159762
 20
-60.00760946745561
 30
0
 40
3.000000000000085
  0
CIRCLE
  8
1
 62
7
 10
-131.9425917159762
 20
-12.5076094674556
 30
0
 40
25.99999999999999
  0
CIRCLE
  8
1
 62
7
 10
-131.9425917159762
 20
-12.5076094674556
 30
0
 40
21.49999999999999
  0
CIRCLE
  8
1
 62
7
 10
-114.4425917159762
 20
17.80327966499975
 30
0
 40
3.200000000000003
  0
CIRCLE
  8
1
 62
3
 10
-114.4425917159762
 20
17.80327966499975
 30
0
 40
4
  0
CIRCLE
  8
1
 62
7
 10
-149.4425917159762
 20
17.80327966499976
 30
0
 40
3.199999999999989
  0
CIRCLE
  8
1
 62
3
 10
-149.4425917159762
 20
17.80327966499976
 30
0
 40
4
  0
CIRCLE
  8
1
 62
7
 10
-166.9425917159762
 20
-12.50760946745558
 30
0
 40
3.199999999999989
  0
CIRCLE
  8
1
 62
3
 10
-166.9425917159762
 20
-12.50760946745558
 30
0
 40
4
  0
CIRCLE
  8
1
 62
7
 10
-149.4425917159762
 20
-42.81849859991094
 30
0
 40
3.200000000000102
  0
CIRCLE
  8
1
 62
3
 10
-149.4425917159762
 20
-42.81849859991094
 30
0
 40
4
  0
CIRCLE
  8
1
 62
7
 10
-114.4425917159762
 20
-42.81849859991096
 30
0
 40
3.200000000000003
  0
CIRCLE
  8
1
 62
3
 10
-114.4425917159762
 20
-42.81849859991096
 30
0
 40
4
  0
CIRCLE
  8
1
 62
7
 10
-96.94259171597619
 20
-12.50760946745562
 30
0
 40
3.199999999999989
  0
CIRCLE
  8
1
 62
3
 10
-96.94259171597619
 20
-12.50760946745562
 30
0
 40
4
  0
CIRCLE
  8
1
 62
7
 10
-131.9425917159762
 20
-12.5076094674556
 30
0
 40
12.49999999999999
  0
CIRCLE
  8
1
 62
7
 10
-131.9425917159762
 20
-12.5076094674556
 30
0
 40
15.99999999999999
  0
CIRCLE
  8
1
 62
7
 10
322.0519452129822
 20
-42.75760946745566
 30
0
 40
5
  0
CIRCLE
  8
1
 62
7
 10
217.2628713550652
 20
-42.75760946745559
 30
0
 40
5
  0
CIRCLE
  8
1
 62
7
 10
269.6574082840238
 20
47.99239053254439
 30
0
 40
5
  0
CIRCLE
  8
1
 62
7
 10
269.6574082840238
 20
-60.00760946745561
 30
0
 40
7
  0
CIRCLE
  8
1
 62
7
 10
269.6574082840238
 20
-60.00760946745561
 30
0
 40
10
  0
CIRCLE
  8
1
 62
7
 10
269.6574082840238
 20
-60.00760946745561
 30
0
 40
2.25
  0
CIRCLE
  8
1
 62
7
 10
269.6574082840238
 20
-60.00760946745561
 30
0
 40
12.5
  0
CIRCLE
  8
1
 62
7
 10
269.6574082840238
 20
-12.50760946745561
 30
0
 40
28.49999999999989
  0
CIRCLE
  8
1
 62
7
 10
310.7936149637846
 20
11.24239053254439
 30
0
 40
7
  0
CIRCLE
  8
1
 62
7
 10
310.7936149637846
 20
11.24239053254439
 30
0
 40
10
  0
CIRCLE
  8
1
 62
7
 10
310.7936149637846
 20
11.24239053254439
 30
0
 40
2.25
  0
CIRCLE
  8
1
 62
7
 10
310.7936149637846
 20
11.24239053254439
 30
0
 40
12.5
  0
CIRCLE
  8
1
 62
7
 10
228.5212016042629
 20
11.24239053254443
 30
0
 40
12.5
  0
CIRCLE
  8
1
 62
7
 10
228.5212016042629
 20
11.24239053254443
 30
0
 40
7
  0
CIRCLE
  8
1
 62
7
 10
228.5212016042629
 20
11.24239053254443
 30
0
 40
7
  0
CIRCLE
  8
1
 62
7
 10
228.5212016042629
 20
11.24239053254443
 30
0
 40
2.25
  0
CIRCLE
  8
1
 62
7
 10
228.5212016042629
 20
11.24239053254443
 30
0
 40
10
  0
CIRCLE
  8
1
 62
7
 10
269.6574082840237
 20
92.49239053254441
 30
0
 40
6
  0
CIRCLE
  8
1
 62
7
 10
216.6243996950327
 20
40.52539912153547
 30
0
 40
5
  0
CIRCLE
  8
1
 62
7
 10
322.6904168730147
 20
40.52539912153547
 30
0
 40
5
  0
CIRCLE
  8
1
 62
7
 10
216.6243996950327
 20
-65.54061805644668
 30
0
 40
5
  0
CIRCLE
  8
1
 62
7
 10
322.6904168730147
 20
-65.54061805644668
 30
0
 40
5
  0
CIRCLE
  8
1
 62
7
 10
-131.9425917159762
 20
92.49239053254441
 30
0
 40
5.999999999999986
  0
CIRCLE
  8
1
 62
7
 10
64.05740828402375
 20
15.7423905325444
 30
0
 40
3.45000000000001
  0
CIRCLE
  8
1
 62
7
 10
64.05740828402375
 20
-40.7576094674556
 30
0
 40
3.45000000000001
  0
CIRCLE
  8
1
 62
7
 10
89.55740828402375
 20
15.7423905325444
 30
0
 40
3.450000000000017
  0
CIRCLE
  8
1
 62
7
 10
89.55740828402375
 20
-40.7576094674556
 30
0
 40
3.450000000000017
  0
TEXT
  8
1
 62
7
 10
-150.8425917159762
 20
282.7419045032875
 30
0
 40
7
  1
DC2408
 41
0.9
  7
SIMPLEX
  0
TEXT
  8
1
 62
7
 10
-150.8425917159762
 20
293.2419045032875
 30
0
 40
7
  1
TMAT 5
 41
0.9
  7
SIMPLEX
  0
ENDSEC
  0
EOF
